ISO-10303-21;
HEADER;
FILE_DESCRIPTION (( 'STEP AP214' ),
    '1' );
FILE_NAME ('83434.STEP',
    '2023-06-23T10:09:22',
    ( '' ),
    ( '' ),
    'SwSTEP 2.0',
    'SolidWorks 2023',
    '' );
FILE_SCHEMA (( 'AUTOMOTIVE_DESIGN' ));
ENDSEC;

DATA;
#1 = CARTESIAN_POINT ( 'NONE',  ( 1.148106374200643863E-17, 0.000000000000000000, 0.09375000000000001388 ) ) ;
#2 = SHAPE_DEFINITION_REPRESENTATION ( #7, #225 ) ;
#3 = CARTESIAN_POINT ( 'NONE',  ( 0.000000000000000000, 1.187499999999999778, 0.000000000000000000 ) ) ;
#4 = CARTESIAN_POINT ( 'NONE',  ( 0.000000000000000000, 1.187499999999999778, -0.09375000000000001388 ) ) ;
#5 = AXIS2_PLACEMENT_3D ( 'NONE', #201, #293, #252 ) ;
#6 = DIMENSIONAL_EXPONENTS ( 1.000000000000000000, 0.000000000000000000, 0.000000000000000000, 0.000000000000000000, 0.000000000000000000, 0.000000000000000000, 0.000000000000000000 ) ;
#7 = PRODUCT_DEFINITION_SHAPE ( 'NONE', 'NONE',  #199 ) ;
#8 = ORIENTED_EDGE ( 'NONE', *, *, #155, .F. ) ;
#9 = FACE_OUTER_BOUND ( 'NONE', #206, .T. ) ;
#10 = MECHANICAL_DESIGN_GEOMETRIC_PRESENTATION_REPRESENTATION (  '', ( #240 ), #62 ) ;
#11 = EDGE_LOOP ( 'NONE', ( #165, #115, #154, #90 ) ) ;
#12 = AXIS2_PLACEMENT_3D ( 'NONE', #156, #126, #101 ) ;
#13 = UNCERTAINTY_MEASURE_WITH_UNIT (LENGTH_MEASURE( 1.000000000000000082E-05 ), #17, 'distance_accuracy_value', 'NONE');
#14 = ORIENTED_EDGE ( 'NONE', *, *, #91, .T. ) ;
#15 = DIRECTION ( 'NONE',  ( 6.756671995295744383E-17, -1.000000000000000000, 0.000000000000000000 ) ) ;
#16 = PRESENTATION_LAYER_ASSIGNMENT (  '', '', ( #129 ) ) ;
#17 =( CONVERSION_BASED_UNIT ( 'INCH', #280 ) LENGTH_UNIT ( ) NAMED_UNIT ( #222 ) );
#18 = PRESENTATION_STYLE_ASSIGNMENT (( #96 ) ) ;
#19 = DIMENSIONAL_EXPONENTS ( 1.000000000000000000, 0.000000000000000000, 0.000000000000000000, 0.000000000000000000, 0.000000000000000000, 0.000000000000000000, 0.000000000000000000 ) ;
#20 = FILL_AREA_STYLE_COLOUR ( '', #269 ) ;
#21 = ADVANCED_FACE ( 'NONE', ( #276 ), #39, .F. ) ;
#22 = COLOUR_RGB ( '',1.000000000000000000, 0.000000000000000000, 0.000000000000000000 ) ;
#23 = CIRCLE ( 'NONE', #103, 0.09375000000000001388 ) ;
#24 = DIRECTION ( 'NONE',  ( -6.756671995295744383E-17, 1.000000000000000000, -0.000000000000000000 ) ) ;
#25 = CARTESIAN_POINT ( 'NONE',  ( 0.000000000000000000, 0.000000000000000000, 0.000000000000000000 ) ) ;
#26 = FILL_AREA_STYLE ('',( #213 ) ) ;
#27 = CYLINDRICAL_SURFACE ( 'NONE', #296, 0.09375000000000005551 ) ;
#28 = STYLED_ITEM ( 'NONE', ( #18 ), #288 ) ;
#29 = DIRECTION ( 'NONE',  ( 0.000000000000000000, 0.000000000000000000, -1.000000000000000000 ) ) ;
#30 = EDGE_CURVE ( 'NONE', #61, #157, #302, .T. ) ;
#31 = DIRECTION ( 'NONE',  ( -0.000000000000000000, -1.000000000000000000, -0.000000000000000000 ) ) ;
#32 = FACE_OUTER_BOUND ( 'NONE', #113, .T. ) ;
#33 = ORIENTED_EDGE ( 'NONE', *, *, #60, .T. ) ;
#34 = EDGE_CURVE ( 'NONE', #258, #83, #125, .T. ) ;
#35 = MECHANICAL_DESIGN_GEOMETRIC_PRESENTATION_REPRESENTATION (  '', ( #129 ), #247 ) ;
#36 = LENGTH_MEASURE_WITH_UNIT ( LENGTH_MEASURE( 0.02539999999999999897 ), #236 );
#37 = DIRECTION ( 'NONE',  ( -6.756671995295744383E-17, 1.000000000000000000, -0.000000000000000000 ) ) ;
#38 = ORIENTED_EDGE ( 'NONE', *, *, #216, .T. ) ;
#39 = PLANE ( 'NONE',  #102 ) ;
#40 = STYLED_ITEM ( 'NONE', ( #173 ), #180 ) ;
#41 = SURFACE_STYLE_FILL_AREA ( #187 ) ;
#42 = LINE ( 'NONE', #65, #116 ) ;
#43 = PRESENTATION_STYLE_ASSIGNMENT (( #249 ) ) ;
#44 = DIRECTION ( 'NONE',  ( 0.000000000000000000, -1.000000000000000000, -0.000000000000000000 ) ) ;
#45 = SURFACE_STYLE_USAGE ( .BOTH. , #265 ) ;
#46 = FACE_OUTER_BOUND ( 'NONE', #11, .T. ) ;
#47 = CIRCLE ( 'NONE', #301, 0.09375000000000012490 ) ;
#48 = CARTESIAN_POINT ( 'NONE',  ( 0.000000000000000000, 0.000000000000000000, 0.000000000000000000 ) ) ;
#49 = EDGE_CURVE ( 'NONE', #61, #262, #256, .T. ) ;
#50 = FILL_AREA_STYLE ('',( #78 ) ) ;
#51 = DIRECTION ( 'NONE',  ( -6.756671995295744383E-17, 1.000000000000000000, -0.000000000000000000 ) ) ;
#52 = PLANE ( 'NONE',  #164 ) ;
#53 = EDGE_LOOP ( 'NONE', ( #8, #188, #14, #163 ) ) ;
#54 =( NAMED_UNIT ( * ) SI_UNIT ( $, .STERADIAN. ) SOLID_ANGLE_UNIT ( ) );
#55 = FILL_AREA_STYLE_COLOUR ( '', #141 ) ;
#56 = MECHANICAL_DESIGN_GEOMETRIC_PRESENTATION_REPRESENTATION (  '', ( #40 ), #219 ) ;
#57 = ORIENTED_EDGE ( 'NONE', *, *, #60, .F. ) ;
#58 = CARTESIAN_POINT ( 'NONE',  ( 0.000000000000000000, 1.187499999999999778, 0.000000000000000000 ) ) ;
#59 = APPLICATION_CONTEXT ( 'automotive_design' ) ;
#60 = EDGE_CURVE ( 'NONE', #186, #157, #47, .T. ) ;
#61 = VERTEX_POINT ( 'NONE', #209 ) ;
#62 =( GEOMETRIC_REPRESENTATION_CONTEXT ( 3 ) GLOBAL_UNCERTAINTY_ASSIGNED_CONTEXT ( ( #13 ) ) GLOBAL_UNIT_ASSIGNED_CONTEXT ( ( #17, #92, #86 ) ) REPRESENTATION_CONTEXT ( 'NONE', 'WORKASPACE' ) );
#63 = AXIS2_PLACEMENT_3D ( 'NONE', #272, #51, #270 ) ;
#64 =( NAMED_UNIT ( * ) SI_UNIT ( $, .STERADIAN. ) SOLID_ANGLE_UNIT ( ) );
#65 = CARTESIAN_POINT ( 'NONE',  ( 0.000000000000000000, 0.000000000000000000, -0.09375000000000001388 ) ) ;
#66 =( NAMED_UNIT ( * ) PLANE_ANGLE_UNIT ( ) SI_UNIT ( $, .RADIAN. ) );
#67 = LENGTH_MEASURE_WITH_UNIT ( LENGTH_MEASURE( 0.02539999999999999897 ), #73 );
#68 = COLOUR_RGB ( '',1.000000000000000000, 0.000000000000000000, 0.000000000000000000 ) ;
#69 =( LENGTH_UNIT ( ) NAMED_UNIT ( * ) SI_UNIT ( $, .METRE. ) );
#70 = CIRCLE ( 'NONE', #5, 0.09375000000000001388 ) ;
#71 = FACE_OUTER_BOUND ( 'NONE', #208, .T. ) ;
#72 = APPLICATION_PROTOCOL_DEFINITION ( 'draft international standard', 'automotive_design', 1998, #128 ) ;
#73 =( LENGTH_UNIT ( ) NAMED_UNIT ( * ) SI_UNIT ( $, .METRE. ) );
#74 = CARTESIAN_POINT ( 'NONE',  ( 1.148106374200643863E-17, 0.000000000000000000, 0.09375000000000001388 ) ) ;
#75 = VECTOR ( 'NONE', #37, 39.37007874015748143 ) ;
#76 =( LENGTH_UNIT ( ) NAMED_UNIT ( * ) SI_UNIT ( $, .METRE. ) );
#77 = APPLICATION_PROTOCOL_DEFINITION ( 'draft international standard', 'automotive_design', 1998, #59 ) ;
#78 = FILL_AREA_STYLE_COLOUR ( '', #195 ) ;
#79 =( CONVERSION_BASED_UNIT ( 'INCH', #175 ) LENGTH_UNIT ( ) NAMED_UNIT ( #289 ) );
#80 = MANIFOLD_SOLID_BREP ( 'Revolve - Tool Body (Straight Shanked)', #87 ) ;
#81 = DIRECTION ( 'NONE',  ( 0.000000000000000000, 0.000000000000000000, -1.000000000000000000 ) ) ;
#82 = PRESENTATION_LAYER_ASSIGNMENT (  '', '', ( #40 ) ) ;
#83 = VERTEX_POINT ( 'NONE', #243 ) ;
#84 = UNCERTAINTY_MEASURE_WITH_UNIT (LENGTH_MEASURE( 1.000000000000000082E-05 ), #136, 'distance_accuracy_value', 'NONE');
#85 = CYLINDRICAL_SURFACE ( 'NONE', #196, 0.09375000000000001388 ) ;
#86 =( NAMED_UNIT ( * ) SI_UNIT ( $, .STERADIAN. ) SOLID_ANGLE_UNIT ( ) );
#87 = CLOSED_SHELL ( 'NONE', ( #109, #235, #189, #21 ) ) ;
#88 = SURFACE_SIDE_STYLE ('',( #41 ) ) ;
#89 = AXIS2_PLACEMENT_3D ( 'NONE', #244, #309, #100 ) ;
#90 = ORIENTED_EDGE ( 'NONE', *, *, #91, .F. ) ;
#91 = EDGE_CURVE ( 'NONE', #258, #150, #42, .T. ) ;
#92 =( NAMED_UNIT ( * ) PLANE_ANGLE_UNIT ( ) SI_UNIT ( $, .RADIAN. ) );
#93 = VERTEX_POINT ( 'NONE', #74 ) ;
#94 = PRESENTATION_LAYER_ASSIGNMENT (  '', '', ( #177 ) ) ;
#95 = LENGTH_MEASURE_WITH_UNIT ( LENGTH_MEASURE( 0.02539999999999999897 ), #192 );
#96 = SURFACE_STYLE_USAGE ( .BOTH. , #229 ) ;
#97 = DIRECTION ( 'NONE',  ( -1.000000000000000000, 0.000000000000000000, 0.000000000000000000 ) ) ;
#98 = CIRCLE ( 'NONE', #63, 0.09375000000000012490 ) ;
#99 = LINE ( 'NONE', #1, #203 ) ;
#100 = DIRECTION ( 'NONE',  ( 1.000000000000000000, 0.000000000000000000, 0.000000000000000000 ) ) ;
#101 = DIRECTION ( 'NONE',  ( 0.000000000000000000, 0.000000000000000000, -1.000000000000000000 ) ) ;
#102 = AXIS2_PLACEMENT_3D ( 'NONE', #137, #15, #111 ) ;
#103 = AXIS2_PLACEMENT_3D ( 'NONE', #25, #119, #130 ) ;
#104 = CARTESIAN_POINT ( 'NONE',  ( 0.09375000000000001388, 1.187499999999999778, 1.148106374200644941E-17 ) ) ;
#105 = DIMENSIONAL_EXPONENTS ( 1.000000000000000000, 0.000000000000000000, 0.000000000000000000, 0.000000000000000000, 0.000000000000000000, 0.000000000000000000, 0.000000000000000000 ) ;
#106 =( NAMED_UNIT ( * ) PLANE_ANGLE_UNIT ( ) SI_UNIT ( $, .RADIAN. ) );
#107 = ORIENTED_EDGE ( 'NONE', *, *, #248, .T. ) ;
#108 = MECHANICAL_DESIGN_GEOMETRIC_PRESENTATION_REPRESENTATION (  '', ( #28 ), #297 ) ;
#109 = ADVANCED_FACE ( 'NONE', ( #264 ), #27, .T. ) ;
#110 =( NAMED_UNIT ( * ) SI_UNIT ( $, .STERADIAN. ) SOLID_ANGLE_UNIT ( ) );
#111 = DIRECTION ( 'NONE',  ( 1.000000000000000000, 6.756671995295744383E-17, 0.000000000000000000 ) ) ;
#112 = ORIENTED_EDGE ( 'NONE', *, *, #30, .T. ) ;
#113 = EDGE_LOOP ( 'NONE', ( #184, #107 ) ) ;
#114 = SURFACE_STYLE_USAGE ( .BOTH. , #88 ) ;
#115 = ORIENTED_EDGE ( 'NONE', *, *, #155, .T. ) ;
#116 = VECTOR ( 'NONE', #284, 39.37007874015748143 ) ;
#117 = LENGTH_MEASURE_WITH_UNIT ( LENGTH_MEASURE( 0.02539999999999999897 ), #69 );
#118 = LINE ( 'NONE', #169, #291 ) ;
#119 = DIRECTION ( 'NONE',  ( -0.000000000000000000, -1.000000000000000000, -0.000000000000000000 ) ) ;
#120 = SURFACE_STYLE_FILL_AREA ( #26 ) ;
#121 = UNCERTAINTY_MEASURE_WITH_UNIT (LENGTH_MEASURE( 1.000000000000000082E-05 ), #142, 'distance_accuracy_value', 'NONE');
#122 = CARTESIAN_POINT ( 'NONE',  ( 0.000000000000000000, 0.000000000000000000, -0.09375000000000001388 ) ) ;
#123 = AXIS2_PLACEMENT_3D ( 'NONE', #274, #44, #166 ) ;
#124 = DIRECTION ( 'NONE',  ( -6.756671995295744383E-17, 1.000000000000000000, -0.000000000000000000 ) ) ;
#125 = CIRCLE ( 'NONE', #158, 0.09375000000000001388 ) ;
#126 = DIRECTION ( 'NONE',  ( -0.000000000000000000, -1.000000000000000000, -0.000000000000000000 ) ) ;
#127 =( NAMED_UNIT ( * ) PLANE_ANGLE_UNIT ( ) SI_UNIT ( $, .RADIAN. ) );
#128 = APPLICATION_CONTEXT ( 'automotive_design' ) ;
#129 = STYLED_ITEM ( 'NONE', ( #306 ), #168 ) ;
#130 = DIRECTION ( 'NONE',  ( 0.000000000000000000, 0.000000000000000000, -1.000000000000000000 ) ) ;
#131 =( GEOMETRIC_REPRESENTATION_CONTEXT ( 3 ) GLOBAL_UNCERTAINTY_ASSIGNED_CONTEXT ( ( #178 ) ) GLOBAL_UNIT_ASSIGNED_CONTEXT ( ( #214, #183, #193 ) ) REPRESENTATION_CONTEXT ( 'NONE', 'WORKASPACE' ) );
#132 = CARTESIAN_POINT ( 'NONE',  ( 1.516480271171051896E-32, 1.187499999999999778, 0.000000000000000000 ) ) ;
#133 = ORIENTED_EDGE ( 'NONE', *, *, #216, .F. ) ;
#134 = PRESENTATION_LAYER_ASSIGNMENT (  '', '', ( #240 ) ) ;
#135 = DIRECTION ( 'NONE',  ( -1.000000000000000000, 0.000000000000000000, 0.000000000000000000 ) ) ;
#136 =( CONVERSION_BASED_UNIT ( 'INCH', #36 ) LENGTH_UNIT ( ) NAMED_UNIT ( #294 ) );
#137 = CARTESIAN_POINT ( 'NONE',  ( 0.09375000000000001388, 3.000000000000000444, 0.000000000000000000 ) ) ;
#138 = ORIENTED_EDGE ( 'NONE', *, *, #140, .T. ) ;
#139 =( LENGTH_UNIT ( ) NAMED_UNIT ( * ) SI_UNIT ( $, .METRE. ) );
#140 = EDGE_CURVE ( 'NONE', #262, #186, #118, .T. ) ;
#141 = COLOUR_RGB ( '',1.000000000000000000, 0.000000000000000000, 0.000000000000000000 ) ;
#142 =( CONVERSION_BASED_UNIT ( 'INCH', #303 ) LENGTH_UNIT ( ) NAMED_UNIT ( #6 ) );
#143 = DIRECTION ( 'NONE',  ( -0.000000000000000000, -1.000000000000000000, -0.000000000000000000 ) ) ;
#144 = CARTESIAN_POINT ( 'NONE',  ( -1.224646799147353700E-16, 3.000000000000000444, 0.000000000000000000 ) ) ;
#145 = ADVANCED_FACE ( 'NONE', ( #46 ), #246, .T. ) ;
#146 = AXIS2_PLACEMENT_3D ( 'NONE', #132, #231, #135 ) ;
#147 = MECHANICAL_DESIGN_GEOMETRIC_PRESENTATION_REPRESENTATION (  '', ( #179 ), #131 ) ;
#148 = PRODUCT_CONTEXT ( 'NONE', #59, 'mechanical' ) ;
#149 = DIRECTION ( 'NONE',  ( -6.756671995295744383E-17, 1.000000000000000000, -0.000000000000000000 ) ) ;
#150 = VERTEX_POINT ( 'NONE', #122 ) ;
#151 = MECHANICAL_DESIGN_GEOMETRIC_PRESENTATION_REPRESENTATION (  '', ( #177 ), #172 ) ;
#152 = DIRECTION ( 'NONE',  ( -1.000000000000000000, -6.756671995295744383E-17, 0.000000000000000000 ) ) ;
#153 = CARTESIAN_POINT ( 'NONE',  ( 2.139966396188145870E-34, 1.187499999999999778, 0.000000000000000000 ) ) ;
#154 = ORIENTED_EDGE ( 'NONE', *, *, #304, .F. ) ;
#155 = EDGE_CURVE ( 'NONE', #83, #93, #99, .T. ) ;
#156 = CARTESIAN_POINT ( 'NONE',  ( 0.000000000000000000, 0.000000000000000000, 0.000000000000000000 ) ) ;
#157 = VERTEX_POINT ( 'NONE', #281 ) ;
#158 = AXIS2_PLACEMENT_3D ( 'NONE', #58, #162, #263 ) ;
#159 = SURFACE_STYLE_FILL_AREA ( #307 ) ;
#160 = AXIS2_PLACEMENT_3D ( 'NONE', #254, #181, #268 ) ;
#161 = ORIENTED_EDGE ( 'NONE', *, *, #257, .T. ) ;
#162 = DIRECTION ( 'NONE',  ( -0.000000000000000000, -1.000000000000000000, -0.000000000000000000 ) ) ;
#163 = ORIENTED_EDGE ( 'NONE', *, *, #248, .F. ) ;
#164 = AXIS2_PLACEMENT_3D ( 'NONE', #153, #298, #152 ) ;
#165 = ORIENTED_EDGE ( 'NONE', *, *, #34, .T. ) ;
#166 = DIRECTION ( 'NONE',  ( 0.000000000000000000, 0.000000000000000000, -1.000000000000000000 ) ) ;
#167 = EDGE_LOOP ( 'NONE', ( #255, #278 ) ) ;
#168 = ADVANCED_FACE ( 'NONE', ( #71 ), #305, .T. ) ;
#169 = CARTESIAN_POINT ( 'NONE',  ( 0.09374999999999994449, 3.000000000000000444, 1.148106374200644325E-17 ) ) ;
#170 = FILL_AREA_STYLE_COLOUR ( '', #185 ) ;
#171 =( CONVERSION_BASED_UNIT ( 'INCH', #67 ) LENGTH_UNIT ( ) NAMED_UNIT ( #105 ) );
#172 =( GEOMETRIC_REPRESENTATION_CONTEXT ( 3 ) GLOBAL_UNCERTAINTY_ASSIGNED_CONTEXT ( ( #174 ) ) GLOBAL_UNIT_ASSIGNED_CONTEXT ( ( #241, #215, #287 ) ) REPRESENTATION_CONTEXT ( 'NONE', 'WORKASPACE' ) );
#173 = PRESENTATION_STYLE_ASSIGNMENT (( #176 ) ) ;
#174 = UNCERTAINTY_MEASURE_WITH_UNIT (LENGTH_MEASURE( 1.000000000000000082E-05 ), #241, 'distance_accuracy_value', 'NONE');
#175 = LENGTH_MEASURE_WITH_UNIT ( LENGTH_MEASURE( 0.02539999999999999897 ), #76 );
#176 = SURFACE_STYLE_USAGE ( .BOTH. , #182 ) ;
#177 = STYLED_ITEM ( 'NONE', ( #43 ), #145 ) ;
#178 = UNCERTAINTY_MEASURE_WITH_UNIT (LENGTH_MEASURE( 1.000000000000000082E-05 ), #214, 'distance_accuracy_value', 'NONE');
#179 = STYLED_ITEM ( 'NONE', ( #212 ), #285 ) ;
#180 = ADVANCED_FACE ( 'NONE', ( #290 ), #85, .T. ) ;
#181 = DIRECTION ( 'NONE',  ( -6.756671995295744383E-17, 1.000000000000000000, -0.000000000000000000 ) ) ;
#182 = SURFACE_SIDE_STYLE ('',( #226 ) ) ;
#183 =( NAMED_UNIT ( * ) PLANE_ANGLE_UNIT ( ) SI_UNIT ( $, .RADIAN. ) );
#184 = ORIENTED_EDGE ( 'NONE', *, *, #304, .T. ) ;
#185 = COLOUR_RGB ( '',0.7921568627450980005, 0.8196078431372548767, 0.9333333333333333481 ) ;
#186 = VERTEX_POINT ( 'NONE', #217 ) ;
#187 = FILL_AREA_STYLE ('',( #20 ) ) ;
#188 = ORIENTED_EDGE ( 'NONE', *, *, #273, .T. ) ;
#189 = ADVANCED_FACE ( 'NONE', ( #9 ), #202, .T. ) ;
#190 = PRESENTATION_LAYER_ASSIGNMENT (  '', '', ( #179 ) ) ;
#191 = SURFACE_STYLE_FILL_AREA ( #239 ) ;
#192 =( LENGTH_UNIT ( ) NAMED_UNIT ( * ) SI_UNIT ( $, .METRE. ) );
#193 =( NAMED_UNIT ( * ) SI_UNIT ( $, .STERADIAN. ) SOLID_ANGLE_UNIT ( ) );
#194 = SURFACE_STYLE_FILL_AREA ( #308 ) ;
#195 = COLOUR_RGB ( '',1.000000000000000000, 0.000000000000000000, 0.000000000000000000 ) ;
#196 = AXIS2_PLACEMENT_3D ( 'NONE', #250, #31, #81 ) ;
#197 = SURFACE_SIDE_STYLE ('',( #194 ) ) ;
#198 = CARTESIAN_POINT ( 'NONE',  ( 1.516480271171051896E-32, 1.187499999999999778, 0.000000000000000000 ) ) ;
#199 = PRODUCT_DEFINITION ( 'UNKNOWN', '', #204, #223 ) ;
#200 =( GEOMETRIC_REPRESENTATION_CONTEXT ( 3 ) GLOBAL_UNCERTAINTY_ASSIGNED_CONTEXT ( ( #84 ) ) GLOBAL_UNIT_ASSIGNED_CONTEXT ( ( #136, #238, #64 ) ) REPRESENTATION_CONTEXT ( 'NONE', 'WORKASPACE' ) );
#201 = CARTESIAN_POINT ( 'NONE',  ( 0.000000000000000000, 1.187499999999999778, 0.000000000000000000 ) ) ;
#202 = CYLINDRICAL_SURFACE ( 'NONE', #160, 0.09375000000000005551 ) ;
#203 = VECTOR ( 'NONE', #286, 39.37007874015748143 ) ;
#204 = PRODUCT_DEFINITION_FORMATION_WITH_SPECIFIED_SOURCE ( 'ANY', '', #227, .NOT_KNOWN. ) ;
#205 = FACE_OUTER_BOUND ( 'NONE', #167, .T. ) ;
#206 = EDGE_LOOP ( 'NONE', ( #275, #161, #112, #57 ) ) ;
#207 = DIRECTION ( 'NONE',  ( -6.756671995295744383E-17, 1.000000000000000000, -0.000000000000000000 ) ) ;
#208 = EDGE_LOOP ( 'NONE', ( #251, #230 ) ) ;
#209 = CARTESIAN_POINT ( 'NONE',  ( -0.09375000000000001388, 1.187499999999999778, 0.000000000000000000 ) ) ;
#210 = AXIS2_PLACEMENT_3D ( 'NONE', #3, #267, #221 ) ;
#211 = PRESENTATION_LAYER_ASSIGNMENT (  '', '', ( #28 ) ) ;
#212 = PRESENTATION_STYLE_ASSIGNMENT (( #279 ) ) ;
#213 = FILL_AREA_STYLE_COLOUR ( '', #22 ) ;
#214 =( CONVERSION_BASED_UNIT ( 'INCH', #117 ) LENGTH_UNIT ( ) NAMED_UNIT ( #242 ) );
#215 =( NAMED_UNIT ( * ) PLANE_ANGLE_UNIT ( ) SI_UNIT ( $, .RADIAN. ) );
#216 = EDGE_CURVE ( 'NONE', #157, #186, #98, .T. ) ;
#217 = CARTESIAN_POINT ( 'NONE',  ( 0.09375000000000001388, 3.000000000000000444, 1.148106374200644941E-17 ) ) ;
#218 = DIRECTION ( 'NONE',  ( -1.000000000000000000, 0.000000000000000000, 0.000000000000000000 ) ) ;
#219 =( GEOMETRIC_REPRESENTATION_CONTEXT ( 3 ) GLOBAL_UNCERTAINTY_ASSIGNED_CONTEXT ( ( #245 ) ) GLOBAL_UNIT_ASSIGNED_CONTEXT ( ( #79, #106, #54 ) ) REPRESENTATION_CONTEXT ( 'NONE', 'WORKASPACE' ) );
#220 = CIRCLE ( 'NONE', #12, 0.09375000000000001388 ) ;
#221 = DIRECTION ( 'NONE',  ( 0.000000000000000000, -0.000000000000000000, 1.000000000000000000 ) ) ;
#222 = DIMENSIONAL_EXPONENTS ( 1.000000000000000000, 0.000000000000000000, 0.000000000000000000, 0.000000000000000000, 0.000000000000000000, 0.000000000000000000, 0.000000000000000000 ) ;
#223 = PRODUCT_DEFINITION_CONTEXT ( 'detailed design', #128, 'design' ) ;
#224 = PLANE ( 'NONE',  #123 ) ;
#225 = ADVANCED_BREP_SHAPE_REPRESENTATION ( '83434', ( #288, #80, #89 ), #200 ) ;
#226 = SURFACE_STYLE_FILL_AREA ( #50 ) ;
#227 = PRODUCT ( '83434', '83434', '', ( #148 ) ) ;
#228 = AXIS2_PLACEMENT_3D ( 'NONE', #198, #149, #218 ) ;
#229 = SURFACE_SIDE_STYLE ('',( #159 ) ) ;
#230 = ORIENTED_EDGE ( 'NONE', *, *, #273, .F. ) ;
#231 = DIRECTION ( 'NONE',  ( -6.756671995295744383E-17, 1.000000000000000000, -0.000000000000000000 ) ) ;
#232 = ORIENTED_EDGE ( 'NONE', *, *, #49, .T. ) ;
#233 = CLOSED_SHELL ( 'NONE', ( #145, #168, #180, #285 ) ) ;
#234 =( LENGTH_UNIT ( ) NAMED_UNIT ( * ) SI_UNIT ( $, .METRE. ) );
#235 = ADVANCED_FACE ( 'NONE', ( #205 ), #52, .F. ) ;
#236 =( LENGTH_UNIT ( ) NAMED_UNIT ( * ) SI_UNIT ( $, .METRE. ) );
#237 = EDGE_LOOP ( 'NONE', ( #38, #33 ) ) ;
#238 =( NAMED_UNIT ( * ) PLANE_ANGLE_UNIT ( ) SI_UNIT ( $, .RADIAN. ) );
#239 = FILL_AREA_STYLE ('',( #55 ) ) ;
#240 = STYLED_ITEM ( 'NONE', ( #277 ), #80 ) ;
#241 =( CONVERSION_BASED_UNIT ( 'INCH', #95 ) LENGTH_UNIT ( ) NAMED_UNIT ( #19 ) );
#242 = DIMENSIONAL_EXPONENTS ( 1.000000000000000000, 0.000000000000000000, 0.000000000000000000, 0.000000000000000000, 0.000000000000000000, 0.000000000000000000, 0.000000000000000000 ) ;
#243 = CARTESIAN_POINT ( 'NONE',  ( 1.148106374200643863E-17, 1.187499999999999778, 0.09375000000000001388 ) ) ;
#244 = CARTESIAN_POINT ( 'NONE',  ( 0.000000000000000000, 0.000000000000000000, 0.000000000000000000 ) ) ;
#245 = UNCERTAINTY_MEASURE_WITH_UNIT (LENGTH_MEASURE( 1.000000000000000082E-05 ), #79, 'distance_accuracy_value', 'NONE');
#246 = CYLINDRICAL_SURFACE ( 'NONE', #266, 0.09375000000000001388 ) ;
#247 =( GEOMETRIC_REPRESENTATION_CONTEXT ( 3 ) GLOBAL_UNCERTAINTY_ASSIGNED_CONTEXT ( ( #292 ) ) GLOBAL_UNIT_ASSIGNED_CONTEXT ( ( #171, #127, #295 ) ) REPRESENTATION_CONTEXT ( 'NONE', 'WORKASPACE' ) );
#248 = EDGE_CURVE ( 'NONE', #93, #150, #220, .T. ) ;
#249 = SURFACE_STYLE_USAGE ( .BOTH. , #197 ) ;
#250 = CARTESIAN_POINT ( 'NONE',  ( 0.000000000000000000, 0.000000000000000000, 0.000000000000000000 ) ) ;
#251 = ORIENTED_EDGE ( 'NONE', *, *, #34, .F. ) ;
#252 = DIRECTION ( 'NONE',  ( 0.000000000000000000, 0.000000000000000000, -1.000000000000000000 ) ) ;
#253 = EDGE_LOOP ( 'NONE', ( #232, #138, #133, #271 ) ) ;
#254 = CARTESIAN_POINT ( 'NONE',  ( -1.224646799147353700E-16, 3.000000000000000444, 0.000000000000000000 ) ) ;
#255 = ORIENTED_EDGE ( 'NONE', *, *, #49, .F. ) ;
#256 = CIRCLE ( 'NONE', #146, 0.09375000000000001388 ) ;
#257 = EDGE_CURVE ( 'NONE', #262, #61, #261, .T. ) ;
#258 = VERTEX_POINT ( 'NONE', #4 ) ;
#259 = CARTESIAN_POINT ( 'NONE',  ( -1.224646799147353700E-16, 3.000000000000000444, 0.000000000000000000 ) ) ;
#260 = CARTESIAN_POINT ( 'NONE',  ( -0.09375000000000018041, 3.000000000000000444, 0.000000000000000000 ) ) ;
#261 = CIRCLE ( 'NONE', #228, 0.09375000000000001388 ) ;
#262 = VERTEX_POINT ( 'NONE', #104 ) ;
#263 = DIRECTION ( 'NONE',  ( 0.000000000000000000, 0.000000000000000000, -1.000000000000000000 ) ) ;
#264 = FACE_OUTER_BOUND ( 'NONE', #253, .T. ) ;
#265 = SURFACE_SIDE_STYLE ('',( #120 ) ) ;
#266 = AXIS2_PLACEMENT_3D ( 'NONE', #48, #143, #29 ) ;
#267 = DIRECTION ( 'NONE',  ( 0.000000000000000000, 1.000000000000000000, 0.000000000000000000 ) ) ;
#268 = DIRECTION ( 'NONE',  ( -1.000000000000000000, 0.000000000000000000, 0.000000000000000000 ) ) ;
#269 = COLOUR_RGB ( '',0.7921568627450980005, 0.8196078431372548767, 0.9333333333333333481 ) ;
#270 = DIRECTION ( 'NONE',  ( -1.000000000000000000, 0.000000000000000000, 0.000000000000000000 ) ) ;
#271 = ORIENTED_EDGE ( 'NONE', *, *, #30, .F. ) ;
#272 = CARTESIAN_POINT ( 'NONE',  ( -1.224646799147353700E-16, 3.000000000000000444, 0.000000000000000000 ) ) ;
#273 = EDGE_CURVE ( 'NONE', #83, #258, #70, .T. ) ;
#274 = CARTESIAN_POINT ( 'NONE',  ( 0.000000000000000000, 0.000000000000000000, 0.000000000000000000 ) ) ;
#275 = ORIENTED_EDGE ( 'NONE', *, *, #140, .F. ) ;
#276 = FACE_OUTER_BOUND ( 'NONE', #237, .T. ) ;
#277 = PRESENTATION_STYLE_ASSIGNMENT (( #114 ) ) ;
#278 = ORIENTED_EDGE ( 'NONE', *, *, #257, .F. ) ;
#279 = SURFACE_STYLE_USAGE ( .BOTH. , #299 ) ;
#280 = LENGTH_MEASURE_WITH_UNIT ( LENGTH_MEASURE( 0.02539999999999999897 ), #234 );
#281 = CARTESIAN_POINT ( 'NONE',  ( -0.09375000000000024980, 3.000000000000000444, 0.000000000000000000 ) ) ;
#282 = PRODUCT_RELATED_PRODUCT_CATEGORY ( 'part', '', ( #227 ) ) ;
#283 = FILL_AREA_STYLE_COLOUR ( '', #68 ) ;
#284 = DIRECTION ( 'NONE',  ( -0.000000000000000000, -1.000000000000000000, -0.000000000000000000 ) ) ;
#285 = ADVANCED_FACE ( 'NONE', ( #32 ), #224, .T. ) ;
#286 = DIRECTION ( 'NONE',  ( -0.000000000000000000, -1.000000000000000000, -0.000000000000000000 ) ) ;
#287 =( NAMED_UNIT ( * ) SI_UNIT ( $, .STERADIAN. ) SOLID_ANGLE_UNIT ( ) );
#288 = MANIFOLD_SOLID_BREP ( 'Revolve - Cutting Edge', #233 ) ;
#289 = DIMENSIONAL_EXPONENTS ( 1.000000000000000000, 0.000000000000000000, 0.000000000000000000, 0.000000000000000000, 0.000000000000000000, 0.000000000000000000, 0.000000000000000000 ) ;
#290 = FACE_OUTER_BOUND ( 'NONE', #53, .T. ) ;
#291 = VECTOR ( 'NONE', #124, 39.37007874015748143 ) ;
#292 = UNCERTAINTY_MEASURE_WITH_UNIT (LENGTH_MEASURE( 1.000000000000000082E-05 ), #171, 'distance_accuracy_value', 'NONE');
#293 = DIRECTION ( 'NONE',  ( -0.000000000000000000, -1.000000000000000000, -0.000000000000000000 ) ) ;
#294 = DIMENSIONAL_EXPONENTS ( 1.000000000000000000, 0.000000000000000000, 0.000000000000000000, 0.000000000000000000, 0.000000000000000000, 0.000000000000000000, 0.000000000000000000 ) ;
#295 =( NAMED_UNIT ( * ) SI_UNIT ( $, .STERADIAN. ) SOLID_ANGLE_UNIT ( ) );
#296 = AXIS2_PLACEMENT_3D ( 'NONE', #144, #24, #97 ) ;
#297 =( GEOMETRIC_REPRESENTATION_CONTEXT ( 3 ) GLOBAL_UNCERTAINTY_ASSIGNED_CONTEXT ( ( #121 ) ) GLOBAL_UNIT_ASSIGNED_CONTEXT ( ( #142, #66, #110 ) ) REPRESENTATION_CONTEXT ( 'NONE', 'WORKASPACE' ) );
#298 = DIRECTION ( 'NONE',  ( -6.756671995295744383E-17, 1.000000000000000000, 0.000000000000000000 ) ) ;
#299 = SURFACE_SIDE_STYLE ('',( #191 ) ) ;
#300 = DIRECTION ( 'NONE',  ( -1.000000000000000000, 0.000000000000000000, 0.000000000000000000 ) ) ;
#301 = AXIS2_PLACEMENT_3D ( 'NONE', #259, #207, #300 ) ;
#302 = LINE ( 'NONE', #260, #75 ) ;
#303 = LENGTH_MEASURE_WITH_UNIT ( LENGTH_MEASURE( 0.02539999999999999897 ), #139 );
#304 = EDGE_CURVE ( 'NONE', #150, #93, #23, .T. ) ;
#305 = PLANE ( 'NONE',  #210 ) ;
#306 = PRESENTATION_STYLE_ASSIGNMENT (( #45 ) ) ;
#307 = FILL_AREA_STYLE ('',( #170 ) ) ;
#308 = FILL_AREA_STYLE ('',( #283 ) ) ;
#309 = DIRECTION ( 'NONE',  ( 0.000000000000000000, 0.000000000000000000, 1.000000000000000000 ) ) ;
ENDSEC;
END-ISO-10303-21;
