ISO-10303-21;
HEADER;
FILE_DESCRIPTION (( 'STEP AP214' ),
    '1' );
FILE_NAME ('59536.STEP',
    '2023-07-24T15:09:41',
    ( '' ),
    ( '' ),
    'SwSTEP 2.0',
    'SolidWorks 2023',
    '' );
FILE_SCHEMA (( 'AUTOMOTIVE_DESIGN' ));
ENDSEC;

DATA;
#1 = EDGE_CURVE ( 'NONE', #128, #319, #320, .T. ) ;
#2 = SURFACE_SIDE_STYLE ('',( #277 ) ) ;
#3 = DIRECTION ( 'NONE',  ( -1.203932746194552959E-16, 1.000000000000000000, 0.000000000000000000 ) ) ;
#4 = ORIENTED_EDGE ( 'NONE', *, *, #96, .F. ) ;
#5 = STYLED_ITEM ( 'NONE', ( #248 ), #223 ) ;
#6 = EDGE_LOOP ( 'NONE', ( #98, #4 ) ) ;
#7 = DIRECTION ( 'NONE',  ( -1.000000000000000000, 0.000000000000000000, 0.000000000000000000 ) ) ;
#8 = ORIENTED_EDGE ( 'NONE', *, *, #360, .F. ) ;
#9 = DIRECTION ( 'NONE',  ( -1.203932746194552959E-16, 1.000000000000000000, -0.000000000000000000 ) ) ;
#10 = AXIS2_PLACEMENT_3D ( 'NONE', #304, #52, #273 ) ;
#11 = DIRECTION ( 'NONE',  ( -0.000000000000000000, -1.000000000000000000, -0.000000000000000000 ) ) ;
#12 = ORIENTED_EDGE ( 'NONE', *, *, #96, .T. ) ;
#13 = TOROIDAL_SURFACE ( 'NONE', #79, 2.000000000000000000, 1.000000000000000000 ) ;
#14 = SURFACE_STYLE_FILL_AREA ( #159 ) ;
#15 = DIRECTION ( 'NONE',  ( 0.000000000000000000, 0.000000000000000000, 1.000000000000000000 ) ) ;
#16 = DIRECTION ( 'NONE',  ( -1.000000000000000000, 0.000000000000000000, 0.000000000000000000 ) ) ;
#17 =( LENGTH_UNIT ( ) NAMED_UNIT ( * ) SI_UNIT ( .MILLI., .METRE. ) );
#18 = LINE ( 'NONE', #80, #163 ) ;
#19 = VECTOR ( 'NONE', #62, 1000.000000000000000 ) ;
#20 = PRESENTATION_LAYER_ASSIGNMENT (  '', '', ( #68 ) ) ;
#21 =( GEOMETRIC_REPRESENTATION_CONTEXT ( 3 ) GLOBAL_UNCERTAINTY_ASSIGNED_CONTEXT ( ( #22 ) ) GLOBAL_UNIT_ASSIGNED_CONTEXT ( ( #88, #250, #92 ) ) REPRESENTATION_CONTEXT ( 'NONE', 'WORKASPACE' ) );
#22 = UNCERTAINTY_MEASURE_WITH_UNIT (LENGTH_MEASURE( 1.000000000000000082E-05 ), #88, 'distance_accuracy_value', 'NONE');
#23 = CARTESIAN_POINT ( 'NONE',  ( -2.999999999999981792, 11.99999999999999645, 0.000000000000000000 ) ) ;
#24 = VERTEX_POINT ( 'NONE', #84 ) ;
#25 = DIRECTION ( 'NONE',  ( -1.000000000000000000, 0.000000000000000000, 0.000000000000000000 ) ) ;
#26 = UNCERTAINTY_MEASURE_WITH_UNIT (LENGTH_MEASURE( 1.000000000000000082E-05 ), #34, 'distance_accuracy_value', 'NONE');
#27 = UNCERTAINTY_MEASURE_WITH_UNIT (LENGTH_MEASURE( 1.000000000000000082E-05 ), #67, 'distance_accuracy_value', 'NONE');
#28 = DIRECTION ( 'NONE',  ( -0.000000000000000000, -1.000000000000000000, -0.000000000000000000 ) ) ;
#29 = DIRECTION ( 'NONE',  ( 0.000000000000000000, -0.000000000000000000, 1.000000000000000000 ) ) ;
#30 = SURFACE_STYLE_USAGE ( .BOTH. , #87 ) ;
#31 = PRESENTATION_STYLE_ASSIGNMENT (( #144 ) ) ;
#32 = FACE_OUTER_BOUND ( 'NONE', #179, .T. ) ;
#33 = EDGE_CURVE ( 'NONE', #211, #298, #51, .T. ) ;
#34 =( LENGTH_UNIT ( ) NAMED_UNIT ( * ) SI_UNIT ( .MILLI., .METRE. ) );
#35 = DIRECTION ( 'NONE',  ( -0.000000000000000000, -1.000000000000000000, -0.000000000000000000 ) ) ;
#36 = DIRECTION ( 'NONE',  ( -1.000000000000000000, -1.203932746194552959E-16, 0.000000000000000000 ) ) ;
#37 = FACE_OUTER_BOUND ( 'NONE', #6, .T. ) ;
#38 = EDGE_LOOP ( 'NONE', ( #219, #157, #255, #72 ) ) ;
#39 = STYLED_ITEM ( 'NONE', ( #31 ), #347 ) ;
#40 =( NAMED_UNIT ( * ) PLANE_ANGLE_UNIT ( ) SI_UNIT ( $, .RADIAN. ) );
#41 = DIRECTION ( 'NONE',  ( -1.203932746194552959E-16, 1.000000000000000000, -0.000000000000000000 ) ) ;
#42 =( LENGTH_UNIT ( ) NAMED_UNIT ( * ) SI_UNIT ( .MILLI., .METRE. ) );
#43 = ORIENTED_EDGE ( 'NONE', *, *, #50, .F. ) ;
#44 = CARTESIAN_POINT ( 'NONE',  ( 0.000000000000000000, 0.000000000000000000, 0.000000000000000000 ) ) ;
#45 = MECHANICAL_DESIGN_GEOMETRIC_PRESENTATION_REPRESENTATION (  '', ( #253 ), #296 ) ;
#46 = AXIS2_PLACEMENT_3D ( 'NONE', #143, #28, #113 ) ;
#47 = FACE_OUTER_BOUND ( 'NONE', #123, .T. ) ;
#48 = EDGE_CURVE ( 'NONE', #24, #152, #109, .T. ) ;
#49 = PRESENTATION_STYLE_ASSIGNMENT (( #301 ) ) ;
#50 = EDGE_CURVE ( 'NONE', #259, #148, #205, .T. ) ;
#51 = CIRCLE ( 'NONE', #107, 2.000000000000000000 ) ;
#52 = DIRECTION ( 'NONE',  ( -1.203932746194552959E-16, 1.000000000000000000, -0.000000000000000000 ) ) ;
#53 = CLOSED_SHELL ( 'NONE', ( #293, #198, #223, #161, #133, #347 ) ) ;
#54 = AXIS2_PLACEMENT_3D ( 'NONE', #226, #231, #329 ) ;
#55 = PRESENTATION_STYLE_ASSIGNMENT (( #139 ) ) ;
#56 = SURFACE_SIDE_STYLE ('',( #93 ) ) ;
#57 = ADVANCED_FACE ( 'NONE', ( #234 ), #332, .T. ) ;
#58 = AXIS2_PLACEMENT_3D ( 'NONE', #44, #11, #335 ) ;
#59 = PRODUCT_RELATED_PRODUCT_CATEGORY ( 'part', '', ( #149 ) ) ;
#60 = FACE_OUTER_BOUND ( 'NONE', #338, .T. ) ;
#61 =( GEOMETRIC_REPRESENTATION_CONTEXT ( 3 ) GLOBAL_UNCERTAINTY_ASSIGNED_CONTEXT ( ( #110 ) ) GLOBAL_UNIT_ASSIGNED_CONTEXT ( ( #212, #246, #336 ) ) REPRESENTATION_CONTEXT ( 'NONE', 'WORKASPACE' ) );
#62 = DIRECTION ( 'NONE',  ( -1.203932746194552959E-16, 1.000000000000000000, -0.000000000000000000 ) ) ;
#63 = FILL_AREA_STYLE_COLOUR ( '', #220 ) ;
#64 = SURFACE_SIDE_STYLE ('',( #314 ) ) ;
#65 = ORIENTED_EDGE ( 'NONE', *, *, #190, .T. ) ;
#66 = PRESENTATION_STYLE_ASSIGNMENT (( #283 ) ) ;
#67 =( LENGTH_UNIT ( ) NAMED_UNIT ( * ) SI_UNIT ( .MILLI., .METRE. ) );
#68 = STYLED_ITEM ( 'NONE', ( #55 ), #198 ) ;
#69 = ADVANCED_FACE ( 'NONE', ( #37 ), #182, .F. ) ;
#70 =( GEOMETRIC_REPRESENTATION_CONTEXT ( 3 ) GLOBAL_UNCERTAINTY_ASSIGNED_CONTEXT ( ( #326 ) ) GLOBAL_UNIT_ASSIGNED_CONTEXT ( ( #278, #209, #141 ) ) REPRESENTATION_CONTEXT ( 'NONE', 'WORKASPACE' ) );
#71 = DIRECTION ( 'NONE',  ( -1.203932746194552959E-16, 1.000000000000000000, -0.000000000000000000 ) ) ;
#72 = ORIENTED_EDGE ( 'NONE', *, *, #155, .F. ) ;
#73 = EDGE_LOOP ( 'NONE', ( #43, #120 ) ) ;
#74 = EDGE_CURVE ( 'NONE', #315, #104, #170, .T. ) ;
#75 = DIRECTION ( 'NONE',  ( 0.000000000000000000, 0.000000000000000000, -1.000000000000000000 ) ) ;
#76 = ORIENTED_EDGE ( 'NONE', *, *, #48, .F. ) ;
#77 = EDGE_CURVE ( 'NONE', #104, #128, #286, .T. ) ;
#78 =( NAMED_UNIT ( * ) SI_UNIT ( $, .STERADIAN. ) SOLID_ANGLE_UNIT ( ) );
#79 = AXIS2_PLACEMENT_3D ( 'NONE', #132, #238, #239 ) ;
#80 = CARTESIAN_POINT ( 'NONE',  ( -2.999999999999991118, 63.00000000000000000, 0.000000000000000000 ) ) ;
#81 = UNCERTAINTY_MEASURE_WITH_UNIT (LENGTH_MEASURE( 1.000000000000000082E-05 ), #201, 'distance_accuracy_value', 'NONE');
#82 = PRESENTATION_LAYER_ASSIGNMENT (  '', '', ( #235 ) ) ;
#83 = ORIENTED_EDGE ( 'NONE', *, *, #189, .F. ) ;
#84 = CARTESIAN_POINT ( 'NONE',  ( 0.000000000000000000, 1.000000000000000000, -3.000000000000000000 ) ) ;
#85 = MECHANICAL_DESIGN_GEOMETRIC_PRESENTATION_REPRESENTATION (  '', ( #235 ), #61 ) ;
#86 = FACE_OUTER_BOUND ( 'NONE', #73, .T. ) ;
#87 = SURFACE_SIDE_STYLE ('',( #366 ) ) ;
#88 =( LENGTH_UNIT ( ) NAMED_UNIT ( * ) SI_UNIT ( .MILLI., .METRE. ) );
#89 = CYLINDRICAL_SURFACE ( 'NONE', #54, 3.000000000000000000 ) ;
#90 = SURFACE_STYLE_FILL_AREA ( #276 ) ;
#91 = CARTESIAN_POINT ( 'NONE',  ( 3.184081677783117402E-15, 63.00000000000000000, 0.000000000000000000 ) ) ;
#92 =( NAMED_UNIT ( * ) SI_UNIT ( $, .STERADIAN. ) SOLID_ANGLE_UNIT ( ) );
#93 = SURFACE_STYLE_FILL_AREA ( #339 ) ;
#94 = AXIS2_PLACEMENT_3D ( 'NONE', #121, #176, #251 ) ;
#95 = CARTESIAN_POINT ( 'NONE',  ( 0.000000000000000000, 1.000000000000000000, 0.000000000000000000 ) ) ;
#96 = EDGE_CURVE ( 'NONE', #104, #315, #195, .T. ) ;
#97 = DIRECTION ( 'NONE',  ( -1.000000000000000000, 0.000000000000000000, 0.000000000000000000 ) ) ;
#98 = ORIENTED_EDGE ( 'NONE', *, *, #74, .F. ) ;
#99 = COLOUR_RGB ( '',0.7921568627450980005, 0.8196078431372548767, 0.9333333333333333481 ) ;
#100 = ORIENTED_EDGE ( 'NONE', *, *, #189, .T. ) ;
#101 = VECTOR ( 'NONE', #35, 1000.000000000000000 ) ;
#102 = SURFACE_SIDE_STYLE ('',( #294 ) ) ;
#103 = EDGE_LOOP ( 'NONE', ( #349, #12, #100, #361 ) ) ;
#104 = VERTEX_POINT ( 'NONE', #291 ) ;
#105 = CIRCLE ( 'NONE', #142, 3.000000000000000000 ) ;
#106 = DIRECTION ( 'NONE',  ( -1.224646799147353207E-16, 0.000000000000000000, -1.000000000000000000 ) ) ;
#107 = AXIS2_PLACEMENT_3D ( 'NONE', #137, #242, #363 ) ;
#108 = CARTESIAN_POINT ( 'NONE',  ( 0.000000000000000000, 0.000000000000000000, 0.000000000000000000 ) ) ;
#109 = CIRCLE ( 'NONE', #311, 3.000000000000000000 ) ;
#110 = UNCERTAINTY_MEASURE_WITH_UNIT (LENGTH_MEASURE( 1.000000000000000082E-05 ), #212, 'distance_accuracy_value', 'NONE');
#111 = CARTESIAN_POINT ( 'NONE',  ( 0.000000000000000000, 1.000000000000000000, 0.000000000000000000 ) ) ;
#112 = APPLICATION_CONTEXT ( 'automotive_design' ) ;
#113 = DIRECTION ( 'NONE',  ( 0.000000000000000000, 0.000000000000000000, -1.000000000000000000 ) ) ;
#114 = AXIS2_PLACEMENT_3D ( 'NONE', #333, #117, #183 ) ;
#115 = SURFACE_STYLE_USAGE ( .BOTH. , #330 ) ;
#116 =( NAMED_UNIT ( * ) PLANE_ANGLE_UNIT ( ) SI_UNIT ( $, .RADIAN. ) );
#117 = DIRECTION ( 'NONE',  ( 0.000000000000000000, -1.000000000000000000, -0.000000000000000000 ) ) ;
#118 = CYLINDRICAL_SURFACE ( 'NONE', #58, 3.000000000000000000 ) ;
#119 = EDGE_CURVE ( 'NONE', #148, #259, #224, .T. ) ;
#120 = ORIENTED_EDGE ( 'NONE', *, *, #119, .F. ) ;
#121 = CARTESIAN_POINT ( 'NONE',  ( 3.000000000000000000, 63.00000000000000000, 0.000000000000000000 ) ) ;
#122 = DIRECTION ( 'NONE',  ( -1.203932746194552959E-16, 1.000000000000000000, -0.000000000000000000 ) ) ;
#123 = EDGE_LOOP ( 'NONE', ( #252, #184, #215, #287 ) ) ;
#124 = CARTESIAN_POINT ( 'NONE',  ( 3.000000000000000444, 63.00000000000000000, 3.673940397442054938E-16 ) ) ;
#125 = ORIENTED_EDGE ( 'NONE', *, *, #356, .F. ) ;
#126 = AXIS2_PLACEMENT_3D ( 'NONE', #370, #41, #25 ) ;
#127 = CARTESIAN_POINT ( 'NONE',  ( 3.673940397442059375E-16, 1.000000000000000000, 3.000000000000000000 ) ) ;
#128 = VERTEX_POINT ( 'NONE', #124 ) ;
#129 = SURFACE_SIDE_STYLE ('',( #14 ) ) ;
#130 = DIRECTION ( 'NONE',  ( 1.000000000000000000, 0.000000000000000000, -1.224646799147353207E-16 ) ) ;
#131 = CARTESIAN_POINT ( 'NONE',  ( 3.673940397442059868E-16, 0.000000000000000000, 3.000000000000000000 ) ) ;
#132 = CARTESIAN_POINT ( 'NONE',  ( 0.000000000000000000, 1.000000000000000000, 0.000000000000000000 ) ) ;
#133 = ADVANCED_FACE ( 'NONE', ( #177 ), #118, .T. ) ;
#134 = PRODUCT_DEFINITION ( 'UNKNOWN', '', #300, #193 ) ;
#135 = STYLED_ITEM ( 'NONE', ( #171 ), #293 ) ;
#136 =( GEOMETRIC_REPRESENTATION_CONTEXT ( 3 ) GLOBAL_UNCERTAINTY_ASSIGNED_CONTEXT ( ( #306 ) ) GLOBAL_UNIT_ASSIGNED_CONTEXT ( ( #17, #266, #221 ) ) REPRESENTATION_CONTEXT ( 'NONE', 'WORKASPACE' ) );
#137 = CARTESIAN_POINT ( 'NONE',  ( 0.000000000000000000, 0.000000000000000000, 0.000000000000000000 ) ) ;
#138 = CARTESIAN_POINT ( 'NONE',  ( -2.999999999999993783, 63.00000000000000000, 0.000000000000000000 ) ) ;
#139 = SURFACE_STYLE_USAGE ( .BOTH. , #369 ) ;
#140 = DIRECTION ( 'NONE',  ( -1.000000000000000000, 0.000000000000000000, 0.000000000000000000 ) ) ;
#141 =( NAMED_UNIT ( * ) SI_UNIT ( $, .STERADIAN. ) SOLID_ANGLE_UNIT ( ) );
#142 = AXIS2_PLACEMENT_3D ( 'NONE', #95, #297, #75 ) ;
#143 = CARTESIAN_POINT ( 'NONE',  ( 0.000000000000000000, 1.000000000000000000, 0.000000000000000000 ) ) ;
#144 = SURFACE_STYLE_USAGE ( .BOTH. , #2 ) ;
#145 = CYLINDRICAL_SURFACE ( 'NONE', #126, 2.999999999999993783 ) ;
#146 = MANIFOLD_SOLID_BREP ( 'Revolve - Tool Body (Straight Shanked)', #208 ) ;
#147 = DIRECTION ( 'NONE',  ( 0.000000000000000000, 0.000000000000000000, -1.000000000000000000 ) ) ;
#148 = VERTEX_POINT ( 'NONE', #188 ) ;
#149 = PRODUCT ( '59536', '59536', '', ( #236 ) ) ;
#150 = PRESENTATION_LAYER_ASSIGNMENT (  '', '', ( #162 ) ) ;
#151 = FILL_AREA_STYLE_COLOUR ( '', #303 ) ;
#152 = VERTEX_POINT ( 'NONE', #127 ) ;
#153 = DIRECTION ( 'NONE',  ( -0.000000000000000000, -1.000000000000000000, -0.000000000000000000 ) ) ;
#154 = ORIENTED_EDGE ( 'NONE', *, *, #1, .T. ) ;
#155 = EDGE_CURVE ( 'NONE', #152, #24, #105, .T. ) ;
#156 = CARTESIAN_POINT ( 'NONE',  ( 0.000000000000000000, 12.00000000000000000, 0.000000000000000000 ) ) ;
#157 = ORIENTED_EDGE ( 'NONE', *, *, #119, .T. ) ;
#158 = MECHANICAL_DESIGN_GEOMETRIC_PRESENTATION_REPRESENTATION (  '', ( #5 ), #321 ) ;
#159 = FILL_AREA_STYLE ('',( #353 ) ) ;
#160 = DIRECTION ( 'NONE',  ( -1.203932746194552959E-16, 1.000000000000000000, -0.000000000000000000 ) ) ;
#161 = ADVANCED_FACE ( 'NONE', ( #47 ), #13, .T. ) ;
#162 = STYLED_ITEM ( 'NONE', ( #284 ), #133 ) ;
#163 = VECTOR ( 'NONE', #160, 1000.000000000000000 ) ;
#164 = EDGE_CURVE ( 'NONE', #319, #128, #307, .T. ) ;
#165 = AXIS2_PLACEMENT_3D ( 'NONE', #91, #122, #97 ) ;
#166 = VECTOR ( 'NONE', #362, 1000.000000000000000 ) ;
#167 = FILL_AREA_STYLE_COLOUR ( '', #181 ) ;
#168 = DIRECTION ( 'NONE',  ( 0.000000000000000000, 1.000000000000000000, 0.000000000000000000 ) ) ;
#169 = EDGE_CURVE ( 'NONE', #152, #298, #272, .T. ) ;
#170 = CIRCLE ( 'NONE', #331, 2.999999999999991562 ) ;
#171 = PRESENTATION_STYLE_ASSIGNMENT (( #115 ) ) ;
#172 = MECHANICAL_DESIGN_GEOMETRIC_PRESENTATION_REPRESENTATION (  '', ( #68 ), #365 ) ;
#173 = AXIS2_PLACEMENT_3D ( 'NONE', #232, #3, #36 ) ;
#174 = PLANE ( 'NONE',  #114 ) ;
#175 = PLANE ( 'NONE',  #207 ) ;
#176 = DIRECTION ( 'NONE',  ( 1.203932746194552959E-16, -1.000000000000000000, 0.000000000000000000 ) ) ;
#177 = FACE_OUTER_BOUND ( 'NONE', #38, .T. ) ;
#178 = SURFACE_STYLE_USAGE ( .BOTH. , #64 ) ;
#179 = EDGE_LOOP ( 'NONE', ( #261, #186, #295, #83 ) ) ;
#180 = FACE_OUTER_BOUND ( 'NONE', #271, .T. ) ;
#181 = COLOUR_RGB ( '',1.000000000000000000, 0.000000000000000000, 0.000000000000000000 ) ;
#182 = PLANE ( 'NONE',  #173 ) ;
#183 = DIRECTION ( 'NONE',  ( 0.000000000000000000, 0.000000000000000000, -1.000000000000000000 ) ) ;
#184 = ORIENTED_EDGE ( 'NONE', *, *, #155, .T. ) ;
#185 = FILL_AREA_STYLE ('',( #151 ) ) ;
#186 = ORIENTED_EDGE ( 'NONE', *, *, #77, .T. ) ;
#187 = COLOUR_RGB ( '',1.000000000000000000, 0.000000000000000000, 0.000000000000000000 ) ;
#188 = CARTESIAN_POINT ( 'NONE',  ( 3.673940397442059868E-16, 12.00000000000000000, 3.000000000000000000 ) ) ;
#189 = EDGE_CURVE ( 'NONE', #315, #319, #18, .T. ) ;
#190 = EDGE_CURVE ( 'NONE', #148, #152, #267, .T. ) ;
#191 = PRESENTATION_LAYER_ASSIGNMENT (  '', '', ( #343 ) ) ;
#192 = AXIS2_PLACEMENT_3D ( 'NONE', #275, #140, #245 ) ;
#193 = PRODUCT_DEFINITION_CONTEXT ( 'detailed design', #112, 'design' ) ;
#194 = UNCERTAINTY_MEASURE_WITH_UNIT (LENGTH_MEASURE( 1.000000000000000082E-05 ), #42, 'distance_accuracy_value', 'NONE');
#195 = CIRCLE ( 'NONE', #357, 2.999999999999991562 ) ;
#196 = CARTESIAN_POINT ( 'NONE',  ( 0.000000000000000000, 0.000000000000000000, -2.000000000000000000 ) ) ;
#197 = EDGE_CURVE ( 'NONE', #298, #211, #257, .T. ) ;
#198 = ADVANCED_FACE ( 'NONE', ( #270 ), #264, .T. ) ;
#199 = FILL_AREA_STYLE_COLOUR ( '', #368 ) ;
#200 =( NAMED_UNIT ( * ) PLANE_ANGLE_UNIT ( ) SI_UNIT ( $, .RADIAN. ) );
#201 =( LENGTH_UNIT ( ) NAMED_UNIT ( * ) SI_UNIT ( .MILLI., .METRE. ) );
#202 = LINE ( 'NONE', #282, #101 ) ;
#203 = PRESENTATION_LAYER_ASSIGNMENT (  '', '', ( #253 ) ) ;
#204 = CARTESIAN_POINT ( 'NONE',  ( 3.061616997868383141E-16, 0.000000000000000000, 2.000000000000000000 ) ) ;
#205 = CIRCLE ( 'NONE', #358, 3.000000000000000000 ) ;
#206 = DIRECTION ( 'NONE',  ( -1.000000000000000000, 0.000000000000000000, 0.000000000000000000 ) ) ;
#207 = AXIS2_PLACEMENT_3D ( 'NONE', #243, #168, #29 ) ;
#208 = CLOSED_SHELL ( 'NONE', ( #302, #69, #57, #227 ) ) ;
#209 =( NAMED_UNIT ( * ) PLANE_ANGLE_UNIT ( ) SI_UNIT ( $, .RADIAN. ) );
#210 = FILL_AREA_STYLE ('',( #229 ) ) ;
#211 = VERTEX_POINT ( 'NONE', #196 ) ;
#212 =( LENGTH_UNIT ( ) NAMED_UNIT ( * ) SI_UNIT ( .MILLI., .METRE. ) );
#213 = SURFACE_STYLE_FILL_AREA ( #285 ) ;
#214 = CARTESIAN_POINT ( 'NONE',  ( 2.999999999999996891, 63.00000000000000000, 3.673940397442052472E-16 ) ) ;
#215 = ORIENTED_EDGE ( 'NONE', *, *, #360, .T. ) ;
#216 = MECHANICAL_DESIGN_GEOMETRIC_PRESENTATION_REPRESENTATION (  '', ( #135 ), #70 ) ;
#217 =( NAMED_UNIT ( * ) SI_UNIT ( $, .STERADIAN. ) SOLID_ANGLE_UNIT ( ) );
#218 = ORIENTED_EDGE ( 'NONE', *, *, #33, .F. ) ;
#219 = ORIENTED_EDGE ( 'NONE', *, *, #190, .F. ) ;
#220 = COLOUR_RGB ( '',1.000000000000000000, 0.000000000000000000, 0.000000000000000000 ) ;
#221 =( NAMED_UNIT ( * ) SI_UNIT ( $, .STERADIAN. ) SOLID_ANGLE_UNIT ( ) );
#222 = UNCERTAINTY_MEASURE_WITH_UNIT (LENGTH_MEASURE( 1.000000000000000082E-05 ), #241, 'distance_accuracy_value', 'NONE');
#223 = ADVANCED_FACE ( 'NONE', ( #60 ), #174, .T. ) ;
#224 = CIRCLE ( 'NONE', #322, 3.000000000000000000 ) ;
#225 = FILL_AREA_STYLE ('',( #310 ) ) ;
#226 = CARTESIAN_POINT ( 'NONE',  ( 0.000000000000000000, 0.000000000000000000, 0.000000000000000000 ) ) ;
#227 = ADVANCED_FACE ( 'NONE', ( #308 ), #258, .F. ) ;
#228 = CARTESIAN_POINT ( 'NONE',  ( 0.000000000000000000, 12.00000000000000000, 0.000000000000000000 ) ) ;
#229 = FILL_AREA_STYLE_COLOUR ( '', #99 ) ;
#230 = ORIENTED_EDGE ( 'NONE', *, *, #33, .T. ) ;
#231 = DIRECTION ( 'NONE',  ( -0.000000000000000000, -1.000000000000000000, -0.000000000000000000 ) ) ;
#232 = CARTESIAN_POINT ( 'NONE',  ( 9.324138683375338132E-15, 12.00000000000000000, 0.000000000000000000 ) ) ;
#233 = ORIENTED_EDGE ( 'NONE', *, *, #164, .T. ) ;
#234 = FACE_OUTER_BOUND ( 'NONE', #103, .T. ) ;
#235 = STYLED_ITEM ( 'NONE', ( #66 ), #265 ) ;
#236 = PRODUCT_CONTEXT ( 'NONE', #352, 'mechanical' ) ;
#237 =( NAMED_UNIT ( * ) PLANE_ANGLE_UNIT ( ) SI_UNIT ( $, .RADIAN. ) );
#238 = DIRECTION ( 'NONE',  ( -0.000000000000000000, -1.000000000000000000, -0.000000000000000000 ) ) ;
#239 = DIRECTION ( 'NONE',  ( 0.000000000000000000, 0.000000000000000000, -1.000000000000000000 ) ) ;
#240 = COLOUR_RGB ( '',0.7921568627450980005, 0.8196078431372548767, 0.9333333333333333481 ) ;
#241 =( LENGTH_UNIT ( ) NAMED_UNIT ( * ) SI_UNIT ( .MILLI., .METRE. ) );
#242 = DIRECTION ( 'NONE',  ( -0.000000000000000000, -1.000000000000000000, -0.000000000000000000 ) ) ;
#243 = CARTESIAN_POINT ( 'NONE',  ( 0.000000000000000000, 12.00000000000000000, 0.000000000000000000 ) ) ;
#244 = PRODUCT_DEFINITION_SHAPE ( 'NONE', 'NONE',  #134 ) ;
#245 = DIRECTION ( 'NONE',  ( 0.000000000000000000, 0.000000000000000000, 1.000000000000000000 ) ) ;
#246 =( NAMED_UNIT ( * ) PLANE_ANGLE_UNIT ( ) SI_UNIT ( $, .RADIAN. ) );
#247 = AXIS2_PLACEMENT_3D ( 'NONE', #348, #359, #16 ) ;
#248 = PRESENTATION_STYLE_ASSIGNMENT (( #30 ) ) ;
#249 =( NAMED_UNIT ( * ) SI_UNIT ( $, .STERADIAN. ) SOLID_ANGLE_UNIT ( ) );
#250 =( NAMED_UNIT ( * ) PLANE_ANGLE_UNIT ( ) SI_UNIT ( $, .RADIAN. ) );
#251 = DIRECTION ( 'NONE',  ( 1.000000000000000000, 1.203932746194552959E-16, 0.000000000000000000 ) ) ;
#252 = ORIENTED_EDGE ( 'NONE', *, *, #169, .F. ) ;
#253 = STYLED_ITEM ( 'NONE', ( #337 ), #146 ) ;
#254 = DIRECTION ( 'NONE',  ( 0.000000000000000000, 0.000000000000000000, -1.000000000000000000 ) ) ;
#255 = ORIENTED_EDGE ( 'NONE', *, *, #356, .T. ) ;
#256 = PRESENTATION_LAYER_ASSIGNMENT (  '', '', ( #39 ) ) ;
#257 = CIRCLE ( 'NONE', #355, 2.000000000000000000 ) ;
#258 = PLANE ( 'NONE',  #94 ) ;
#259 = VERTEX_POINT ( 'NONE', #290 ) ;
#260 = SURFACE_STYLE_USAGE ( .BOTH. , #102 ) ;
#261 = ORIENTED_EDGE ( 'NONE', *, *, #74, .T. ) ;
#262 = AXIS2_PLACEMENT_3D ( 'NONE', #299, #15, #323 ) ;
#263 = AXIS2_PLACEMENT_3D ( 'NONE', #351, #130, #106 ) ;
#264 = TOROIDAL_SURFACE ( 'NONE', #46, 2.000000000000000000, 1.000000000000000000 ) ;
#265 = MANIFOLD_SOLID_BREP ( 'Revolve - Cutting Edge', #53 ) ;
#266 =( NAMED_UNIT ( * ) PLANE_ANGLE_UNIT ( ) SI_UNIT ( $, .RADIAN. ) );
#267 = LINE ( 'NONE', #131, #166 ) ;
#268 =( GEOMETRIC_REPRESENTATION_CONTEXT ( 3 ) GLOBAL_UNCERTAINTY_ASSIGNED_CONTEXT ( ( #194 ) ) GLOBAL_UNIT_ASSIGNED_CONTEXT ( ( #42, #40, #217 ) ) REPRESENTATION_CONTEXT ( 'NONE', 'WORKASPACE' ) );
#269 = APPLICATION_PROTOCOL_DEFINITION ( 'draft international standard', 'automotive_design', 1998, #352 ) ;
#270 = FACE_OUTER_BOUND ( 'NONE', #292, .T. ) ;
#271 = EDGE_LOOP ( 'NONE', ( #316, #65, #76, #125 ) ) ;
#272 = CIRCLE ( 'NONE', #263, 1.000000000000000000 ) ;
#273 = DIRECTION ( 'NONE',  ( -1.000000000000000000, 0.000000000000000000, 0.000000000000000000 ) ) ;
#274 = DIRECTION ( 'NONE',  ( 0.000000000000000000, 0.000000000000000000, -1.000000000000000000 ) ) ;
#275 = CARTESIAN_POINT ( 'NONE',  ( 0.000000000000000000, 1.000000000000000000, -2.000000000000000000 ) ) ;
#276 = FILL_AREA_STYLE ('',( #167 ) ) ;
#277 = SURFACE_STYLE_FILL_AREA ( #225 ) ;
#278 =( LENGTH_UNIT ( ) NAMED_UNIT ( * ) SI_UNIT ( .MILLI., .METRE. ) );
#279 = ADVANCED_BREP_SHAPE_REPRESENTATION ( '59536', ( #265, #146, #262 ), #21 ) ;
#280 = PRESENTATION_LAYER_ASSIGNMENT (  '', '', ( #5 ) ) ;
#281 = FILL_AREA_STYLE ('',( #199 ) ) ;
#282 = CARTESIAN_POINT ( 'NONE',  ( 0.000000000000000000, 0.000000000000000000, -3.000000000000000000 ) ) ;
#283 = SURFACE_STYLE_USAGE ( .BOTH. , #56 ) ;
#284 = PRESENTATION_STYLE_ASSIGNMENT (( #260 ) ) ;
#285 = FILL_AREA_STYLE ('',( #63 ) ) ;
#286 = LINE ( 'NONE', #214, #19 ) ;
#287 = ORIENTED_EDGE ( 'NONE', *, *, #197, .F. ) ;
#288 = DIRECTION ( 'NONE',  ( -0.000000000000000000, -1.000000000000000000, -0.000000000000000000 ) ) ;
#289 =( GEOMETRIC_REPRESENTATION_CONTEXT ( 3 ) GLOBAL_UNCERTAINTY_ASSIGNED_CONTEXT ( ( #222 ) ) GLOBAL_UNIT_ASSIGNED_CONTEXT ( ( #241, #200, #328 ) ) REPRESENTATION_CONTEXT ( 'NONE', 'WORKASPACE' ) );
#290 = CARTESIAN_POINT ( 'NONE',  ( 0.000000000000000000, 12.00000000000000000, -3.000000000000000000 ) ) ;
#291 = CARTESIAN_POINT ( 'NONE',  ( 3.000000000000000000, 11.99999999999999645, 3.673940397442054938E-16 ) ) ;
#292 = EDGE_LOOP ( 'NONE', ( #318, #341, #218, #8 ) ) ;
#293 = ADVANCED_FACE ( 'NONE', ( #180 ), #89, .T. ) ;
#294 = SURFACE_STYLE_FILL_AREA ( #185 ) ;
#295 = ORIENTED_EDGE ( 'NONE', *, *, #164, .F. ) ;
#296 =( GEOMETRIC_REPRESENTATION_CONTEXT ( 3 ) GLOBAL_UNCERTAINTY_ASSIGNED_CONTEXT ( ( #27 ) ) GLOBAL_UNIT_ASSIGNED_CONTEXT ( ( #67, #237, #78 ) ) REPRESENTATION_CONTEXT ( 'NONE', 'WORKASPACE' ) );
#297 = DIRECTION ( 'NONE',  ( -0.000000000000000000, -1.000000000000000000, -0.000000000000000000 ) ) ;
#298 = VERTEX_POINT ( 'NONE', #204 ) ;
#299 = CARTESIAN_POINT ( 'NONE',  ( 0.000000000000000000, 0.000000000000000000, 0.000000000000000000 ) ) ;
#300 = PRODUCT_DEFINITION_FORMATION_WITH_SPECIFIED_SOURCE ( 'ANY', '', #149, .NOT_KNOWN. ) ;
#301 = SURFACE_STYLE_USAGE ( .BOTH. , #129 ) ;
#302 = ADVANCED_FACE ( 'NONE', ( #32 ), #145, .T. ) ;
#303 = COLOUR_RGB ( '',1.000000000000000000, 0.000000000000000000, 0.000000000000000000 ) ;
#304 = CARTESIAN_POINT ( 'NONE',  ( 3.184081677783117402E-15, 63.00000000000000000, 0.000000000000000000 ) ) ;
#305 = MECHANICAL_DESIGN_GEOMETRIC_PRESENTATION_REPRESENTATION (  '', ( #39 ), #289 ) ;
#306 = UNCERTAINTY_MEASURE_WITH_UNIT (LENGTH_MEASURE( 1.000000000000000082E-05 ), #17, 'distance_accuracy_value', 'NONE');
#307 = CIRCLE ( 'NONE', #247, 2.999999999999996891 ) ;
#308 = FACE_OUTER_BOUND ( 'NONE', #309, .T. ) ;
#309 = EDGE_LOOP ( 'NONE', ( #233, #154 ) ) ;
#310 = FILL_AREA_STYLE_COLOUR ( '', #325 ) ;
#311 = AXIS2_PLACEMENT_3D ( 'NONE', #111, #327, #254 ) ;
#312 =( NAMED_UNIT ( * ) PLANE_ANGLE_UNIT ( ) SI_UNIT ( $, .RADIAN. ) );
#313 =( NAMED_UNIT ( * ) SI_UNIT ( $, .STERADIAN. ) SOLID_ANGLE_UNIT ( ) );
#314 = SURFACE_STYLE_FILL_AREA ( #210 ) ;
#315 = VERTEX_POINT ( 'NONE', #23 ) ;
#316 = ORIENTED_EDGE ( 'NONE', *, *, #50, .T. ) ;
#317 = CARTESIAN_POINT ( 'NONE',  ( 9.324138683375338132E-15, 11.99999999999999645, 0.000000000000000000 ) ) ;
#318 = ORIENTED_EDGE ( 'NONE', *, *, #48, .T. ) ;
#319 = VERTEX_POINT ( 'NONE', #138 ) ;
#320 = CIRCLE ( 'NONE', #10, 2.999999999999996891 ) ;
#321 =( GEOMETRIC_REPRESENTATION_CONTEXT ( 3 ) GLOBAL_UNCERTAINTY_ASSIGNED_CONTEXT ( ( #81 ) ) GLOBAL_UNIT_ASSIGNED_CONTEXT ( ( #201, #312, #313 ) ) REPRESENTATION_CONTEXT ( 'NONE', 'WORKASPACE' ) );
#322 = AXIS2_PLACEMENT_3D ( 'NONE', #156, #153, #345 ) ;
#323 = DIRECTION ( 'NONE',  ( 1.000000000000000000, 0.000000000000000000, 0.000000000000000000 ) ) ;
#324 = DIRECTION ( 'NONE',  ( -0.000000000000000000, -1.000000000000000000, -0.000000000000000000 ) ) ;
#325 = COLOUR_RGB ( '',1.000000000000000000, 0.000000000000000000, 0.000000000000000000 ) ;
#326 = UNCERTAINTY_MEASURE_WITH_UNIT (LENGTH_MEASURE( 1.000000000000000082E-05 ), #278, 'distance_accuracy_value', 'NONE');
#327 = DIRECTION ( 'NONE',  ( -0.000000000000000000, -1.000000000000000000, -0.000000000000000000 ) ) ;
#328 =( NAMED_UNIT ( * ) SI_UNIT ( $, .STERADIAN. ) SOLID_ANGLE_UNIT ( ) );
#329 = DIRECTION ( 'NONE',  ( 0.000000000000000000, 0.000000000000000000, -1.000000000000000000 ) ) ;
#330 = SURFACE_SIDE_STYLE ('',( #213 ) ) ;
#331 = AXIS2_PLACEMENT_3D ( 'NONE', #340, #9, #206 ) ;
#332 = CYLINDRICAL_SURFACE ( 'NONE', #165, 2.999999999999993783 ) ;
#333 = CARTESIAN_POINT ( 'NONE',  ( 0.000000000000000000, 0.000000000000000000, 0.000000000000000000 ) ) ;
#334 = CIRCLE ( 'NONE', #192, 1.000000000000000000 ) ;
#335 = DIRECTION ( 'NONE',  ( 0.000000000000000000, 0.000000000000000000, -1.000000000000000000 ) ) ;
#336 =( NAMED_UNIT ( * ) SI_UNIT ( $, .STERADIAN. ) SOLID_ANGLE_UNIT ( ) );
#337 = PRESENTATION_STYLE_ASSIGNMENT (( #178 ) ) ;
#338 = EDGE_LOOP ( 'NONE', ( #230, #346 ) ) ;
#339 = FILL_AREA_STYLE ('',( #367 ) ) ;
#340 = CARTESIAN_POINT ( 'NONE',  ( 9.324138683375338132E-15, 11.99999999999999645, 0.000000000000000000 ) ) ;
#341 = ORIENTED_EDGE ( 'NONE', *, *, #169, .T. ) ;
#342 = MECHANICAL_DESIGN_GEOMETRIC_PRESENTATION_REPRESENTATION (  '', ( #343 ), #136 ) ;
#343 = STYLED_ITEM ( 'NONE', ( #49 ), #161 ) ;
#344 = PRESENTATION_LAYER_ASSIGNMENT (  '', '', ( #135 ) ) ;
#345 = DIRECTION ( 'NONE',  ( 0.000000000000000000, 0.000000000000000000, -1.000000000000000000 ) ) ;
#346 = ORIENTED_EDGE ( 'NONE', *, *, #197, .T. ) ;
#347 = ADVANCED_FACE ( 'NONE', ( #86 ), #175, .T. ) ;
#348 = CARTESIAN_POINT ( 'NONE',  ( 3.184081677783117402E-15, 63.00000000000000000, 0.000000000000000000 ) ) ;
#349 = ORIENTED_EDGE ( 'NONE', *, *, #77, .F. ) ;
#350 = APPLICATION_PROTOCOL_DEFINITION ( 'draft international standard', 'automotive_design', 1998, #112 ) ;
#351 = CARTESIAN_POINT ( 'NONE',  ( 2.449293598294706414E-16, 1.000000000000000000, 2.000000000000000000 ) ) ;
#352 = APPLICATION_CONTEXT ( 'automotive_design' ) ;
#353 = FILL_AREA_STYLE_COLOUR ( '', #187 ) ;
#354 = SHAPE_DEFINITION_REPRESENTATION ( #244, #279 ) ;
#355 = AXIS2_PLACEMENT_3D ( 'NONE', #108, #324, #274 ) ;
#356 = EDGE_CURVE ( 'NONE', #259, #24, #202, .T. ) ;
#357 = AXIS2_PLACEMENT_3D ( 'NONE', #317, #71, #7 ) ;
#358 = AXIS2_PLACEMENT_3D ( 'NONE', #228, #288, #147 ) ;
#359 = DIRECTION ( 'NONE',  ( -1.203932746194552959E-16, 1.000000000000000000, -0.000000000000000000 ) ) ;
#360 = EDGE_CURVE ( 'NONE', #24, #211, #334, .T. ) ;
#361 = ORIENTED_EDGE ( 'NONE', *, *, #1, .F. ) ;
#362 = DIRECTION ( 'NONE',  ( -0.000000000000000000, -1.000000000000000000, -0.000000000000000000 ) ) ;
#363 = DIRECTION ( 'NONE',  ( 0.000000000000000000, 0.000000000000000000, -1.000000000000000000 ) ) ;
#364 = MECHANICAL_DESIGN_GEOMETRIC_PRESENTATION_REPRESENTATION (  '', ( #162 ), #268 ) ;
#365 =( GEOMETRIC_REPRESENTATION_CONTEXT ( 3 ) GLOBAL_UNCERTAINTY_ASSIGNED_CONTEXT ( ( #26 ) ) GLOBAL_UNIT_ASSIGNED_CONTEXT ( ( #34, #116, #249 ) ) REPRESENTATION_CONTEXT ( 'NONE', 'WORKASPACE' ) );
#366 = SURFACE_STYLE_FILL_AREA ( #281 ) ;
#367 = FILL_AREA_STYLE_COLOUR ( '', #240 ) ;
#368 = COLOUR_RGB ( '',1.000000000000000000, 0.000000000000000000, 0.000000000000000000 ) ;
#369 = SURFACE_SIDE_STYLE ('',( #90 ) ) ;
#370 = CARTESIAN_POINT ( 'NONE',  ( 3.184081677783117402E-15, 63.00000000000000000, 0.000000000000000000 ) ) ;
ENDSEC;
END-ISO-10303-21;
