ISO-10303-21;
HEADER;
FILE_DESCRIPTION (( 'STEP AP214' ),
    '1' );
FILE_NAME ('83425.STEP',
    '2023-06-30T23:18:25',
    ( '' ),
    ( '' ),
    'SwSTEP 2.0',
    'SolidWorks 2023',
    '' );
FILE_SCHEMA (( 'AUTOMOTIVE_DESIGN' ));
ENDSEC;

DATA;
#1 = EDGE_LOOP ( 'NONE', ( #262, #25 ) ) ;
#2 = CARTESIAN_POINT ( 'NONE',  ( 2.449293598294706414E-16, 2.000000000000000000, 0.000000000000000000 ) ) ;
#3 = DIRECTION ( 'NONE',  ( -1.000000000000000000, 0.000000000000000000, 0.000000000000000000 ) ) ;
#4 = DIRECTION ( 'NONE',  ( 1.530808498934191571E-16, -1.000000000000000000, 0.000000000000000000 ) ) ;
#5 = CIRCLE ( 'NONE', #102, 0.2499999999999999722 ) ;
#6 = DIRECTION ( 'NONE',  ( 0.000000000000000000, 0.000000000000000000, -1.000000000000000000 ) ) ;
#7 = PRESENTATION_LAYER_ASSIGNMENT (  '', '', ( #46 ) ) ;
#8 = SURFACE_STYLE_FILL_AREA ( #271 ) ;
#9 = SURFACE_STYLE_USAGE ( .BOTH. , #160 ) ;
#10 = AXIS2_PLACEMENT_3D ( 'NONE', #124, #121, #260 ) ;
#11 = EDGE_CURVE ( 'NONE', #230, #115, #223, .T. ) ;
#12 = FILL_AREA_STYLE ('',( #43 ) ) ;
#13 = CARTESIAN_POINT ( 'NONE',  ( 0.2499999999999999722, 0.2500000000000000555, 0.000000000000000000 ) ) ;
#14 = SURFACE_STYLE_USAGE ( .BOTH. , #354 ) ;
#15 = PRODUCT_DEFINITION_FORMATION_WITH_SPECIFIED_SOURCE ( 'ANY', '', #149, .NOT_KNOWN. ) ;
#16 = CIRCLE ( 'NONE', #125, 0.2500000000000000000 ) ;
#17 = CARTESIAN_POINT ( 'NONE',  ( 0.000000000000000000, 0.000000000000000000, 0.000000000000000000 ) ) ;
#18 = DIRECTION ( 'NONE',  ( -0.000000000000000000, -1.000000000000000000, -0.000000000000000000 ) ) ;
#19 = DIMENSIONAL_EXPONENTS ( 1.000000000000000000, 0.000000000000000000, 0.000000000000000000, 0.000000000000000000, 0.000000000000000000, 0.000000000000000000, 0.000000000000000000 ) ;
#20 = FILL_AREA_STYLE_COLOUR ( '', #179 ) ;
#21 = ORIENTED_EDGE ( 'NONE', *, *, #326, .F. ) ;
#22 =( LENGTH_UNIT ( ) NAMED_UNIT ( * ) SI_UNIT ( $, .METRE. ) );
#23 = CLOSED_SHELL ( 'NONE', ( #35, #245, #229, #240, #106 ) ) ;
#24 = VECTOR ( 'NONE', #143, 39.37007874015748143 ) ;
#25 = ORIENTED_EDGE ( 'NONE', *, *, #123, .F. ) ;
#26 = LINE ( 'NONE', #340, #192 ) ;
#27 = EDGE_LOOP ( 'NONE', ( #232, #311, #301, #286 ) ) ;
#28 =( LENGTH_UNIT ( ) NAMED_UNIT ( * ) SI_UNIT ( $, .METRE. ) );
#29 = PRODUCT_DEFINITION_SHAPE ( 'NONE', 'NONE',  #176 ) ;
#30 = ORIENTED_EDGE ( 'NONE', *, *, #280, .F. ) ;
#31 = COLOUR_RGB ( '',1.000000000000000000, 0.000000000000000000, 0.000000000000000000 ) ;
#32 = CARTESIAN_POINT ( 'NONE',  ( 0.000000000000000000, 0.2500000000000000555, 0.000000000000000000 ) ) ;
#33 = SHAPE_DEFINITION_REPRESENTATION ( #29, #196 ) ;
#34 =( NAMED_UNIT ( * ) PLANE_ANGLE_UNIT ( ) SI_UNIT ( $, .RADIAN. ) );
#35 = ADVANCED_FACE ( 'NONE', ( #88 ), #350, .T. ) ;
#36 = AXIS2_PLACEMENT_3D ( 'NONE', #279, #96, #66 ) ;
#37 = CYLINDRICAL_SURFACE ( 'NONE', #308, 0.2499999999999998612 ) ;
#38 = UNCERTAINTY_MEASURE_WITH_UNIT (LENGTH_MEASURE( 1.000000000000000082E-05 ), #329, 'distance_accuracy_value', 'NONE');
#39 = EDGE_CURVE ( 'NONE', #236, #237, #5, .T. ) ;
#40 = DIRECTION ( 'NONE',  ( 1.000000000000000000, 0.000000000000000000, -1.224646799147353207E-16 ) ) ;
#41 = ADVANCED_FACE ( 'NONE', ( #244 ), #267, .T. ) ;
#42 = DIRECTION ( 'NONE',  ( -1.530808498934191571E-16, 1.000000000000000000, -0.000000000000000000 ) ) ;
#43 = FILL_AREA_STYLE_COLOUR ( '', #161 ) ;
#44 = DIRECTION ( 'NONE',  ( -1.000000000000000000, 0.000000000000000000, 0.000000000000000000 ) ) ;
#45 = SURFACE_STYLE_FILL_AREA ( #47 ) ;
#46 = STYLED_ITEM ( 'NONE', ( #221 ), #229 ) ;
#47 = FILL_AREA_STYLE ('',( #281 ) ) ;
#48 = CARTESIAN_POINT ( 'NONE',  ( 0.000000000000000000, 0.2500000000000000555, 0.000000000000000000 ) ) ;
#49 = DIRECTION ( 'NONE',  ( -0.000000000000000000, -1.000000000000000000, -0.000000000000000000 ) ) ;
#50 = CARTESIAN_POINT ( 'NONE',  ( -3.061616997868383018E-17, 0.2500000000000000000, 0.000000000000000000 ) ) ;
#51 = FACE_OUTER_BOUND ( 'NONE', #27, .T. ) ;
#52 =( GEOMETRIC_REPRESENTATION_CONTEXT ( 3 ) GLOBAL_UNCERTAINTY_ASSIGNED_CONTEXT ( ( #126 ) ) GLOBAL_UNIT_ASSIGNED_CONTEXT ( ( #251, #113, #111 ) ) REPRESENTATION_CONTEXT ( 'NONE', 'WORKASPACE' ) );
#53 = EDGE_LOOP ( 'NONE', ( #148, #291, #234, #30, #208 ) ) ;
#54 = LINE ( 'NONE', #318, #184 ) ;
#55 = ORIENTED_EDGE ( 'NONE', *, *, #280, .T. ) ;
#56 = ORIENTED_EDGE ( 'NONE', *, *, #219, .T. ) ;
#57 = AXIS2_PLACEMENT_3D ( 'NONE', #195, #266, #87 ) ;
#58 = DIRECTION ( 'NONE',  ( 1.000000000000000000, 0.000000000000000000, 0.000000000000000000 ) ) ;
#59 = MECHANICAL_DESIGN_GEOMETRIC_PRESENTATION_REPRESENTATION (  '', ( #185 ), #109 ) ;
#60 = AXIS2_PLACEMENT_3D ( 'NONE', #186, #42, #323 ) ;
#61 = SURFACE_STYLE_FILL_AREA ( #153 ) ;
#62 =( CONVERSION_BASED_UNIT ( 'INCH', #183 ) LENGTH_UNIT ( ) NAMED_UNIT ( #84 ) );
#63 = DIRECTION ( 'NONE',  ( -1.530808498934191571E-16, 1.000000000000000000, -0.000000000000000000 ) ) ;
#64 = SURFACE_STYLE_FILL_AREA ( #12 ) ;
#65 = CIRCLE ( 'NONE', #10, 0.2499999999999999722 ) ;
#66 = DIRECTION ( 'NONE',  ( 0.000000000000000000, -0.000000000000000000, 1.000000000000000000 ) ) ;
#67 =( GEOMETRIC_REPRESENTATION_CONTEXT ( 3 ) GLOBAL_UNCERTAINTY_ASSIGNED_CONTEXT ( ( #370 ) ) GLOBAL_UNIT_ASSIGNED_CONTEXT ( ( #357, #365, #359 ) ) REPRESENTATION_CONTEXT ( 'NONE', 'WORKASPACE' ) );
#68 =( CONVERSION_BASED_UNIT ( 'INCH', #163 ) LENGTH_UNIT ( ) NAMED_UNIT ( #304 ) );
#69 =( LENGTH_UNIT ( ) NAMED_UNIT ( * ) SI_UNIT ( $, .METRE. ) );
#70 = DIRECTION ( 'NONE',  ( 1.224646799147353207E-16, -0.000000000000000000, 1.000000000000000000 ) ) ;
#71 =( NAMED_UNIT ( * ) PLANE_ANGLE_UNIT ( ) SI_UNIT ( $, .RADIAN. ) );
#72 = MECHANICAL_DESIGN_GEOMETRIC_PRESENTATION_REPRESENTATION (  '', ( #362 ), #345 ) ;
#73 = MECHANICAL_DESIGN_GEOMETRIC_PRESENTATION_REPRESENTATION (  '', ( #46 ), #250 ) ;
#74 = CARTESIAN_POINT ( 'NONE',  ( -3.061616997868383018E-17, 0.2500000000000000000, 0.000000000000000000 ) ) ;
#75 = CARTESIAN_POINT ( 'NONE',  ( -3.061616997868383018E-17, 0.2500000000000000000, 0.000000000000000000 ) ) ;
#76 = SURFACE_STYLE_USAGE ( .BOTH. , #146 ) ;
#77 = PRODUCT_RELATED_PRODUCT_CATEGORY ( 'part', '', ( #149 ) ) ;
#78 = CARTESIAN_POINT ( 'NONE',  ( 0.000000000000000000, 2.000000000000000000, -0.2499999999999997502 ) ) ;
#79 = UNCERTAINTY_MEASURE_WITH_UNIT (LENGTH_MEASURE( 1.000000000000000082E-05 ), #182, 'distance_accuracy_value', 'NONE');
#80 = FILL_AREA_STYLE_COLOUR ( '', #324 ) ;
#81 = ORIENTED_EDGE ( 'NONE', *, *, #331, .F. ) ;
#82 = ORIENTED_EDGE ( 'NONE', *, *, #247, .T. ) ;
#83 = LENGTH_MEASURE_WITH_UNIT ( LENGTH_MEASURE( 0.02539999999999999897 ), #28 );
#84 = DIMENSIONAL_EXPONENTS ( 1.000000000000000000, 0.000000000000000000, 0.000000000000000000, 0.000000000000000000, 0.000000000000000000, 0.000000000000000000, 0.000000000000000000 ) ;
#85 = AXIS2_PLACEMENT_3D ( 'NONE', #284, #49, #226 ) ;
#86 = ORIENTED_EDGE ( 'NONE', *, *, #342, .T. ) ;
#87 = DIRECTION ( 'NONE',  ( 0.000000000000000000, 0.000000000000000000, -1.000000000000000000 ) ) ;
#88 = FACE_OUTER_BOUND ( 'NONE', #112, .T. ) ;
#89 = FACE_OUTER_BOUND ( 'NONE', #1, .T. ) ;
#90 = EDGE_LOOP ( 'NONE', ( #289, #364, #55, #313 ) ) ;
#91 = AXIS2_PLACEMENT_3D ( 'NONE', #207, #314, #58 ) ;
#92 =( LENGTH_UNIT ( ) NAMED_UNIT ( * ) SI_UNIT ( $, .METRE. ) );
#93 = CIRCLE ( 'NONE', #296, 0.2499999999999997502 ) ;
#94 = CARTESIAN_POINT ( 'NONE',  ( -0.2499999999999999722, 4.000000000000000000, 0.000000000000000000 ) ) ;
#95 = CARTESIAN_POINT ( 'NONE',  ( -6.123233995736766036E-17, 4.000000000000000000, 0.000000000000000000 ) ) ;
#96 = DIRECTION ( 'NONE',  ( 0.000000000000000000, 1.000000000000000000, 0.000000000000000000 ) ) ;
#97 =( GEOMETRIC_REPRESENTATION_CONTEXT ( 3 ) GLOBAL_UNCERTAINTY_ASSIGNED_CONTEXT ( ( #79 ) ) GLOBAL_UNIT_ASSIGNED_CONTEXT ( ( #182, #174, #369 ) ) REPRESENTATION_CONTEXT ( 'NONE', 'WORKASPACE' ) );
#98 =( NAMED_UNIT ( * ) SI_UNIT ( $, .STERADIAN. ) SOLID_ANGLE_UNIT ( ) );
#99 = PRESENTATION_STYLE_ASSIGNMENT (( #14 ) ) ;
#100 = CARTESIAN_POINT ( 'NONE',  ( 0.2499999999999998057, 2.000000000000000000, 3.061616997868380553E-17 ) ) ;
#101 = SPHERICAL_SURFACE ( 'NONE', #187, 0.2500000000000000000 ) ;
#102 = AXIS2_PLACEMENT_3D ( 'NONE', #32, #330, #6 ) ;
#103 = EDGE_CURVE ( 'NONE', #343, #200, #315, .T. ) ;
#104 = COLOUR_RGB ( '',1.000000000000000000, 0.000000000000000000, 0.000000000000000000 ) ;
#105 = CARTESIAN_POINT ( 'NONE',  ( 0.2499999999999998335, 4.000000000000000000, 3.061616997868381169E-17 ) ) ;
#106 = ADVANCED_FACE ( 'NONE', ( #225 ), #101, .T. ) ;
#107 = CIRCLE ( 'NONE', #57, 0.2499999999999999722 ) ;
#108 = LENGTH_MEASURE_WITH_UNIT ( LENGTH_MEASURE( 0.02539999999999999897 ), #169 );
#109 =( GEOMETRIC_REPRESENTATION_CONTEXT ( 3 ) GLOBAL_UNCERTAINTY_ASSIGNED_CONTEXT ( ( #349 ) ) GLOBAL_UNIT_ASSIGNED_CONTEXT ( ( #132, #358, #134 ) ) REPRESENTATION_CONTEXT ( 'NONE', 'WORKASPACE' ) );
#110 =( GEOMETRIC_REPRESENTATION_CONTEXT ( 3 ) GLOBAL_UNCERTAINTY_ASSIGNED_CONTEXT ( ( #211 ) ) GLOBAL_UNIT_ASSIGNED_CONTEXT ( ( #367, #34, #154 ) ) REPRESENTATION_CONTEXT ( 'NONE', 'WORKASPACE' ) );
#111 =( NAMED_UNIT ( * ) SI_UNIT ( $, .STERADIAN. ) SOLID_ANGLE_UNIT ( ) );
#112 = EDGE_LOOP ( 'NONE', ( #147, #309, #206, #86 ) ) ;
#113 =( NAMED_UNIT ( * ) PLANE_ANGLE_UNIT ( ) SI_UNIT ( $, .RADIAN. ) );
#114 = DIRECTION ( 'NONE',  ( 0.000000000000000000, 0.000000000000000000, -1.000000000000000000 ) ) ;
#115 = VERTEX_POINT ( 'NONE', #181 ) ;
#116 = DIRECTION ( 'NONE',  ( -0.000000000000000000, -1.000000000000000000, -0.000000000000000000 ) ) ;
#117 = AXIS2_PLACEMENT_3D ( 'NONE', #95, #63, #3 ) ;
#118 = PRESENTATION_LAYER_ASSIGNMENT (  '', '', ( #253 ) ) ;
#119 = EDGE_LOOP ( 'NONE', ( #56, #82 ) ) ;
#120 = EDGE_LOOP ( 'NONE', ( #21, #368, #150, #336, #288 ) ) ;
#121 = DIRECTION ( 'NONE',  ( -0.000000000000000000, -1.000000000000000000, -0.000000000000000000 ) ) ;
#122 = SURFACE_STYLE_FILL_AREA ( #264 ) ;
#123 = EDGE_CURVE ( 'NONE', #200, #343, #371, .T. ) ;
#124 = CARTESIAN_POINT ( 'NONE',  ( 0.000000000000000000, 0.2500000000000000555, 0.000000000000000000 ) ) ;
#125 = AXIS2_PLACEMENT_3D ( 'NONE', #74, #70, #40 ) ;
#126 = UNCERTAINTY_MEASURE_WITH_UNIT (LENGTH_MEASURE( 1.000000000000000082E-05 ), #251, 'distance_accuracy_value', 'NONE');
#127 = SURFACE_SIDE_STYLE ('',( #8 ) ) ;
#128 = DIMENSIONAL_EXPONENTS ( 1.000000000000000000, 0.000000000000000000, 0.000000000000000000, 0.000000000000000000, 0.000000000000000000, 0.000000000000000000, 0.000000000000000000 ) ;
#129 = PRESENTATION_STYLE_ASSIGNMENT (( #9 ) ) ;
#130 = AXIS2_PLACEMENT_3D ( 'NONE', #360, #332, #306 ) ;
#131 = LENGTH_MEASURE_WITH_UNIT ( LENGTH_MEASURE( 0.02539999999999999897 ), #69 );
#132 =( CONVERSION_BASED_UNIT ( 'INCH', #278 ) LENGTH_UNIT ( ) NAMED_UNIT ( #128 ) );
#133 =( NAMED_UNIT ( * ) PLANE_ANGLE_UNIT ( ) SI_UNIT ( $, .RADIAN. ) );
#134 =( NAMED_UNIT ( * ) SI_UNIT ( $, .STERADIAN. ) SOLID_ANGLE_UNIT ( ) );
#135 = DIRECTION ( 'NONE',  ( 0.000000000000000000, 0.000000000000000000, 1.000000000000000000 ) ) ;
#136 = EDGE_CURVE ( 'NONE', #256, #366, #93, .T. ) ;
#137 = CIRCLE ( 'NONE', #235, 0.2499999999999999722 ) ;
#138 = FACE_OUTER_BOUND ( 'NONE', #53, .T. ) ;
#139 = EDGE_CURVE ( 'NONE', #200, #261, #302, .T. ) ;
#140 = DIRECTION ( 'NONE',  ( -1.530808498934191571E-16, 1.000000000000000000, -0.000000000000000000 ) ) ;
#141 = CARTESIAN_POINT ( 'NONE',  ( 0.000000000000000000, 2.000000000000000000, 0.000000000000000000 ) ) ;
#142 = FILL_AREA_STYLE ('',( #20 ) ) ;
#143 = DIRECTION ( 'NONE',  ( -1.530808498934191571E-16, 1.000000000000000000, -0.000000000000000000 ) ) ;
#144 = EDGE_LOOP ( 'NONE', ( #335, #197 ) ) ;
#145 = AXIS2_PLACEMENT_3D ( 'NONE', #50, #339, #341 ) ;
#146 = SURFACE_SIDE_STYLE ('',( #45 ) ) ;
#147 = ORIENTED_EDGE ( 'NONE', *, *, #198, .T. ) ;
#148 = ORIENTED_EDGE ( 'NONE', *, *, #136, .T. ) ;
#149 = PRODUCT ( '83425', '83425', '', ( #177 ) ) ;
#150 = ORIENTED_EDGE ( 'NONE', *, *, #298, .T. ) ;
#151 = PLANE ( 'NONE',  #215 ) ;
#152 = AXIS2_PLACEMENT_3D ( 'NONE', #172, #194, #282 ) ;
#153 = FILL_AREA_STYLE ('',( #316 ) ) ;
#154 =( NAMED_UNIT ( * ) SI_UNIT ( $, .STERADIAN. ) SOLID_ANGLE_UNIT ( ) );
#155 = FACE_OUTER_BOUND ( 'NONE', #119, .T. ) ;
#156 = STYLED_ITEM ( 'NONE', ( #191 ), #245 ) ;
#157 = CARTESIAN_POINT ( 'NONE',  ( 2.449293598294706414E-16, 2.000000000000000000, 0.000000000000000000 ) ) ;
#158 = FILL_AREA_STYLE_COLOUR ( '', #255 ) ;
#159 = MANIFOLD_SOLID_BREP ( 'Revolve - Tool Body (Straight Shanked)', #337 ) ;
#160 = SURFACE_SIDE_STYLE ('',( #217 ) ) ;
#161 = COLOUR_RGB ( '',1.000000000000000000, 0.000000000000000000, 0.000000000000000000 ) ;
#162 = AXIS2_PLACEMENT_3D ( 'NONE', #305, #140, #199 ) ;
#163 = LENGTH_MEASURE_WITH_UNIT ( LENGTH_MEASURE( 0.02539999999999999897 ), #214 );
#164 = LENGTH_MEASURE_WITH_UNIT ( LENGTH_MEASURE( 0.02539999999999999897 ), #346 );
#165 = FACE_OUTER_BOUND ( 'NONE', #144, .T. ) ;
#166 = CARTESIAN_POINT ( 'NONE',  ( -3.061616997868383018E-17, 0.2500000000000000000, 0.000000000000000000 ) ) ;
#167 = STYLED_ITEM ( 'NONE', ( #344 ), #159 ) ;
#168 = CYLINDRICAL_SURFACE ( 'NONE', #152, 0.2499999999999997224 ) ;
#169 =( LENGTH_UNIT ( ) NAMED_UNIT ( * ) SI_UNIT ( $, .METRE. ) );
#170 = EDGE_LOOP ( 'NONE', ( #204, #173, #283, #81 ) ) ;
#171 = MECHANICAL_DESIGN_GEOMETRIC_PRESENTATION_REPRESENTATION (  '', ( #167 ), #201 ) ;
#172 = CARTESIAN_POINT ( 'NONE',  ( -6.123233995736766036E-17, 4.000000000000000000, 0.000000000000000000 ) ) ;
#173 = ORIENTED_EDGE ( 'NONE', *, *, #139, .T. ) ;
#174 =( NAMED_UNIT ( * ) PLANE_ANGLE_UNIT ( ) SI_UNIT ( $, .RADIAN. ) );
#175 = VERTEX_POINT ( 'NONE', #355 ) ;
#176 = PRODUCT_DEFINITION ( 'UNKNOWN', '', #15, #295 ) ;
#177 = PRODUCT_CONTEXT ( 'NONE', #257, 'mechanical' ) ;
#178 = PRESENTATION_LAYER_ASSIGNMENT (  '', '', ( #185 ) ) ;
#179 = COLOUR_RGB ( '',0.7921568627450980005, 0.8196078431372548767, 0.9333333333333333481 ) ;
#180 = DIRECTION ( 'NONE',  ( -1.530808498934191571E-16, 1.000000000000000000, 0.000000000000000000 ) ) ;
#181 = CARTESIAN_POINT ( 'NONE',  ( -1.530808498934191509E-17, 0.000000000000000000, 0.000000000000000000 ) ) ;
#182 =( CONVERSION_BASED_UNIT ( 'INCH', #83 ) LENGTH_UNIT ( ) NAMED_UNIT ( #203 ) );
#183 = LENGTH_MEASURE_WITH_UNIT ( LENGTH_MEASURE( 0.02539999999999999897 ), #92 );
#184 = VECTOR ( 'NONE', #202, 39.37007874015748143 ) ;
#185 = STYLED_ITEM ( 'NONE', ( #299 ), #35 ) ;
#186 = CARTESIAN_POINT ( 'NONE',  ( -6.123233995736764803E-17, 4.000000000000000000, 0.000000000000000000 ) ) ;
#187 = AXIS2_PLACEMENT_3D ( 'NONE', #75, #222, #294 ) ;
#188 = CIRCLE ( 'NONE', #162, 0.2499999999999998890 ) ;
#189 =( NAMED_UNIT ( * ) PLANE_ANGLE_UNIT ( ) SI_UNIT ( $, .RADIAN. ) );
#190 = DIRECTION ( 'NONE',  ( -1.530808498934191571E-16, 1.000000000000000000, -0.000000000000000000 ) ) ;
#191 = PRESENTATION_STYLE_ASSIGNMENT (( #76 ) ) ;
#192 = VECTOR ( 'NONE', #209, 39.37007874015748143 ) ;
#193 = MECHANICAL_DESIGN_GEOMETRIC_PRESENTATION_REPRESENTATION (  '', ( #253 ), #110 ) ;
#194 = DIRECTION ( 'NONE',  ( -1.530808498934191571E-16, 1.000000000000000000, -0.000000000000000000 ) ) ;
#195 = CARTESIAN_POINT ( 'NONE',  ( 0.000000000000000000, 0.2500000000000000555, 0.000000000000000000 ) ) ;
#196 = ADVANCED_BREP_SHAPE_REPRESENTATION ( '83425', ( #277, #159, #91 ), #97 ) ;
#197 = ORIENTED_EDGE ( 'NONE', *, *, #249, .F. ) ;
#198 = EDGE_CURVE ( 'NONE', #175, #236, #137, .T. ) ;
#199 = DIRECTION ( 'NONE',  ( -1.000000000000000000, 0.000000000000000000, 0.000000000000000000 ) ) ;
#200 = VERTEX_POINT ( 'NONE', #100 ) ;
#201 =( GEOMETRIC_REPRESENTATION_CONTEXT ( 3 ) GLOBAL_UNCERTAINTY_ASSIGNED_CONTEXT ( ( #272 ) ) GLOBAL_UNIT_ASSIGNED_CONTEXT ( ( #62, #133, #248 ) ) REPRESENTATION_CONTEXT ( 'NONE', 'WORKASPACE' ) );
#202 = DIRECTION ( 'NONE',  ( -0.000000000000000000, -1.000000000000000000, -0.000000000000000000 ) ) ;
#203 = DIMENSIONAL_EXPONENTS ( 1.000000000000000000, 0.000000000000000000, 0.000000000000000000, 0.000000000000000000, 0.000000000000000000, 0.000000000000000000, 0.000000000000000000 ) ;
#204 = ORIENTED_EDGE ( 'NONE', *, *, #103, .T. ) ;
#205 = CARTESIAN_POINT ( 'NONE',  ( 0.2499999999999998335, 4.000000000000000000, 0.000000000000000000 ) ) ;
#206 = ORIENTED_EDGE ( 'NONE', *, *, #11, .F. ) ;
#207 = CARTESIAN_POINT ( 'NONE',  ( 0.000000000000000000, 0.000000000000000000, 0.000000000000000000 ) ) ;
#208 = ORIENTED_EDGE ( 'NONE', *, *, #298, .F. ) ;
#209 = DIRECTION ( 'NONE',  ( -1.530808498934191571E-16, 1.000000000000000000, -0.000000000000000000 ) ) ;
#210 = PRESENTATION_LAYER_ASSIGNMENT (  '', '', ( #362 ) ) ;
#211 = UNCERTAINTY_MEASURE_WITH_UNIT (LENGTH_MEASURE( 1.000000000000000082E-05 ), #367, 'distance_accuracy_value', 'NONE');
#212 = CARTESIAN_POINT ( 'NONE',  ( 2.449293598294706414E-16, 2.000000000000000000, 0.000000000000000000 ) ) ;
#213 = EDGE_CURVE ( 'NONE', #236, #115, #16, .T. ) ;
#214 =( LENGTH_UNIT ( ) NAMED_UNIT ( * ) SI_UNIT ( $, .METRE. ) );
#215 = AXIS2_PLACEMENT_3D ( 'NONE', #2, #180, #293 ) ;
#216 = AXIS2_PLACEMENT_3D ( 'NONE', #157, #274, #322 ) ;
#217 = SURFACE_STYLE_FILL_AREA ( #352 ) ;
#218 = UNCERTAINTY_MEASURE_WITH_UNIT (LENGTH_MEASURE( 1.000000000000000082E-05 ), #68, 'distance_accuracy_value', 'NONE');
#219 = EDGE_CURVE ( 'NONE', #372, #261, #363, .T. ) ;
#220 = SURFACE_STYLE_USAGE ( .BOTH. , #127 ) ;
#221 = PRESENTATION_STYLE_ASSIGNMENT (( #220 ) ) ;
#222 = DIRECTION ( 'NONE',  ( 0.000000000000000000, 0.000000000000000000, 1.000000000000000000 ) ) ;
#223 = CIRCLE ( 'NONE', #145, 0.2500000000000000000 ) ;
#224 = DIRECTION ( 'NONE',  ( 0.000000000000000000, 0.000000000000000000, -1.000000000000000000 ) ) ;
#225 = FACE_OUTER_BOUND ( 'NONE', #90, .T. ) ;
#226 = DIRECTION ( 'NONE',  ( 0.000000000000000000, 0.000000000000000000, -1.000000000000000000 ) ) ;
#227 = CYLINDRICAL_SURFACE ( 'NONE', #85, 0.2499999999999998612 ) ;
#228 = CARTESIAN_POINT ( 'NONE',  ( 0.2499999999999996669, 4.000000000000000000, 3.061616997868379320E-17 ) ) ;
#229 = ADVANCED_FACE ( 'NONE', ( #165 ), #276, .T. ) ;
#230 = VERTEX_POINT ( 'NONE', #13 ) ;
#231 = DIMENSIONAL_EXPONENTS ( 1.000000000000000000, 0.000000000000000000, 0.000000000000000000, 0.000000000000000000, 0.000000000000000000, 0.000000000000000000, 0.000000000000000000 ) ;
#232 = ORIENTED_EDGE ( 'NONE', *, *, #139, .F. ) ;
#233 = VECTOR ( 'NONE', #116, 39.37007874015748143 ) ;
#234 = ORIENTED_EDGE ( 'NONE', *, *, #342, .F. ) ;
#235 = AXIS2_PLACEMENT_3D ( 'NONE', #48, #325, #353 ) ;
#236 = VERTEX_POINT ( 'NONE', #246 ) ;
#237 = VERTEX_POINT ( 'NONE', #297 ) ;
#238 = CARTESIAN_POINT ( 'NONE',  ( 3.061616997868381169E-17, 2.000000000000000000, 0.2499999999999997502 ) ) ;
#239 = SURFACE_STYLE_USAGE ( .BOTH. , #321 ) ;
#240 = ADVANCED_FACE ( 'NONE', ( #351 ), #37, .T. ) ;
#241 = DIRECTION ( 'NONE',  ( 1.000000000000000000, 0.000000000000000000, 0.000000000000000000 ) ) ;
#242 = CARTESIAN_POINT ( 'NONE',  ( 3.061616997868381785E-17, 0.000000000000000000, 0.2499999999999998612 ) ) ;
#243 = COLOUR_RGB ( '',1.000000000000000000, 0.000000000000000000, 0.000000000000000000 ) ;
#244 = FACE_OUTER_BOUND ( 'NONE', #170, .T. ) ;
#245 = ADVANCED_FACE ( 'NONE', ( #138 ), #227, .T. ) ;
#246 = CARTESIAN_POINT ( 'NONE',  ( -0.2500000000000000000, 0.2500000000000000555, 3.061616997868382402E-17 ) ) ;
#247 = EDGE_CURVE ( 'NONE', #261, #372, #188, .T. ) ;
#248 =( NAMED_UNIT ( * ) SI_UNIT ( $, .STERADIAN. ) SOLID_ANGLE_UNIT ( ) );
#249 = EDGE_CURVE ( 'NONE', #366, #256, #317, .T. ) ;
#250 =( GEOMETRIC_REPRESENTATION_CONTEXT ( 3 ) GLOBAL_UNCERTAINTY_ASSIGNED_CONTEXT ( ( #218 ) ) GLOBAL_UNIT_ASSIGNED_CONTEXT ( ( #68, #189, #98 ) ) REPRESENTATION_CONTEXT ( 'NONE', 'WORKASPACE' ) );
#251 =( CONVERSION_BASED_UNIT ( 'INCH', #131 ) LENGTH_UNIT ( ) NAMED_UNIT ( #231 ) );
#252 = LENGTH_MEASURE_WITH_UNIT ( LENGTH_MEASURE( 0.02539999999999999897 ), #22 );
#253 = STYLED_ITEM ( 'NONE', ( #334 ), #277 ) ;
#254 = SURFACE_STYLE_FILL_AREA ( #142 ) ;
#255 = COLOUR_RGB ( '',1.000000000000000000, 0.000000000000000000, 0.000000000000000000 ) ;
#256 = VERTEX_POINT ( 'NONE', #78 ) ;
#257 = APPLICATION_CONTEXT ( 'automotive_design' ) ;
#258 = DIRECTION ( 'NONE',  ( -0.000000000000000000, -1.000000000000000000, -0.000000000000000000 ) ) ;
#259 = SURFACE_STYLE_USAGE ( .BOTH. , #265 ) ;
#260 = DIRECTION ( 'NONE',  ( 0.000000000000000000, 0.000000000000000000, -1.000000000000000000 ) ) ;
#261 = VERTEX_POINT ( 'NONE', #105 ) ;
#262 = ORIENTED_EDGE ( 'NONE', *, *, #103, .F. ) ;
#263 = PRESENTATION_LAYER_ASSIGNMENT (  '', '', ( #156 ) ) ;
#264 = FILL_AREA_STYLE ('',( #80 ) ) ;
#265 = SURFACE_SIDE_STYLE ('',( #61 ) ) ;
#266 = DIRECTION ( 'NONE',  ( -0.000000000000000000, -1.000000000000000000, -0.000000000000000000 ) ) ;
#267 = CYLINDRICAL_SURFACE ( 'NONE', #117, 0.2499999999999997224 ) ;
#268 = LINE ( 'NONE', #242, #233 ) ;
#269 = ADVANCED_FACE ( 'NONE', ( #51 ), #168, .T. ) ;
#270 = AXIS2_PLACEMENT_3D ( 'NONE', #212, #190, #44 ) ;
#271 = FILL_AREA_STYLE ('',( #327 ) ) ;
#272 = UNCERTAINTY_MEASURE_WITH_UNIT (LENGTH_MEASURE( 1.000000000000000082E-05 ), #62, 'distance_accuracy_value', 'NONE');
#273 = DIMENSIONAL_EXPONENTS ( 1.000000000000000000, 0.000000000000000000, 0.000000000000000000, 0.000000000000000000, 0.000000000000000000, 0.000000000000000000, 0.000000000000000000 ) ;
#274 = DIRECTION ( 'NONE',  ( -1.530808498934191571E-16, 1.000000000000000000, -0.000000000000000000 ) ) ;
#275 = APPLICATION_CONTEXT ( 'automotive_design' ) ;
#276 = PLANE ( 'NONE',  #36 ) ;
#277 = MANIFOLD_SOLID_BREP ( 'Revolve - Cutting Edge', #23 ) ;
#278 = LENGTH_MEASURE_WITH_UNIT ( LENGTH_MEASURE( 0.02539999999999999897 ), #319 );
#279 = CARTESIAN_POINT ( 'NONE',  ( 0.000000000000000000, 2.000000000000000000, 0.000000000000000000 ) ) ;
#280 = EDGE_CURVE ( 'NONE', #237, #230, #107, .T. ) ;
#281 = FILL_AREA_STYLE_COLOUR ( '', #104 ) ;
#282 = DIRECTION ( 'NONE',  ( -1.000000000000000000, 0.000000000000000000, 0.000000000000000000 ) ) ;
#283 = ORIENTED_EDGE ( 'NONE', *, *, #219, .F. ) ;
#284 = CARTESIAN_POINT ( 'NONE',  ( 0.000000000000000000, 0.000000000000000000, 0.000000000000000000 ) ) ;
#285 = STYLED_ITEM ( 'NONE', ( #129 ), #240 ) ;
#286 = ORIENTED_EDGE ( 'NONE', *, *, #247, .F. ) ;
#287 = SURFACE_SIDE_STYLE ('',( #254 ) ) ;
#288 = ORIENTED_EDGE ( 'NONE', *, *, #198, .F. ) ;
#289 = ORIENTED_EDGE ( 'NONE', *, *, #213, .F. ) ;
#290 = AXIS2_PLACEMENT_3D ( 'NONE', #205, #4, #348 ) ;
#291 = ORIENTED_EDGE ( 'NONE', *, *, #326, .T. ) ;
#292 = APPLICATION_PROTOCOL_DEFINITION ( 'draft international standard', 'automotive_design', 1998, #275 ) ;
#293 = DIRECTION ( 'NONE',  ( -1.000000000000000000, -1.530808498934191571E-16, 0.000000000000000000 ) ) ;
#294 = DIRECTION ( 'NONE',  ( 1.000000000000000000, 0.000000000000000000, 0.000000000000000000 ) ) ;
#295 = PRODUCT_DEFINITION_CONTEXT ( 'detailed design', #275, 'design' ) ;
#296 = AXIS2_PLACEMENT_3D ( 'NONE', #141, #18, #114 ) ;
#297 = CARTESIAN_POINT ( 'NONE',  ( 0.000000000000000000, 0.2500000000000000555, -0.2499999999999999722 ) ) ;
#298 = EDGE_CURVE ( 'NONE', #256, #237, #54, .T. ) ;
#299 = PRESENTATION_STYLE_ASSIGNMENT (( #259 ) ) ;
#300 =( NAMED_UNIT ( * ) SI_UNIT ( $, .STERADIAN. ) SOLID_ANGLE_UNIT ( ) );
#301 = ORIENTED_EDGE ( 'NONE', *, *, #331, .T. ) ;
#302 = LINE ( 'NONE', #228, #24 ) ;
#303 = ADVANCED_FACE ( 'NONE', ( #89 ), #151, .F. ) ;
#304 = DIMENSIONAL_EXPONENTS ( 1.000000000000000000, 0.000000000000000000, 0.000000000000000000, 0.000000000000000000, 0.000000000000000000, 0.000000000000000000, 0.000000000000000000 ) ;
#305 = CARTESIAN_POINT ( 'NONE',  ( -6.123233995736764803E-17, 4.000000000000000000, 0.000000000000000000 ) ) ;
#306 = DIRECTION ( 'NONE',  ( 0.000000000000000000, 0.000000000000000000, -1.000000000000000000 ) ) ;
#307 = DIMENSIONAL_EXPONENTS ( 1.000000000000000000, 0.000000000000000000, 0.000000000000000000, 0.000000000000000000, 0.000000000000000000, 0.000000000000000000, 0.000000000000000000 ) ;
#308 = AXIS2_PLACEMENT_3D ( 'NONE', #17, #258, #224 ) ;
#309 = ORIENTED_EDGE ( 'NONE', *, *, #213, .T. ) ;
#310 = ADVANCED_FACE ( 'NONE', ( #155 ), #320, .F. ) ;
#311 = ORIENTED_EDGE ( 'NONE', *, *, #123, .T. ) ;
#312 = CARTESIAN_POINT ( 'NONE',  ( -0.2499999999999992784, 2.000000000000000000, 0.000000000000000000 ) ) ;
#313 = ORIENTED_EDGE ( 'NONE', *, *, #11, .T. ) ;
#314 = DIRECTION ( 'NONE',  ( 0.000000000000000000, 0.000000000000000000, 1.000000000000000000 ) ) ;
#315 = CIRCLE ( 'NONE', #216, 0.2499999999999995282 ) ;
#316 = FILL_AREA_STYLE_COLOUR ( '', #243 ) ;
#317 = CIRCLE ( 'NONE', #130, 0.2499999999999997502 ) ;
#318 = CARTESIAN_POINT ( 'NONE',  ( 0.000000000000000000, 0.000000000000000000, -0.2499999999999998612 ) ) ;
#319 =( LENGTH_UNIT ( ) NAMED_UNIT ( * ) SI_UNIT ( $, .METRE. ) );
#320 = PLANE ( 'NONE',  #290 ) ;
#321 = SURFACE_SIDE_STYLE ('',( #122 ) ) ;
#322 = DIRECTION ( 'NONE',  ( -1.000000000000000000, 0.000000000000000000, 0.000000000000000000 ) ) ;
#323 = DIRECTION ( 'NONE',  ( -1.000000000000000000, 0.000000000000000000, 0.000000000000000000 ) ) ;
#324 = COLOUR_RGB ( '',0.7921568627450980005, 0.8196078431372548767, 0.9333333333333333481 ) ;
#325 = DIRECTION ( 'NONE',  ( -0.000000000000000000, -1.000000000000000000, -0.000000000000000000 ) ) ;
#326 = EDGE_CURVE ( 'NONE', #366, #175, #268, .T. ) ;
#327 = FILL_AREA_STYLE_COLOUR ( '', #31 ) ;
#328 = MECHANICAL_DESIGN_GEOMETRIC_PRESENTATION_REPRESENTATION (  '', ( #156 ), #67 ) ;
#329 =( CONVERSION_BASED_UNIT ( 'INCH', #164 ) LENGTH_UNIT ( ) NAMED_UNIT ( #273 ) );
#330 = DIRECTION ( 'NONE',  ( -0.000000000000000000, -1.000000000000000000, -0.000000000000000000 ) ) ;
#331 = EDGE_CURVE ( 'NONE', #343, #372, #26, .T. ) ;
#332 = DIRECTION ( 'NONE',  ( -0.000000000000000000, -1.000000000000000000, -0.000000000000000000 ) ) ;
#333 = MECHANICAL_DESIGN_GEOMETRIC_PRESENTATION_REPRESENTATION (  '', ( #285 ), #52 ) ;
#334 = PRESENTATION_STYLE_ASSIGNMENT (( #361 ) ) ;
#335 = ORIENTED_EDGE ( 'NONE', *, *, #136, .F. ) ;
#336 = ORIENTED_EDGE ( 'NONE', *, *, #39, .F. ) ;
#337 = CLOSED_SHELL ( 'NONE', ( #41, #303, #269, #310 ) ) ;
#338 = PRESENTATION_LAYER_ASSIGNMENT (  '', '', ( #285 ) ) ;
#339 = DIRECTION ( 'NONE',  ( 0.000000000000000000, 0.000000000000000000, -1.000000000000000000 ) ) ;
#340 = CARTESIAN_POINT ( 'NONE',  ( -0.2499999999999998057, 4.000000000000000000, 0.000000000000000000 ) ) ;
#341 = DIRECTION ( 'NONE',  ( -1.000000000000000000, 0.000000000000000000, 0.000000000000000000 ) ) ;
#342 = EDGE_CURVE ( 'NONE', #230, #175, #65, .T. ) ;
#343 = VERTEX_POINT ( 'NONE', #312 ) ;
#344 = PRESENTATION_STYLE_ASSIGNMENT (( #239 ) ) ;
#345 =( GEOMETRIC_REPRESENTATION_CONTEXT ( 3 ) GLOBAL_UNCERTAINTY_ASSIGNED_CONTEXT ( ( #38 ) ) GLOBAL_UNIT_ASSIGNED_CONTEXT ( ( #329, #71, #300 ) ) REPRESENTATION_CONTEXT ( 'NONE', 'WORKASPACE' ) );
#346 =( LENGTH_UNIT ( ) NAMED_UNIT ( * ) SI_UNIT ( $, .METRE. ) );
#347 = PRESENTATION_LAYER_ASSIGNMENT (  '', '', ( #167 ) ) ;
#348 = DIRECTION ( 'NONE',  ( 1.000000000000000000, 1.530808498934191571E-16, 0.000000000000000000 ) ) ;
#349 = UNCERTAINTY_MEASURE_WITH_UNIT (LENGTH_MEASURE( 1.000000000000000082E-05 ), #132, 'distance_accuracy_value', 'NONE');
#350 = SPHERICAL_SURFACE ( 'NONE', #356, 0.2500000000000000000 ) ;
#351 = FACE_OUTER_BOUND ( 'NONE', #120, .T. ) ;
#352 = FILL_AREA_STYLE ('',( #158 ) ) ;
#353 = DIRECTION ( 'NONE',  ( 0.000000000000000000, 0.000000000000000000, -1.000000000000000000 ) ) ;
#354 = SURFACE_SIDE_STYLE ('',( #64 ) ) ;
#355 = CARTESIAN_POINT ( 'NONE',  ( 3.061616997868383018E-17, 0.2500000000000000555, 0.2499999999999999722 ) ) ;
#356 = AXIS2_PLACEMENT_3D ( 'NONE', #166, #135, #241 ) ;
#357 =( CONVERSION_BASED_UNIT ( 'INCH', #108 ) LENGTH_UNIT ( ) NAMED_UNIT ( #19 ) );
#358 =( NAMED_UNIT ( * ) PLANE_ANGLE_UNIT ( ) SI_UNIT ( $, .RADIAN. ) );
#359 =( NAMED_UNIT ( * ) SI_UNIT ( $, .STERADIAN. ) SOLID_ANGLE_UNIT ( ) );
#360 = CARTESIAN_POINT ( 'NONE',  ( 0.000000000000000000, 2.000000000000000000, 0.000000000000000000 ) ) ;
#361 = SURFACE_STYLE_USAGE ( .BOTH. , #287 ) ;
#362 = STYLED_ITEM ( 'NONE', ( #99 ), #106 ) ;
#363 = CIRCLE ( 'NONE', #60, 0.2499999999999998890 ) ;
#364 = ORIENTED_EDGE ( 'NONE', *, *, #39, .T. ) ;
#365 =( NAMED_UNIT ( * ) PLANE_ANGLE_UNIT ( ) SI_UNIT ( $, .RADIAN. ) );
#366 = VERTEX_POINT ( 'NONE', #238 ) ;
#367 =( CONVERSION_BASED_UNIT ( 'INCH', #252 ) LENGTH_UNIT ( ) NAMED_UNIT ( #307 ) );
#368 = ORIENTED_EDGE ( 'NONE', *, *, #249, .T. ) ;
#369 =( NAMED_UNIT ( * ) SI_UNIT ( $, .STERADIAN. ) SOLID_ANGLE_UNIT ( ) );
#370 = UNCERTAINTY_MEASURE_WITH_UNIT (LENGTH_MEASURE( 1.000000000000000082E-05 ), #357, 'distance_accuracy_value', 'NONE');
#371 = CIRCLE ( 'NONE', #270, 0.2499999999999995282 ) ;
#372 = VERTEX_POINT ( 'NONE', #94 ) ;
#373 = APPLICATION_PROTOCOL_DEFINITION ( 'draft international standard', 'automotive_design', 1998, #257 ) ;
ENDSEC;
END-ISO-10303-21;
