ISO-10303-21;
HEADER;
FILE_DESCRIPTION (( 'STEP AP214' ),
    '1' );
FILE_NAME ('Micro_RTC-250-160.STEP',
    '2021-09-03T18:09:40',
    ( '' ),
    ( '' ),
    'SwSTEP 2.0',
    'SolidWorks 2020',
    '' );
FILE_SCHEMA (( 'AUTOMOTIVE_DESIGN' ));
ENDSEC;

DATA;
#1 = CONICAL_SURFACE ( 'NONE', #102, 0.1100000000000001948, 0.7853981633974517207 ) ;
#2 = CARTESIAN_POINT ( 'NONE',  ( -0.1100000000000001948, 0.0000000000000000000, 2.500000000000000000 ) ) ;
#3 =( LENGTH_UNIT ( ) NAMED_UNIT ( * ) SI_UNIT ( $, .METRE. ) );
#4 = LINE ( 'NONE', #36, #214 ) ;
#5 =( LENGTH_UNIT ( ) NAMED_UNIT ( * ) SI_UNIT ( $, .METRE. ) );
#6 = VERTEX_POINT ( 'NONE', #199 ) ;
#7 = EDGE_LOOP ( 'NONE', ( #118, #221, #101, #100 ) ) ;
#8 = ORIENTED_EDGE ( 'NONE', *, *, #143, .T. ) ;
#9 = LINE ( 'NONE', #177, #66 ) ;
#10 = CIRCLE ( 'NONE', #133, 0.1100000000000001948 ) ;
#11 = ORIENTED_EDGE ( 'NONE', *, *, #97, .T. ) ;
#12 = MECHANICAL_DESIGN_GEOMETRIC_PRESENTATION_REPRESENTATION (  '', ( #217 ), #108 ) ;
#13 = DIRECTION ( 'NONE',  ( -1.000000000000000000, 0.0000000000000000000, 0.0000000000000000000 ) ) ;
#14 = CARTESIAN_POINT ( 'NONE',  ( 0.0000000000000000000, 0.0000000000000000000, 2.485000000000000320 ) ) ;
#15 = FILL_AREA_STYLE_COLOUR ( '', #54 ) ;
#16 = FACE_OUTER_BOUND ( 'NONE', #238, .T. ) ;
#17 = CARTESIAN_POINT ( 'NONE',  ( -0.02999999999999999889, 9.491012693391986370E-18, 0.0000000000000000000 ) ) ;
#18 = CLOSED_SHELL ( 'NONE', ( #92, #160, #95, #91, #173, #43, #165, #215 ) ) ;
#19 = VECTOR ( 'NONE', #124, 39.37007874015748143 ) ;
#20 = FACE_OUTER_BOUND ( 'NONE', #235, .T. ) ;
#21 = DIRECTION ( 'NONE',  ( 1.000000000000000000, 0.0000000000000000000, 0.0000000000000000000 ) ) ;
#22 = ORIENTED_EDGE ( 'NONE', *, *, #191, .T. ) ;
#23 = EDGE_LOOP ( 'NONE', ( #220, #134, #200, #117 ) ) ;
#24 = ORIENTED_EDGE ( 'NONE', *, *, #74, .F. ) ;
#25 = ORIENTED_EDGE ( 'NONE', *, *, #143, .F. ) ;
#26 = CARTESIAN_POINT ( 'NONE',  ( -0.1250000000000000000, 0.0000000000000000000, 2.485000000000000320 ) ) ;
#27 = DIRECTION ( 'NONE',  ( 0.7071067811865499042, 8.659560562354961208E-17, -0.7071067811865451302 ) ) ;
#28 = AXIS2_PLACEMENT_3D ( 'NONE', #119, #161, #202 ) ;
#29 = LENGTH_MEASURE_WITH_UNIT ( LENGTH_MEASURE( 0.02539999999999999897 ), #123 );
#30 = AXIS2_PLACEMENT_3D ( 'NONE', #130, #107, #109 ) ;
#31 = UNCERTAINTY_MEASURE_WITH_UNIT (LENGTH_MEASURE( 1.000000000000000082E-05 ), #51, 'distance_accuracy_value', 'NONE');
#32 = CARTESIAN_POINT ( 'NONE',  ( 0.0000000000000000000, 0.0000000000000000000, 0.0000000000000000000 ) ) ;
#33 =( NAMED_UNIT ( * ) PLANE_ANGLE_UNIT ( ) SI_UNIT ( $, .RADIAN. ) );
#34 = DIRECTION ( 'NONE',  ( 0.0000000000000000000, 0.0000000000000000000, 1.000000000000000000 ) ) ;
#35 = AXIS2_PLACEMENT_3D ( 'NONE', #90, #231, #172 ) ;
#36 = CARTESIAN_POINT ( 'NONE',  ( 0.02999999999999999889, 0.0000000000000000000, 0.0000000000000000000 ) ) ;
#37 = ORIENTED_EDGE ( 'NONE', *, *, #114, .T. ) ;
#38 = SHAPE_DEFINITION_REPRESENTATION ( #232, #42 ) ;
#39 = ORIENTED_EDGE ( 'NONE', *, *, #97, .F. ) ;
#40 = ORIENTED_EDGE ( 'NONE', *, *, #81, .F. ) ;
#41 = DIRECTION ( 'NONE',  ( 1.000000000000000000, 0.0000000000000000000, 0.0000000000000000000 ) ) ;
#42 = ADVANCED_BREP_SHAPE_REPRESENTATION ( 'Micro_RTC-250-160', ( #113, #152 ), #58 ) ;
#43 = ADVANCED_FACE ( 'NONE', ( #77 ), #154, .T. ) ;
#44 = EDGE_CURVE ( 'NONE', #174, #218, #9, .T. ) ;
#45 = DIRECTION ( 'NONE',  ( 0.0000000000000000000, 0.0000000000000000000, -1.000000000000000000 ) ) ;
#46 = PRESENTATION_LAYER_ASSIGNMENT (  '', '', ( #217 ) ) ;
#47 = DIRECTION ( 'NONE',  ( -1.000000000000000000, 0.0000000000000000000, 0.0000000000000000000 ) ) ;
#48 = EDGE_CURVE ( 'NONE', #82, #174, #216, .T. ) ;
#49 = DIRECTION ( 'NONE',  ( -1.000000000000000000, 0.0000000000000000000, 0.0000000000000000000 ) ) ;
#50 = DIRECTION ( 'NONE',  ( -0.0000000000000000000, -0.0000000000000000000, -1.000000000000000000 ) ) ;
#51 =( CONVERSION_BASED_UNIT ( 'INCH', #29 ) LENGTH_UNIT ( ) NAMED_UNIT ( #110 ) );
#52 = AXIS2_PLACEMENT_3D ( 'NONE', #106, #88, #105 ) ;
#53 = FACE_OUTER_BOUND ( 'NONE', #179, .T. ) ;
#54 = COLOUR_RGB ( '',0.7921568627450980005, 0.8196078431372548767, 0.9333333333333333481 ) ;
#55 = FILL_AREA_STYLE_COLOUR ( '', #234 ) ;
#56 = AXIS2_PLACEMENT_3D ( 'NONE', #222, #145, #13 ) ;
#57 = PRODUCT ( 'Micro_RTC-250-160', 'Micro_RTC-250-160', '', ( #115 ) ) ;
#58 =( GEOMETRIC_REPRESENTATION_CONTEXT ( 3 ) GLOBAL_UNCERTAINTY_ASSIGNED_CONTEXT ( ( #189 ) ) GLOBAL_UNIT_ASSIGNED_CONTEXT ( ( #71, #33, #192 ) ) REPRESENTATION_CONTEXT ( 'NONE', 'WORKASPACE' ) );
#59 = EDGE_LOOP ( 'NONE', ( #25, #39, #176, #98 ) ) ;
#60 = ORIENTED_EDGE ( 'NONE', *, *, #245, .F. ) ;
#61 = VERTEX_POINT ( 'NONE', #156 ) ;
#62 = CARTESIAN_POINT ( 'NONE',  ( 0.0000000000000000000, 0.0000000000000000000, 2.485000000000000320 ) ) ;
#63 = CYLINDRICAL_SURFACE ( 'NONE', #56, 0.1250000000000000000 ) ;
#64 = AXIS2_PLACEMENT_3D ( 'NONE', #208, #164, #249 ) ;
#65 = CARTESIAN_POINT ( 'NONE',  ( -0.1100000000000001948, 0.0000000000000000000, 2.500000000000000000 ) ) ;
#66 = VECTOR ( 'NONE', #239, 39.37007874015748143 ) ;
#67 = CARTESIAN_POINT ( 'NONE',  ( -0.1250000000000000000, 0.0000000000000000000, 0.3545448267190419167 ) ) ;
#68 = DIRECTION ( 'NONE',  ( -0.2588190451025216832, 3.169619151431776035E-17, 0.9659258262890679791 ) ) ;
#69 = CONICAL_SURFACE ( 'NONE', #64, 0.02999999999999999889, 0.2617993877991502960 ) ;
#70 = DIRECTION ( 'NONE',  ( -0.7071067811865499042, 0.0000000000000000000, -0.7071067811865451302 ) ) ;
#71 =( CONVERSION_BASED_UNIT ( 'INCH', #128 ) LENGTH_UNIT ( ) NAMED_UNIT ( #195 ) );
#72 = DIRECTION ( 'NONE',  ( 0.0000000000000000000, 0.0000000000000000000, 1.000000000000000000 ) ) ;
#73 =( CONVERSION_BASED_UNIT ( 'INCH', #96 ) LENGTH_UNIT ( ) NAMED_UNIT ( #135 ) );
#74 = EDGE_CURVE ( 'NONE', #6, #174, #204, .T. ) ;
#75 = ORIENTED_EDGE ( 'NONE', *, *, #48, .T. ) ;
#76 = AXIS2_PLACEMENT_3D ( 'NONE', #62, #139, #41 ) ;
#77 = FACE_OUTER_BOUND ( 'NONE', #157, .T. ) ;
#78 = CARTESIAN_POINT ( 'NONE',  ( 0.0000000000000000000, 0.0000000000000000000, 0.0000000000000000000 ) ) ;
#79 = DIRECTION ( 'NONE',  ( 0.0000000000000000000, 0.0000000000000000000, 1.000000000000000000 ) ) ;
#80 = ORIENTED_EDGE ( 'NONE', *, *, #148, .T. ) ;
#81 = EDGE_CURVE ( 'NONE', #103, #6, #162, .T. ) ;
#82 = VERTEX_POINT ( 'NONE', #26 ) ;
#83 = CARTESIAN_POINT ( 'NONE',  ( 0.0000000000000000000, 0.0000000000000000000, 0.0000000000000000000 ) ) ;
#84 = DIRECTION ( 'NONE',  ( 0.0000000000000000000, 0.0000000000000000000, -1.000000000000000000 ) ) ;
#85 = AXIS2_PLACEMENT_3D ( 'NONE', #211, #72, #168 ) ;
#86 = CARTESIAN_POINT ( 'NONE',  ( -0.02999999999999999889, 3.673940397442059190E-18, 0.0000000000000000000 ) ) ;
#87 =( NAMED_UNIT ( * ) SI_UNIT ( $, .STERADIAN. ) SOLID_ANGLE_UNIT ( ) );
#88 = DIRECTION ( 'NONE',  ( -0.0000000000000000000, -0.0000000000000000000, -1.000000000000000000 ) ) ;
#89 = CIRCLE ( 'NONE', #223, 0.02999999999999999889 ) ;
#90 = CARTESIAN_POINT ( 'NONE',  ( 0.0000000000000000000, 0.0000000000000000000, 0.3545448267190419167 ) ) ;
#91 = ADVANCED_FACE ( 'NONE', ( #240 ), #63, .T. ) ;
#92 = ADVANCED_FACE ( 'NONE', ( #207 ), #185, .T. ) ;
#93 = SURFACE_SIDE_STYLE ('',( #194 ) ) ;
#94 = VECTOR ( 'NONE', #70, 39.37007874015748143 ) ;
#95 = ADVANCED_FACE ( 'NONE', ( #16 ), #184, .T. ) ;
#96 = LENGTH_MEASURE_WITH_UNIT ( LENGTH_MEASURE( 0.02539999999999999897 ), #5 );
#97 = EDGE_CURVE ( 'NONE', #61, #140, #210, .T. ) ;
#98 = ORIENTED_EDGE ( 'NONE', *, *, #241, .T. ) ;
#99 = ORIENTED_EDGE ( 'NONE', *, *, #81, .T. ) ;
#100 = ORIENTED_EDGE ( 'NONE', *, *, #148, .F. ) ;
#101 = ORIENTED_EDGE ( 'NONE', *, *, #48, .F. ) ;
#102 = AXIS2_PLACEMENT_3D ( 'NONE', #126, #209, #49 ) ;
#103 = VERTEX_POINT ( 'NONE', #65 ) ;
#104 = SURFACE_SIDE_STYLE ('',( #229 ) ) ;
#105 = DIRECTION ( 'NONE',  ( -1.000000000000000000, 0.0000000000000000000, 0.0000000000000000000 ) ) ;
#106 = CARTESIAN_POINT ( 'NONE',  ( 0.0000000000000000000, 0.0000000000000000000, 2.500000000000000000 ) ) ;
#107 = DIRECTION ( 'NONE',  ( 0.0000000000000000000, 0.0000000000000000000, 1.000000000000000000 ) ) ;
#108 =( GEOMETRIC_REPRESENTATION_CONTEXT ( 3 ) GLOBAL_UNCERTAINTY_ASSIGNED_CONTEXT ( ( #31 ) ) GLOBAL_UNIT_ASSIGNED_CONTEXT ( ( #51, #144, #87 ) ) REPRESENTATION_CONTEXT ( 'NONE', 'WORKASPACE' ) );
#109 = DIRECTION ( 'NONE',  ( 1.000000000000000000, 0.0000000000000000000, -0.0000000000000000000 ) ) ;
#110 = DIMENSIONAL_EXPONENTS ( 1.000000000000000000, 0.0000000000000000000, 0.0000000000000000000, 0.0000000000000000000, 0.0000000000000000000, 0.0000000000000000000, 0.0000000000000000000 ) ;
#111 = FILL_AREA_STYLE ('',( #55 ) ) ;
#112 =( GEOMETRIC_REPRESENTATION_CONTEXT ( 3 ) GLOBAL_UNCERTAINTY_ASSIGNED_CONTEXT ( ( #122 ) ) GLOBAL_UNIT_ASSIGNED_CONTEXT ( ( #73, #151, #132 ) ) REPRESENTATION_CONTEXT ( 'NONE', 'WORKASPACE' ) );
#113 = MANIFOLD_SOLID_BREP ( 'Cut-Revolve1', #18 ) ;
#114 = EDGE_CURVE ( 'NONE', #153, #218, #212, .T. ) ;
#115 = PRODUCT_CONTEXT ( 'NONE', #169, 'mechanical' ) ;
#116 = ORIENTED_EDGE ( 'NONE', *, *, #137, .F. ) ;
#117 = ORIENTED_EDGE ( 'NONE', *, *, #241, .F. ) ;
#118 = ORIENTED_EDGE ( 'NONE', *, *, #191, .F. ) ;
#119 = CARTESIAN_POINT ( 'NONE',  ( 0.0000000000000000000, 0.0000000000000000000, 2.500000000000000000 ) ) ;
#120 = STYLED_ITEM ( 'NONE', ( #150 ), #42 ) ;
#121 = ORIENTED_EDGE ( 'NONE', *, *, #166, .T. ) ;
#122 = UNCERTAINTY_MEASURE_WITH_UNIT (LENGTH_MEASURE( 1.000000000000000082E-05 ), #73, 'distance_accuracy_value', 'NONE');
#123 =( LENGTH_UNIT ( ) NAMED_UNIT ( * ) SI_UNIT ( $, .METRE. ) );
#124 = DIRECTION ( 'NONE',  ( -0.0000000000000000000, -0.0000000000000000000, -1.000000000000000000 ) ) ;
#125 = FACE_OUTER_BOUND ( 'NONE', #59, .T. ) ;
#126 = CARTESIAN_POINT ( 'NONE',  ( 0.0000000000000000000, 0.0000000000000000000, 2.500000000000000000 ) ) ;
#127 = EDGE_CURVE ( 'NONE', #174, #82, #197, .T. ) ;
#128 = LENGTH_MEASURE_WITH_UNIT ( LENGTH_MEASURE( 0.02539999999999999897 ), #3 );
#129 = MECHANICAL_DESIGN_GEOMETRIC_PRESENTATION_REPRESENTATION (  '', ( #120 ), #112 ) ;
#130 = CARTESIAN_POINT ( 'NONE',  ( 0.0000000000000000000, 0.0000000000000000000, 0.0000000000000000000 ) ) ;
#131 = CARTESIAN_POINT ( 'NONE',  ( 0.1250000000000000000, 1.530808498934191509E-17, 0.3545448267190419167 ) ) ;
#132 =( NAMED_UNIT ( * ) SI_UNIT ( $, .STERADIAN. ) SOLID_ANGLE_UNIT ( ) );
#133 = AXIS2_PLACEMENT_3D ( 'NONE', #170, #34, #21 ) ;
#134 = ORIENTED_EDGE ( 'NONE', *, *, #127, .T. ) ;
#135 = DIMENSIONAL_EXPONENTS ( 1.000000000000000000, 0.0000000000000000000, 0.0000000000000000000, 0.0000000000000000000, 0.0000000000000000000, 0.0000000000000000000, 0.0000000000000000000 ) ;
#136 = EDGE_LOOP ( 'NONE', ( #201, #8, #37, #60 ) ) ;
#137 = EDGE_CURVE ( 'NONE', #82, #153, #246, .T. ) ;
#138 = ORIENTED_EDGE ( 'NONE', *, *, #114, .F. ) ;
#139 = DIRECTION ( 'NONE',  ( 0.0000000000000000000, 0.0000000000000000000, -1.000000000000000000 ) ) ;
#140 = VERTEX_POINT ( 'NONE', #17 ) ;
#141 = DIRECTION ( 'NONE',  ( 1.000000000000000000, 0.0000000000000000000, 0.0000000000000000000 ) ) ;
#142 = PRESENTATION_STYLE_ASSIGNMENT (( #227 ) ) ;
#143 = EDGE_CURVE ( 'NONE', #140, #153, #248, .T. ) ;
#144 =( NAMED_UNIT ( * ) PLANE_ANGLE_UNIT ( ) SI_UNIT ( $, .RADIAN. ) );
#145 = DIRECTION ( 'NONE',  ( -0.0000000000000000000, -0.0000000000000000000, -1.000000000000000000 ) ) ;
#146 = AXIS2_PLACEMENT_3D ( 'NONE', #186, #50, #47 ) ;
#147 = DIRECTION ( 'NONE',  ( -0.0000000000000000000, -0.0000000000000000000, -1.000000000000000000 ) ) ;
#148 = EDGE_CURVE ( 'NONE', #103, #82, #163, .T. ) ;
#149 = PLANE ( 'NONE',  #30 ) ;
#150 = PRESENTATION_STYLE_ASSIGNMENT (( #171 ) ) ;
#151 =( NAMED_UNIT ( * ) PLANE_ANGLE_UNIT ( ) SI_UNIT ( $, .RADIAN. ) );
#152 = AXIS2_PLACEMENT_3D ( 'NONE', #78, #79, #155 ) ;
#153 = VERTEX_POINT ( 'NONE', #67 ) ;
#154 = CONICAL_SURFACE ( 'NONE', #193, 0.1100000000000001948, 0.7853981633974517207 ) ;
#155 = DIRECTION ( 'NONE',  ( 1.000000000000000000, 0.0000000000000000000, 0.0000000000000000000 ) ) ;
#156 = CARTESIAN_POINT ( 'NONE',  ( 0.02999999999999999889, 0.0000000000000000000, 0.0000000000000000000 ) ) ;
#157 = EDGE_LOOP ( 'NONE', ( #24, #40, #80, #219 ) ) ;
#158 = CIRCLE ( 'NONE', #35, 0.1250000000000000000 ) ;
#159 = CARTESIAN_POINT ( 'NONE',  ( 0.0000000000000000000, 0.0000000000000000000, 2.500000000000000000 ) ) ;
#160 = ADVANCED_FACE ( 'NONE', ( #226 ), #1, .T. ) ;
#161 = DIRECTION ( 'NONE',  ( 0.0000000000000000000, 0.0000000000000000000, 1.000000000000000000 ) ) ;
#162 = CIRCLE ( 'NONE', #28, 0.1100000000000001948 ) ;
#163 = LINE ( 'NONE', #2, #94 ) ;
#164 = DIRECTION ( 'NONE',  ( 0.0000000000000000000, 0.0000000000000000000, 1.000000000000000000 ) ) ;
#165 = ADVANCED_FACE ( 'NONE', ( #125 ), #69, .T. ) ;
#166 = EDGE_CURVE ( 'NONE', #140, #61, #89, .T. ) ;
#167 = PRODUCT_DEFINITION_FORMATION_WITH_SPECIFIED_SOURCE ( 'ANY', '', #57, .NOT_KNOWN. ) ;
#168 = DIRECTION ( 'NONE',  ( 1.000000000000000000, 0.0000000000000000000, -0.0000000000000000000 ) ) ;
#169 = APPLICATION_CONTEXT ( 'automotive_design' ) ;
#170 = CARTESIAN_POINT ( 'NONE',  ( 0.0000000000000000000, 0.0000000000000000000, 2.500000000000000000 ) ) ;
#171 = SURFACE_STYLE_USAGE ( .BOTH. , #93 ) ;
#172 = DIRECTION ( 'NONE',  ( -1.000000000000000000, 0.0000000000000000000, 0.0000000000000000000 ) ) ;
#173 = ADVANCED_FACE ( 'NONE', ( #53 ), #198, .T. ) ;
#174 = VERTEX_POINT ( 'NONE', #213 ) ;
#175 = AXIS2_PLACEMENT_3D ( 'NONE', #83, #243, #141 ) ;
#176 = ORIENTED_EDGE ( 'NONE', *, *, #245, .T. ) ;
#177 = CARTESIAN_POINT ( 'NONE',  ( 0.1250000000000000000, 1.530808498934191509E-17, 2.500000000000000000 ) ) ;
#178 = APPLICATION_PROTOCOL_DEFINITION ( 'draft international standard', 'automotive_design', 1998, #230 ) ;
#179 = EDGE_LOOP ( 'NONE', ( #99, #22 ) ) ;
#180 = DIRECTION ( 'NONE',  ( -1.000000000000000000, 0.0000000000000000000, 0.0000000000000000000 ) ) ;
#181 = VECTOR ( 'NONE', #68, 39.37007874015748143 ) ;
#182 = PRODUCT_DEFINITION_CONTEXT ( 'detailed design', #230, 'design' ) ;
#183 = ORIENTED_EDGE ( 'NONE', *, *, #44, .T. ) ;
#184 = CYLINDRICAL_SURFACE ( 'NONE', #52, 0.1250000000000000000 ) ;
#185 = CONICAL_SURFACE ( 'NONE', #175, 0.02999999999999999889, 0.2617993877991502960 ) ;
#186 = CARTESIAN_POINT ( 'NONE',  ( 0.0000000000000000000, 0.0000000000000000000, 0.3545448267190419167 ) ) ;
#187 = DIRECTION ( 'NONE',  ( 1.000000000000000000, 0.0000000000000000000, 0.0000000000000000000 ) ) ;
#188 = CARTESIAN_POINT ( 'NONE',  ( -0.1250000000000000000, 0.0000000000000000000, 2.500000000000000000 ) ) ;
#189 = UNCERTAINTY_MEASURE_WITH_UNIT (LENGTH_MEASURE( 1.000000000000000082E-05 ), #71, 'distance_accuracy_value', 'NONE');
#190 = DIRECTION ( 'NONE',  ( 0.2588190451025216832, 0.0000000000000000000, 0.9659258262890679791 ) ) ;
#191 = EDGE_CURVE ( 'NONE', #6, #103, #10, .T. ) ;
#192 =( NAMED_UNIT ( * ) SI_UNIT ( $, .STERADIAN. ) SOLID_ANGLE_UNIT ( ) );
#193 = AXIS2_PLACEMENT_3D ( 'NONE', #159, #45, #180 ) ;
#194 = SURFACE_STYLE_FILL_AREA ( #111 ) ;
#195 = DIMENSIONAL_EXPONENTS ( 1.000000000000000000, 0.0000000000000000000, 0.0000000000000000000, 0.0000000000000000000, 0.0000000000000000000, 0.0000000000000000000, 0.0000000000000000000 ) ;
#196 = APPLICATION_PROTOCOL_DEFINITION ( 'draft international standard', 'automotive_design', 1998, #169 ) ;
#197 = CIRCLE ( 'NONE', #203, 0.1250000000000000000 ) ;
#198 = PLANE ( 'NONE',  #85 ) ;
#199 = CARTESIAN_POINT ( 'NONE',  ( 0.1100000000000001948, 1.438959988998141146E-17, 2.500000000000000000 ) ) ;
#200 = ORIENTED_EDGE ( 'NONE', *, *, #137, .T. ) ;
#201 = ORIENTED_EDGE ( 'NONE', *, *, #166, .F. ) ;
#202 = DIRECTION ( 'NONE',  ( 1.000000000000000000, 0.0000000000000000000, 0.0000000000000000000 ) ) ;
#203 = AXIS2_PLACEMENT_3D ( 'NONE', #14, #84, #187 ) ;
#204 = LINE ( 'NONE', #237, #247 ) ;
#205 = CARTESIAN_POINT ( 'NONE',  ( 0.0000000000000000000, 0.0000000000000000000, 0.0000000000000000000 ) ) ;
#206 = DIRECTION ( 'NONE',  ( -1.000000000000000000, 0.0000000000000000000, 0.0000000000000000000 ) ) ;
#207 = FACE_OUTER_BOUND ( 'NONE', #136, .T. ) ;
#208 = CARTESIAN_POINT ( 'NONE',  ( 0.0000000000000000000, 0.0000000000000000000, 0.0000000000000000000 ) ) ;
#209 = DIRECTION ( 'NONE',  ( 0.0000000000000000000, 0.0000000000000000000, -1.000000000000000000 ) ) ;
#210 = CIRCLE ( 'NONE', #228, 0.02999999999999999889 ) ;
#211 = CARTESIAN_POINT ( 'NONE',  ( 0.0000000000000000000, 0.0000000000000000000, 2.500000000000000000 ) ) ;
#212 = CIRCLE ( 'NONE', #146, 0.1250000000000000000 ) ;
#213 = CARTESIAN_POINT ( 'NONE',  ( 0.1250000000000000000, 1.530808498934191509E-17, 2.485000000000000320 ) ) ;
#214 = VECTOR ( 'NONE', #190, 39.37007874015748143 ) ;
#215 = ADVANCED_FACE ( 'NONE', ( #20 ), #149, .F. ) ;
#216 = CIRCLE ( 'NONE', #76, 0.1250000000000000000 ) ;
#217 = STYLED_ITEM ( 'NONE', ( #142 ), #113 ) ;
#218 = VERTEX_POINT ( 'NONE', #131 ) ;
#219 = ORIENTED_EDGE ( 'NONE', *, *, #127, .F. ) ;
#220 = ORIENTED_EDGE ( 'NONE', *, *, #44, .F. ) ;
#221 = ORIENTED_EDGE ( 'NONE', *, *, #74, .T. ) ;
#222 = CARTESIAN_POINT ( 'NONE',  ( 0.0000000000000000000, 0.0000000000000000000, 2.500000000000000000 ) ) ;
#223 = AXIS2_PLACEMENT_3D ( 'NONE', #32, #147, #233 ) ;
#224 = DIRECTION ( 'NONE',  ( -0.0000000000000000000, -0.0000000000000000000, -1.000000000000000000 ) ) ;
#225 = FILL_AREA_STYLE ('',( #15 ) ) ;
#226 = FACE_OUTER_BOUND ( 'NONE', #7, .T. ) ;
#227 = SURFACE_STYLE_USAGE ( .BOTH. , #104 ) ;
#228 = AXIS2_PLACEMENT_3D ( 'NONE', #205, #224, #206 ) ;
#229 = SURFACE_STYLE_FILL_AREA ( #225 ) ;
#230 = APPLICATION_CONTEXT ( 'automotive_design' ) ;
#231 = DIRECTION ( 'NONE',  ( -0.0000000000000000000, -0.0000000000000000000, -1.000000000000000000 ) ) ;
#232 = PRODUCT_DEFINITION_SHAPE ( 'NONE', 'NONE',  #242 ) ;
#233 = DIRECTION ( 'NONE',  ( -1.000000000000000000, 0.0000000000000000000, 0.0000000000000000000 ) ) ;
#234 = COLOUR_RGB ( '',0.7921568627450980005, 0.8196078431372548767, 0.9333333333333333481 ) ;
#235 = EDGE_LOOP ( 'NONE', ( #11, #121 ) ) ;
#236 = PRODUCT_RELATED_PRODUCT_CATEGORY ( 'part', '', ( #57 ) ) ;
#237 = CARTESIAN_POINT ( 'NONE',  ( 0.1100000000000001948, 1.347111479062090784E-17, 2.500000000000000000 ) ) ;
#238 = EDGE_LOOP ( 'NONE', ( #75, #183, #138, #116 ) ) ;
#239 = DIRECTION ( 'NONE',  ( -0.0000000000000000000, -0.0000000000000000000, -1.000000000000000000 ) ) ;
#240 = FACE_OUTER_BOUND ( 'NONE', #23, .T. ) ;
#241 = EDGE_CURVE ( 'NONE', #218, #153, #158, .T. ) ;
#242 = PRODUCT_DEFINITION ( 'UNKNOWN', '', #167, #182 ) ;
#243 = DIRECTION ( 'NONE',  ( 0.0000000000000000000, 0.0000000000000000000, 1.000000000000000000 ) ) ;
#244 = PRESENTATION_LAYER_ASSIGNMENT (  '', '', ( #120 ) ) ;
#245 = EDGE_CURVE ( 'NONE', #61, #218, #4, .T. ) ;
#246 = LINE ( 'NONE', #188, #19 ) ;
#247 = VECTOR ( 'NONE', #27, 39.37007874015748143 ) ;
#248 = LINE ( 'NONE', #86, #181 ) ;
#249 = DIRECTION ( 'NONE',  ( 1.000000000000000000, 0.0000000000000000000, 0.0000000000000000000 ) ) ;
ENDSEC;
END-ISO-10303-21;
