ISO-10303-21;
HEADER;
FILE_DESCRIPTION (( 'STEP AP214' ),
    '1' );
FILE_NAME ('81367.STEP',
    '2023-06-23T00:45:41',
    ( '' ),
    ( '' ),
    'SwSTEP 2.0',
    'SolidWorks 2023',
    '' );
FILE_SCHEMA (( 'AUTOMOTIVE_DESIGN' ));
ENDSEC;

DATA;
#1 =( LENGTH_UNIT ( ) NAMED_UNIT ( * ) SI_UNIT ( $, .METRE. ) );
#2 =( NAMED_UNIT ( * ) SI_UNIT ( $, .STERADIAN. ) SOLID_ANGLE_UNIT ( ) );
#3 = DIRECTION ( 'NONE',  ( -1.000000000000000000, 0.000000000000000000, 0.000000000000000000 ) ) ;
#4 =( LENGTH_UNIT ( ) NAMED_UNIT ( * ) SI_UNIT ( $, .METRE. ) );
#5 = CYLINDRICAL_SURFACE ( 'NONE', #14, 0.1250000000000000000 ) ;
#6 = CARTESIAN_POINT ( 'NONE',  ( 0.1250000000000000000, 3.000000000000000444, 1.530808498934192125E-17 ) ) ;
#7 = CIRCLE ( 'NONE', #174, 0.1250000000000001110 ) ;
#8 = CLOSED_SHELL ( 'NONE', ( #261, #94, #129, #96 ) ) ;
#9 = FILL_AREA_STYLE_COLOUR ( '', #125 ) ;
#10 = ORIENTED_EDGE ( 'NONE', *, *, #171, .T. ) ;
#11 = EDGE_LOOP ( 'NONE', ( #196, #189 ) ) ;
#12 = CARTESIAN_POINT ( 'NONE',  ( -0.1250000000000000278, 1.500000000000000222, 0.000000000000000000 ) ) ;
#13 = CARTESIAN_POINT ( 'NONE',  ( 0.000000000000000000, 1.500000000000000222, -0.1250000000000000278 ) ) ;
#14 = AXIS2_PLACEMENT_3D ( 'NONE', #258, #164, #213 ) ;
#15 = EDGE_CURVE ( 'NONE', #149, #256, #109, .T. ) ;
#16 =( GEOMETRIC_REPRESENTATION_CONTEXT ( 3 ) GLOBAL_UNCERTAINTY_ASSIGNED_CONTEXT ( ( #177 ) ) GLOBAL_UNIT_ASSIGNED_CONTEXT ( ( #194, #284, #59 ) ) REPRESENTATION_CONTEXT ( 'NONE', 'WORKASPACE' ) );
#17 = SURFACE_STYLE_USAGE ( .BOTH. , #199 ) ;
#18 = CARTESIAN_POINT ( 'NONE',  ( -0.1250000000000001665, 3.000000000000000444, 0.000000000000000000 ) ) ;
#19 = COLOUR_RGB ( '',1.000000000000000000, 0.000000000000000000, 0.000000000000000000 ) ;
#20 = PRODUCT_DEFINITION_FORMATION_WITH_SPECIFIED_SOURCE ( 'ANY', '', #62, .NOT_KNOWN. ) ;
#21 = DIRECTION ( 'NONE',  ( -0.000000000000000000, -1.000000000000000000, -0.000000000000000000 ) ) ;
#22 = CARTESIAN_POINT ( 'NONE',  ( 7.582401355855259480E-33, 1.500000000000000222, 0.000000000000000000 ) ) ;
#23 = DIMENSIONAL_EXPONENTS ( 1.000000000000000000, 0.000000000000000000, 0.000000000000000000, 0.000000000000000000, 0.000000000000000000, 0.000000000000000000, 0.000000000000000000 ) ;
#24 = FILL_AREA_STYLE ('',( #300 ) ) ;
#25 = CARTESIAN_POINT ( 'NONE',  ( 1.530808498934191509E-17, 0.000000000000000000, 0.1250000000000000000 ) ) ;
#26 = LENGTH_MEASURE_WITH_UNIT ( LENGTH_MEASURE( 0.02539999999999999897 ), #1 );
#27 = EDGE_CURVE ( 'NONE', #256, #149, #42, .T. ) ;
#28 = LENGTH_MEASURE_WITH_UNIT ( LENGTH_MEASURE( 0.02539999999999999897 ), #92 );
#29 = SURFACE_STYLE_USAGE ( .BOTH. , #233 ) ;
#30 = EDGE_LOOP ( 'NONE', ( #104, #10 ) ) ;
#31 = VERTEX_POINT ( 'NONE', #211 ) ;
#32 = SURFACE_STYLE_USAGE ( .BOTH. , #50 ) ;
#33 = ORIENTED_EDGE ( 'NONE', *, *, #272, .T. ) ;
#34 = DIRECTION ( 'NONE',  ( -0.000000000000000000, -1.000000000000000000, -0.000000000000000000 ) ) ;
#35 = DIRECTION ( 'NONE',  ( 0.000000000000000000, 1.000000000000000000, 0.000000000000000000 ) ) ;
#36 = CIRCLE ( 'NONE', #65, 0.1250000000000000278 ) ;
#37 = DIRECTION ( 'NONE',  ( 0.000000000000000000, -0.000000000000000000, 1.000000000000000000 ) ) ;
#38 = UNCERTAINTY_MEASURE_WITH_UNIT (LENGTH_MEASURE( 1.000000000000000082E-05 ), #305, 'distance_accuracy_value', 'NONE');
#39 = EDGE_CURVE ( 'NONE', #31, #186, #145, .T. ) ;
#40 = PRODUCT_DEFINITION_CONTEXT ( 'detailed design', #278, 'design' ) ;
#41 = VECTOR ( 'NONE', #34, 39.37007874015748143 ) ;
#42 = CIRCLE ( 'NONE', #249, 0.1250000000000000000 ) ;
#43 = CARTESIAN_POINT ( 'NONE',  ( -6.123233995736772199E-17, 3.000000000000000444, 0.000000000000000000 ) ) ;
#44 = CARTESIAN_POINT ( 'NONE',  ( 0.000000000000000000, 0.000000000000000000, 0.000000000000000000 ) ) ;
#45 =( CONVERSION_BASED_UNIT ( 'INCH', #248 ) LENGTH_UNIT ( ) NAMED_UNIT ( #23 ) );
#46 = AXIS2_PLACEMENT_3D ( 'NONE', #244, #35, #37 ) ;
#47 = FILL_AREA_STYLE_COLOUR ( '', #179 ) ;
#48 = CYLINDRICAL_SURFACE ( 'NONE', #246, 0.1250000000000000000 ) ;
#49 = CARTESIAN_POINT ( 'NONE',  ( 1.041499849070736731E-34, 1.500000000000000222, 0.000000000000000000 ) ) ;
#50 = SURFACE_SIDE_STYLE ('',( #240 ) ) ;
#51 = VECTOR ( 'NONE', #255, 39.37007874015748143 ) ;
#52 = MECHANICAL_DESIGN_GEOMETRIC_PRESENTATION_REPRESENTATION (  '', ( #82 ), #299 ) ;
#53 = PRESENTATION_STYLE_ASSIGNMENT (( #32 ) ) ;
#54 = SURFACE_STYLE_USAGE ( .BOTH. , #271 ) ;
#55 = EDGE_LOOP ( 'NONE', ( #293, #146 ) ) ;
#56 = CARTESIAN_POINT ( 'NONE',  ( 0.1250000000000000555, 3.000000000000000444, 1.530808498934192742E-17 ) ) ;
#57 =( NAMED_UNIT ( * ) PLANE_ANGLE_UNIT ( ) SI_UNIT ( $, .RADIAN. ) );
#58 = CARTESIAN_POINT ( 'NONE',  ( 0.000000000000000000, 0.000000000000000000, 0.000000000000000000 ) ) ;
#59 =( NAMED_UNIT ( * ) SI_UNIT ( $, .STERADIAN. ) SOLID_ANGLE_UNIT ( ) );
#60 = ORIENTED_EDGE ( 'NONE', *, *, #27, .F. ) ;
#61 =( GEOMETRIC_REPRESENTATION_CONTEXT ( 3 ) GLOBAL_UNCERTAINTY_ASSIGNED_CONTEXT ( ( #198 ) ) GLOBAL_UNIT_ASSIGNED_CONTEXT ( ( #263, #188, #288 ) ) REPRESENTATION_CONTEXT ( 'NONE', 'WORKASPACE' ) );
#62 = PRODUCT ( '81367', '81367', '', ( #183 ) ) ;
#63 = LENGTH_MEASURE_WITH_UNIT ( LENGTH_MEASURE( 0.02539999999999999897 ), #193 );
#64 = PRESENTATION_STYLE_ASSIGNMENT (( #54 ) ) ;
#65 = AXIS2_PLACEMENT_3D ( 'NONE', #224, #21, #133 ) ;
#66 = FILL_AREA_STYLE_COLOUR ( '', #131 ) ;
#67 = DIRECTION ( 'NONE',  ( -0.000000000000000000, -1.000000000000000000, -0.000000000000000000 ) ) ;
#68 = DIRECTION ( 'NONE',  ( -1.000000000000000000, 0.000000000000000000, 0.000000000000000000 ) ) ;
#69 = PRESENTATION_STYLE_ASSIGNMENT (( #220 ) ) ;
#70 = ADVANCED_FACE ( 'NONE', ( #234 ), #191, .T. ) ;
#71 = PRESENTATION_LAYER_ASSIGNMENT (  '', '', ( #93 ) ) ;
#72 = DIRECTION ( 'NONE',  ( 0.000000000000000000, 0.000000000000000000, 1.000000000000000000 ) ) ;
#73 =( NAMED_UNIT ( * ) PLANE_ANGLE_UNIT ( ) SI_UNIT ( $, .RADIAN. ) );
#74 = PLANE ( 'NONE',  #147 ) ;
#75 = VERTEX_POINT ( 'NONE', #259 ) ;
#76 = ORIENTED_EDGE ( 'NONE', *, *, #15, .T. ) ;
#77 = SURFACE_STYLE_FILL_AREA ( #118 ) ;
#78 = PRODUCT_RELATED_PRODUCT_CATEGORY ( 'part', '', ( #62 ) ) ;
#79 = VERTEX_POINT ( 'NONE', #13 ) ;
#80 = CIRCLE ( 'NONE', #197, 0.1250000000000000278 ) ;
#81 = MECHANICAL_DESIGN_GEOMETRIC_PRESENTATION_REPRESENTATION (  '', ( #93 ), #16 ) ;
#82 = STYLED_ITEM ( 'NONE', ( #102 ), #261 ) ;
#83 =( NAMED_UNIT ( * ) SI_UNIT ( $, .STERADIAN. ) SOLID_ANGLE_UNIT ( ) );
#84 = DIRECTION ( 'NONE',  ( 4.082155997157848133E-17, -1.000000000000000000, 0.000000000000000000 ) ) ;
#85 = FILL_AREA_STYLE_COLOUR ( '', #19 ) ;
#86 = DIRECTION ( 'NONE',  ( -4.082155997157848133E-17, 1.000000000000000000, -0.000000000000000000 ) ) ;
#87 = EDGE_CURVE ( 'NONE', #31, #141, #243, .T. ) ;
#88 = FACE_OUTER_BOUND ( 'NONE', #11, .T. ) ;
#89 =( LENGTH_UNIT ( ) NAMED_UNIT ( * ) SI_UNIT ( $, .METRE. ) );
#90 = UNCERTAINTY_MEASURE_WITH_UNIT (LENGTH_MEASURE( 1.000000000000000082E-05 ), #265, 'distance_accuracy_value', 'NONE');
#91 =( CONVERSION_BASED_UNIT ( 'INCH', #26 ) LENGTH_UNIT ( ) NAMED_UNIT ( #106 ) );
#92 =( LENGTH_UNIT ( ) NAMED_UNIT ( * ) SI_UNIT ( $, .METRE. ) );
#93 = STYLED_ITEM ( 'NONE', ( #209 ), #129 ) ;
#94 = ADVANCED_FACE ( 'NONE', ( #285 ), #148, .T. ) ;
#95 = DIRECTION ( 'NONE',  ( 0.000000000000000000, 0.000000000000000000, -1.000000000000000000 ) ) ;
#96 = ADVANCED_FACE ( 'NONE', ( #252 ), #206, .T. ) ;
#97 = CARTESIAN_POINT ( 'NONE',  ( 0.000000000000000000, 0.000000000000000000, -0.1250000000000000000 ) ) ;
#98 = CARTESIAN_POINT ( 'NONE',  ( 7.582401355855259480E-33, 1.500000000000000222, 0.000000000000000000 ) ) ;
#99 = ORIENTED_EDGE ( 'NONE', *, *, #296, .T. ) ;
#100 = AXIS2_PLACEMENT_3D ( 'NONE', #297, #204, #268 ) ;
#101 = CARTESIAN_POINT ( 'NONE',  ( -6.123233995736772199E-17, 3.000000000000000444, 0.000000000000000000 ) ) ;
#102 = PRESENTATION_STYLE_ASSIGNMENT (( #17 ) ) ;
#103 = CYLINDRICAL_SURFACE ( 'NONE', #100, 0.1250000000000000555 ) ;
#104 = ORIENTED_EDGE ( 'NONE', *, *, #180, .T. ) ;
#105 = FACE_OUTER_BOUND ( 'NONE', #142, .T. ) ;
#106 = DIMENSIONAL_EXPONENTS ( 1.000000000000000000, 0.000000000000000000, 0.000000000000000000, 0.000000000000000000, 0.000000000000000000, 0.000000000000000000, 0.000000000000000000 ) ;
#107 = PRESENTATION_LAYER_ASSIGNMENT (  '', '', ( #230 ) ) ;
#108 = DIRECTION ( 'NONE',  ( -4.082155997157848133E-17, 1.000000000000000000, -0.000000000000000000 ) ) ;
#109 = CIRCLE ( 'NONE', #127, 0.1250000000000000000 ) ;
#110 = SURFACE_STYLE_FILL_AREA ( #202 ) ;
#111 = VERTEX_POINT ( 'NONE', #18 ) ;
#112 = DIRECTION ( 'NONE',  ( 1.000000000000000000, 4.082155997157848133E-17, 0.000000000000000000 ) ) ;
#113 =( GEOMETRIC_REPRESENTATION_CONTEXT ( 3 ) GLOBAL_UNCERTAINTY_ASSIGNED_CONTEXT ( ( #90 ) ) GLOBAL_UNIT_ASSIGNED_CONTEXT ( ( #265, #280, #212 ) ) REPRESENTATION_CONTEXT ( 'NONE', 'WORKASPACE' ) );
#114 = DIRECTION ( 'NONE',  ( -1.000000000000000000, 0.000000000000000000, 0.000000000000000000 ) ) ;
#115 = DIRECTION ( 'NONE',  ( -0.000000000000000000, -1.000000000000000000, -0.000000000000000000 ) ) ;
#116 =( NAMED_UNIT ( * ) SI_UNIT ( $, .STERADIAN. ) SOLID_ANGLE_UNIT ( ) );
#117 = DIRECTION ( 'NONE',  ( -4.082155997157848133E-17, 1.000000000000000000, 0.000000000000000000 ) ) ;
#118 = FILL_AREA_STYLE ('',( #163 ) ) ;
#119 = LENGTH_MEASURE_WITH_UNIT ( LENGTH_MEASURE( 0.02539999999999999897 ), #190 );
#120 = DIRECTION ( 'NONE',  ( 0.000000000000000000, 0.000000000000000000, -1.000000000000000000 ) ) ;
#121 = FILL_AREA_STYLE ('',( #9 ) ) ;
#122 = VECTOR ( 'NONE', #216, 39.37007874015748143 ) ;
#123 = PRODUCT_DEFINITION_SHAPE ( 'NONE', 'NONE',  #273 ) ;
#124 = ADVANCED_FACE ( 'NONE', ( #105 ), #103, .T. ) ;
#125 = COLOUR_RGB ( '',0.7921568627450980005, 0.8196078431372548767, 0.9333333333333333481 ) ;
#126 =( GEOMETRIC_REPRESENTATION_CONTEXT ( 3 ) GLOBAL_UNCERTAINTY_ASSIGNED_CONTEXT ( ( #203 ) ) GLOBAL_UNIT_ASSIGNED_CONTEXT ( ( #226, #304, #2 ) ) REPRESENTATION_CONTEXT ( 'NONE', 'WORKASPACE' ) );
#127 = AXIS2_PLACEMENT_3D ( 'NONE', #58, #167, #95 ) ;
#128 = MANIFOLD_SOLID_BREP ( 'Revolve - Cutting Edge', #8 ) ;
#129 = ADVANCED_FACE ( 'NONE', ( #239 ), #5, .T. ) ;
#130 = DIRECTION ( 'NONE',  ( 0.000000000000000000, 0.000000000000000000, -1.000000000000000000 ) ) ;
#131 = COLOUR_RGB ( '',0.7921568627450980005, 0.8196078431372548767, 0.9333333333333333481 ) ;
#132 =( NAMED_UNIT ( * ) PLANE_ANGLE_UNIT ( ) SI_UNIT ( $, .RADIAN. ) );
#133 = DIRECTION ( 'NONE',  ( 0.000000000000000000, 0.000000000000000000, -1.000000000000000000 ) ) ;
#134 = MANIFOLD_SOLID_BREP ( 'Revolve - Tool Body (Straight Shanked)', #270 ) ;
#135 =( LENGTH_UNIT ( ) NAMED_UNIT ( * ) SI_UNIT ( $, .METRE. ) );
#136 = LINE ( 'NONE', #25, #160 ) ;
#137 = DIRECTION ( 'NONE',  ( -4.082155997157848133E-17, 1.000000000000000000, -0.000000000000000000 ) ) ;
#138 = SHAPE_DEFINITION_REPRESENTATION ( #123, #236 ) ;
#139 = PRESENTATION_LAYER_ASSIGNMENT (  '', '', ( #168 ) ) ;
#140 = AXIS2_PLACEMENT_3D ( 'NONE', #98, #137, #291 ) ;
#141 = VERTEX_POINT ( 'NONE', #12 ) ;
#142 = EDGE_LOOP ( 'NONE', ( #165, #238, #229, #182 ) ) ;
#143 = APPLICATION_CONTEXT ( 'automotive_design' ) ;
#144 = EDGE_CURVE ( 'NONE', #79, #149, #150, .T. ) ;
#145 = LINE ( 'NONE', #6, #122 ) ;
#146 = ORIENTED_EDGE ( 'NONE', *, *, #296, .F. ) ;
#147 = AXIS2_PLACEMENT_3D ( 'NONE', #49, #117, #309 ) ;
#148 = PLANE ( 'NONE',  #46 ) ;
#149 = VERTEX_POINT ( 'NONE', #184 ) ;
#150 = LINE ( 'NONE', #97, #41 ) ;
#151 = MECHANICAL_DESIGN_GEOMETRIC_PRESENTATION_REPRESENTATION (  '', ( #292 ), #223 ) ;
#152 = AXIS2_PLACEMENT_3D ( 'NONE', #208, #219, #172 ) ;
#153 = FILL_AREA_STYLE ('',( #66 ) ) ;
#154 = DIMENSIONAL_EXPONENTS ( 1.000000000000000000, 0.000000000000000000, 0.000000000000000000, 0.000000000000000000, 0.000000000000000000, 0.000000000000000000, 0.000000000000000000 ) ;
#155 = DIRECTION ( 'NONE',  ( -1.000000000000000000, 0.000000000000000000, 0.000000000000000000 ) ) ;
#156 = MECHANICAL_DESIGN_GEOMETRIC_PRESENTATION_REPRESENTATION (  '', ( #230 ), #61 ) ;
#157 = SURFACE_STYLE_FILL_AREA ( #24 ) ;
#158 = ORIENTED_EDGE ( 'NONE', *, *, #27, .T. ) ;
#159 = APPLICATION_PROTOCOL_DEFINITION ( 'draft international standard', 'automotive_design', 1998, #278 ) ;
#160 = VECTOR ( 'NONE', #253, 39.37007874015748143 ) ;
#161 = MECHANICAL_DESIGN_GEOMETRIC_PRESENTATION_REPRESENTATION (  '', ( #168 ), #287 ) ;
#162 = EDGE_CURVE ( 'NONE', #141, #111, #282, .T. ) ;
#163 = FILL_AREA_STYLE_COLOUR ( '', #301 ) ;
#164 = DIRECTION ( 'NONE',  ( -0.000000000000000000, -1.000000000000000000, -0.000000000000000000 ) ) ;
#165 = ORIENTED_EDGE ( 'NONE', *, *, #290, .T. ) ;
#166 = ORIENTED_EDGE ( 'NONE', *, *, #295, .T. ) ;
#167 = DIRECTION ( 'NONE',  ( -0.000000000000000000, -1.000000000000000000, -0.000000000000000000 ) ) ;
#168 = STYLED_ITEM ( 'NONE', ( #195 ), #94 ) ;
#169 = FACE_OUTER_BOUND ( 'NONE', #30, .T. ) ;
#170 = PRESENTATION_LAYER_ASSIGNMENT (  '', '', ( #82 ) ) ;
#171 = EDGE_CURVE ( 'NONE', #186, #111, #7, .T. ) ;
#172 = DIRECTION ( 'NONE',  ( 0.000000000000000000, 0.000000000000000000, -1.000000000000000000 ) ) ;
#173 = ORIENTED_EDGE ( 'NONE', *, *, #39, .F. ) ;
#174 = AXIS2_PLACEMENT_3D ( 'NONE', #101, #302, #68 ) ;
#175 = SURFACE_STYLE_FILL_AREA ( #153 ) ;
#176 = DIMENSIONAL_EXPONENTS ( 1.000000000000000000, 0.000000000000000000, 0.000000000000000000, 0.000000000000000000, 0.000000000000000000, 0.000000000000000000, 0.000000000000000000 ) ;
#177 = UNCERTAINTY_MEASURE_WITH_UNIT (LENGTH_MEASURE( 1.000000000000000082E-05 ), #194, 'distance_accuracy_value', 'NONE');
#178 = ADVANCED_FACE ( 'NONE', ( #169 ), #227, .F. ) ;
#179 = COLOUR_RGB ( '',1.000000000000000000, 0.000000000000000000, 0.000000000000000000 ) ;
#180 = EDGE_CURVE ( 'NONE', #111, #186, #235, .T. ) ;
#181 = DIRECTION ( 'NONE',  ( 1.000000000000000000, 0.000000000000000000, 0.000000000000000000 ) ) ;
#182 = ORIENTED_EDGE ( 'NONE', *, *, #162, .F. ) ;
#183 = PRODUCT_CONTEXT ( 'NONE', #143, 'mechanical' ) ;
#184 = CARTESIAN_POINT ( 'NONE',  ( 0.000000000000000000, 0.000000000000000000, -0.1250000000000000000 ) ) ;
#185 = DIRECTION ( 'NONE',  ( -4.082155997157848133E-17, 1.000000000000000000, -0.000000000000000000 ) ) ;
#186 = VERTEX_POINT ( 'NONE', #56 ) ;
#187 = STYLED_ITEM ( 'NONE', ( #64 ), #128 ) ;
#188 =( NAMED_UNIT ( * ) PLANE_ANGLE_UNIT ( ) SI_UNIT ( $, .RADIAN. ) );
#189 = ORIENTED_EDGE ( 'NONE', *, *, #87, .F. ) ;
#190 =( LENGTH_UNIT ( ) NAMED_UNIT ( * ) SI_UNIT ( $, .METRE. ) );
#191 = CYLINDRICAL_SURFACE ( 'NONE', #307, 0.1250000000000000555 ) ;
#192 = EDGE_LOOP ( 'NONE', ( #166, #33, #269, #262 ) ) ;
#193 =( LENGTH_UNIT ( ) NAMED_UNIT ( * ) SI_UNIT ( $, .METRE. ) );
#194 =( CONVERSION_BASED_UNIT ( 'INCH', #28 ) LENGTH_UNIT ( ) NAMED_UNIT ( #154 ) );
#195 = PRESENTATION_STYLE_ASSIGNMENT (( #29 ) ) ;
#196 = ORIENTED_EDGE ( 'NONE', *, *, #290, .F. ) ;
#197 = AXIS2_PLACEMENT_3D ( 'NONE', #22, #86, #114 ) ;
#198 = UNCERTAINTY_MEASURE_WITH_UNIT (LENGTH_MEASURE( 1.000000000000000082E-05 ), #263, 'distance_accuracy_value', 'NONE');
#199 = SURFACE_SIDE_STYLE ('',( #245 ) ) ;
#200 = PRESENTATION_LAYER_ASSIGNMENT (  '', '', ( #292 ) ) ;
#201 = UNCERTAINTY_MEASURE_WITH_UNIT (LENGTH_MEASURE( 1.000000000000000082E-05 ), #91, 'distance_accuracy_value', 'NONE');
#202 = FILL_AREA_STYLE ('',( #85 ) ) ;
#203 = UNCERTAINTY_MEASURE_WITH_UNIT (LENGTH_MEASURE( 1.000000000000000082E-05 ), #226, 'distance_accuracy_value', 'NONE');
#204 = DIRECTION ( 'NONE',  ( -4.082155997157848133E-17, 1.000000000000000000, -0.000000000000000000 ) ) ;
#205 = DIMENSIONAL_EXPONENTS ( 1.000000000000000000, 0.000000000000000000, 0.000000000000000000, 0.000000000000000000, 0.000000000000000000, 0.000000000000000000, 0.000000000000000000 ) ;
#206 = PLANE ( 'NONE',  #152 ) ;
#207 = CARTESIAN_POINT ( 'NONE',  ( 0.000000000000000000, 1.500000000000000222, 0.000000000000000000 ) ) ;
#208 = CARTESIAN_POINT ( 'NONE',  ( 0.000000000000000000, 0.000000000000000000, 0.000000000000000000 ) ) ;
#209 = PRESENTATION_STYLE_ASSIGNMENT (( #254 ) ) ;
#210 = EDGE_LOOP ( 'NONE', ( #76, #158 ) ) ;
#211 = CARTESIAN_POINT ( 'NONE',  ( 0.1250000000000000278, 1.500000000000000222, 1.530808498934192742E-17 ) ) ;
#212 =( NAMED_UNIT ( * ) SI_UNIT ( $, .STERADIAN. ) SOLID_ANGLE_UNIT ( ) );
#213 = DIRECTION ( 'NONE',  ( 0.000000000000000000, 0.000000000000000000, -1.000000000000000000 ) ) ;
#214 = EDGE_LOOP ( 'NONE', ( #173, #241, #283, #260 ) ) ;
#215 = ORIENTED_EDGE ( 'NONE', *, *, #272, .F. ) ;
#216 = DIRECTION ( 'NONE',  ( -4.082155997157848133E-17, 1.000000000000000000, -0.000000000000000000 ) ) ;
#217 = ORIENTED_EDGE ( 'NONE', *, *, #144, .T. ) ;
#218 = AXIS2_PLACEMENT_3D ( 'NONE', #298, #84, #112 ) ;
#219 = DIRECTION ( 'NONE',  ( 0.000000000000000000, -1.000000000000000000, -0.000000000000000000 ) ) ;
#220 = SURFACE_STYLE_USAGE ( .BOTH. , #276 ) ;
#221 = DIRECTION ( 'NONE',  ( 0.000000000000000000, 0.000000000000000000, -1.000000000000000000 ) ) ;
#222 = DIMENSIONAL_EXPONENTS ( 1.000000000000000000, 0.000000000000000000, 0.000000000000000000, 0.000000000000000000, 0.000000000000000000, 0.000000000000000000, 0.000000000000000000 ) ;
#223 =( GEOMETRIC_REPRESENTATION_CONTEXT ( 3 ) GLOBAL_UNCERTAINTY_ASSIGNED_CONTEXT ( ( #266 ) ) GLOBAL_UNIT_ASSIGNED_CONTEXT ( ( #45, #132, #228 ) ) REPRESENTATION_CONTEXT ( 'NONE', 'WORKASPACE' ) );
#224 = CARTESIAN_POINT ( 'NONE',  ( 0.000000000000000000, 1.500000000000000222, 0.000000000000000000 ) ) ;
#225 = AXIS2_PLACEMENT_3D ( 'NONE', #306, #72, #181 ) ;
#226 =( CONVERSION_BASED_UNIT ( 'INCH', #308 ) LENGTH_UNIT ( ) NAMED_UNIT ( #222 ) );
#227 = PLANE ( 'NONE',  #218 ) ;
#228 =( NAMED_UNIT ( * ) SI_UNIT ( $, .STERADIAN. ) SOLID_ANGLE_UNIT ( ) );
#229 = ORIENTED_EDGE ( 'NONE', *, *, #180, .F. ) ;
#230 = STYLED_ITEM ( 'NONE', ( #53 ), #134 ) ;
#231 = EDGE_LOOP ( 'NONE', ( #215, #99, #217, #60 ) ) ;
#232 = CARTESIAN_POINT ( 'NONE',  ( -0.1250000000000001388, 3.000000000000000444, 0.000000000000000000 ) ) ;
#233 = SURFACE_SIDE_STYLE ('',( #77 ) ) ;
#234 = FACE_OUTER_BOUND ( 'NONE', #214, .T. ) ;
#235 = CIRCLE ( 'NONE', #242, 0.1250000000000001110 ) ;
#236 = ADVANCED_BREP_SHAPE_REPRESENTATION ( '81367', ( #128, #134, #225 ), #126 ) ;
#237 = ADVANCED_FACE ( 'NONE', ( #88 ), #74, .F. ) ;
#238 = ORIENTED_EDGE ( 'NONE', *, *, #39, .T. ) ;
#239 = FACE_OUTER_BOUND ( 'NONE', #231, .T. ) ;
#240 = SURFACE_STYLE_FILL_AREA ( #121 ) ;
#241 = ORIENTED_EDGE ( 'NONE', *, *, #87, .T. ) ;
#242 = AXIS2_PLACEMENT_3D ( 'NONE', #43, #108, #155 ) ;
#243 = CIRCLE ( 'NONE', #140, 0.1250000000000000278 ) ;
#244 = CARTESIAN_POINT ( 'NONE',  ( 0.000000000000000000, 1.500000000000000222, 0.000000000000000000 ) ) ;
#245 = SURFACE_STYLE_FILL_AREA ( #247 ) ;
#246 = AXIS2_PLACEMENT_3D ( 'NONE', #44, #274, #221 ) ;
#247 = FILL_AREA_STYLE ('',( #47 ) ) ;
#248 = LENGTH_MEASURE_WITH_UNIT ( LENGTH_MEASURE( 0.02539999999999999897 ), #89 );
#249 = AXIS2_PLACEMENT_3D ( 'NONE', #289, #115, #120 ) ;
#250 = LENGTH_MEASURE_WITH_UNIT ( LENGTH_MEASURE( 0.02539999999999999897 ), #4 );
#251 = FACE_OUTER_BOUND ( 'NONE', #192, .T. ) ;
#252 = FACE_OUTER_BOUND ( 'NONE', #210, .T. ) ;
#253 = DIRECTION ( 'NONE',  ( -0.000000000000000000, -1.000000000000000000, -0.000000000000000000 ) ) ;
#254 = SURFACE_STYLE_USAGE ( .BOTH. , #275 ) ;
#255 = DIRECTION ( 'NONE',  ( -4.082155997157848133E-17, 1.000000000000000000, -0.000000000000000000 ) ) ;
#256 = VERTEX_POINT ( 'NONE', #281 ) ;
#257 = CIRCLE ( 'NONE', #286, 0.1250000000000000278 ) ;
#258 = CARTESIAN_POINT ( 'NONE',  ( 0.000000000000000000, 0.000000000000000000, 0.000000000000000000 ) ) ;
#259 = CARTESIAN_POINT ( 'NONE',  ( 1.530808498934191817E-17, 1.500000000000000222, 0.1250000000000000278 ) ) ;
#260 = ORIENTED_EDGE ( 'NONE', *, *, #171, .F. ) ;
#261 = ADVANCED_FACE ( 'NONE', ( #251 ), #48, .T. ) ;
#262 = ORIENTED_EDGE ( 'NONE', *, *, #144, .F. ) ;
#263 =( CONVERSION_BASED_UNIT ( 'INCH', #119 ) LENGTH_UNIT ( ) NAMED_UNIT ( #176 ) );
#264 = CARTESIAN_POINT ( 'NONE',  ( -6.123233995736772199E-17, 3.000000000000000444, 0.000000000000000000 ) ) ;
#265 =( CONVERSION_BASED_UNIT ( 'INCH', #63 ) LENGTH_UNIT ( ) NAMED_UNIT ( #303 ) );
#266 = UNCERTAINTY_MEASURE_WITH_UNIT (LENGTH_MEASURE( 1.000000000000000082E-05 ), #45, 'distance_accuracy_value', 'NONE');
#267 = MECHANICAL_DESIGN_GEOMETRIC_PRESENTATION_REPRESENTATION (  '', ( #187 ), #113 ) ;
#268 = DIRECTION ( 'NONE',  ( -1.000000000000000000, 0.000000000000000000, 0.000000000000000000 ) ) ;
#269 = ORIENTED_EDGE ( 'NONE', *, *, #15, .F. ) ;
#270 = CLOSED_SHELL ( 'NONE', ( #124, #237, #70, #178 ) ) ;
#271 = SURFACE_SIDE_STYLE ('',( #175 ) ) ;
#272 = EDGE_CURVE ( 'NONE', #75, #256, #136, .T. ) ;
#273 = PRODUCT_DEFINITION ( 'UNKNOWN', '', #20, #40 ) ;
#274 = DIRECTION ( 'NONE',  ( -0.000000000000000000, -1.000000000000000000, -0.000000000000000000 ) ) ;
#275 = SURFACE_SIDE_STYLE ('',( #157 ) ) ;
#276 = SURFACE_SIDE_STYLE ('',( #110 ) ) ;
#277 = PRESENTATION_LAYER_ASSIGNMENT (  '', '', ( #187 ) ) ;
#278 = APPLICATION_CONTEXT ( 'automotive_design' ) ;
#279 = APPLICATION_PROTOCOL_DEFINITION ( 'draft international standard', 'automotive_design', 1998, #143 ) ;
#280 =( NAMED_UNIT ( * ) PLANE_ANGLE_UNIT ( ) SI_UNIT ( $, .RADIAN. ) );
#281 = CARTESIAN_POINT ( 'NONE',  ( 1.530808498934191509E-17, 0.000000000000000000, 0.1250000000000000000 ) ) ;
#282 = LINE ( 'NONE', #232, #51 ) ;
#283 = ORIENTED_EDGE ( 'NONE', *, *, #162, .T. ) ;
#284 =( NAMED_UNIT ( * ) PLANE_ANGLE_UNIT ( ) SI_UNIT ( $, .RADIAN. ) );
#285 = FACE_OUTER_BOUND ( 'NONE', #55, .T. ) ;
#286 = AXIS2_PLACEMENT_3D ( 'NONE', #207, #67, #130 ) ;
#287 =( GEOMETRIC_REPRESENTATION_CONTEXT ( 3 ) GLOBAL_UNCERTAINTY_ASSIGNED_CONTEXT ( ( #201 ) ) GLOBAL_UNIT_ASSIGNED_CONTEXT ( ( #91, #73, #116 ) ) REPRESENTATION_CONTEXT ( 'NONE', 'WORKASPACE' ) );
#288 =( NAMED_UNIT ( * ) SI_UNIT ( $, .STERADIAN. ) SOLID_ANGLE_UNIT ( ) );
#289 = CARTESIAN_POINT ( 'NONE',  ( 0.000000000000000000, 0.000000000000000000, 0.000000000000000000 ) ) ;
#290 = EDGE_CURVE ( 'NONE', #141, #31, #80, .T. ) ;
#291 = DIRECTION ( 'NONE',  ( -1.000000000000000000, 0.000000000000000000, 0.000000000000000000 ) ) ;
#292 = STYLED_ITEM ( 'NONE', ( #69 ), #96 ) ;
#293 = ORIENTED_EDGE ( 'NONE', *, *, #295, .F. ) ;
#294 = COLOUR_RGB ( '',1.000000000000000000, 0.000000000000000000, 0.000000000000000000 ) ;
#295 = EDGE_CURVE ( 'NONE', #79, #75, #257, .T. ) ;
#296 = EDGE_CURVE ( 'NONE', #75, #79, #36, .T. ) ;
#297 = CARTESIAN_POINT ( 'NONE',  ( -6.123233995736772199E-17, 3.000000000000000444, 0.000000000000000000 ) ) ;
#298 = CARTESIAN_POINT ( 'NONE',  ( 0.1250000000000000278, 3.000000000000000444, 0.000000000000000000 ) ) ;
#299 =( GEOMETRIC_REPRESENTATION_CONTEXT ( 3 ) GLOBAL_UNCERTAINTY_ASSIGNED_CONTEXT ( ( #38 ) ) GLOBAL_UNIT_ASSIGNED_CONTEXT ( ( #305, #57, #83 ) ) REPRESENTATION_CONTEXT ( 'NONE', 'WORKASPACE' ) );
#300 = FILL_AREA_STYLE_COLOUR ( '', #294 ) ;
#301 = COLOUR_RGB ( '',1.000000000000000000, 0.000000000000000000, 0.000000000000000000 ) ;
#302 = DIRECTION ( 'NONE',  ( -4.082155997157848133E-17, 1.000000000000000000, -0.000000000000000000 ) ) ;
#303 = DIMENSIONAL_EXPONENTS ( 1.000000000000000000, 0.000000000000000000, 0.000000000000000000, 0.000000000000000000, 0.000000000000000000, 0.000000000000000000, 0.000000000000000000 ) ;
#304 =( NAMED_UNIT ( * ) PLANE_ANGLE_UNIT ( ) SI_UNIT ( $, .RADIAN. ) );
#305 =( CONVERSION_BASED_UNIT ( 'INCH', #250 ) LENGTH_UNIT ( ) NAMED_UNIT ( #205 ) );
#306 = CARTESIAN_POINT ( 'NONE',  ( 0.000000000000000000, 0.000000000000000000, 0.000000000000000000 ) ) ;
#307 = AXIS2_PLACEMENT_3D ( 'NONE', #264, #185, #3 ) ;
#308 = LENGTH_MEASURE_WITH_UNIT ( LENGTH_MEASURE( 0.02539999999999999897 ), #135 );
#309 = DIRECTION ( 'NONE',  ( -1.000000000000000000, -4.082155997157848133E-17, 0.000000000000000000 ) ) ;
ENDSEC;
END-ISO-10303-21;
