ISO-10303-21;
HEADER;
FILE_DESCRIPTION (( 'STEP AP214' ),
    '1' );
FILE_NAME ('59609.STEP',
    '2023-07-24T15:15:07',
    ( '' ),
    ( '' ),
    'SwSTEP 2.0',
    'SolidWorks 2023',
    '' );
FILE_SCHEMA (( 'AUTOMOTIVE_DESIGN' ));
ENDSEC;

DATA;
#1 = FILL_AREA_STYLE ('',( #347 ) ) ;
#2 = CARTESIAN_POINT ( 'NONE',  ( 10.00000000000000355, 100.0000000000000000, 1.224646799147353651E-15 ) ) ;
#3 = SURFACE_STYLE_USAGE ( .BOTH. , #248 ) ;
#4 = DIRECTION ( 'NONE',  ( 1.000000000000000000, 0.000000000000000000, -1.224646799147353207E-16 ) ) ;
#5 = MECHANICAL_DESIGN_GEOMETRIC_PRESENTATION_REPRESENTATION (  '', ( #158 ), #206 ) ;
#6 = DIRECTION ( 'NONE',  ( -1.236440607496819135E-16, 1.000000000000000000, -0.000000000000000000 ) ) ;
#7 = PRESENTATION_STYLE_ASSIGNMENT (( #47 ) ) ;
#8 = FILL_AREA_STYLE_COLOUR ( '', #209 ) ;
#9 = PLANE ( 'NONE',  #72 ) ;
#10 = CARTESIAN_POINT ( 'NONE',  ( 6.071532165918824830E-15, 40.00000000000000000, 0.000000000000000000 ) ) ;
#11 =( NAMED_UNIT ( * ) PLANE_ANGLE_UNIT ( ) SI_UNIT ( $, .RADIAN. ) );
#12 = PRESENTATION_LAYER_ASSIGNMENT (  '', '', ( #345 ) ) ;
#13 = DIRECTION ( 'NONE',  ( -0.000000000000000000, -1.000000000000000000, -0.000000000000000000 ) ) ;
#14 = DIRECTION ( 'NONE',  ( -1.236440607496819135E-16, 1.000000000000000000, -0.000000000000000000 ) ) ;
#15 = FACE_OUTER_BOUND ( 'NONE', #239, .T. ) ;
#16 = FACE_OUTER_BOUND ( 'NONE', #304, .T. ) ;
#17 = AXIS2_PLACEMENT_3D ( 'NONE', #198, #69, #168 ) ;
#18 = PRODUCT_CONTEXT ( 'NONE', #178, 'mechanical' ) ;
#19 = EDGE_CURVE ( 'NONE', #279, #57, #327, .T. ) ;
#20 = ORIENTED_EDGE ( 'NONE', *, *, #144, .T. ) ;
#21 = ORIENTED_EDGE ( 'NONE', *, *, #147, .T. ) ;
#22 = SURFACE_STYLE_FILL_AREA ( #55 ) ;
#23 = DIRECTION ( 'NONE',  ( -0.000000000000000000, -1.000000000000000000, -0.000000000000000000 ) ) ;
#24 = EDGE_LOOP ( 'NONE', ( #282, #155, #368, #30 ) ) ;
#25 = SURFACE_STYLE_USAGE ( .BOTH. , #243 ) ;
#26 =( LENGTH_UNIT ( ) NAMED_UNIT ( * ) SI_UNIT ( .MILLI., .METRE. ) );
#27 = VERTEX_POINT ( 'NONE', #120 ) ;
#28 = UNCERTAINTY_MEASURE_WITH_UNIT (LENGTH_MEASURE( 1.000000000000000082E-05 ), #356, 'distance_accuracy_value', 'NONE');
#29 = FILL_AREA_STYLE ('',( #54 ) ) ;
#30 = ORIENTED_EDGE ( 'NONE', *, *, #19, .F. ) ;
#31 = PRESENTATION_LAYER_ASSIGNMENT (  '', '', ( #260 ) ) ;
#32 = STYLED_ITEM ( 'NONE', ( #95 ), #51 ) ;
#33 = DIRECTION ( 'NONE',  ( -1.000000000000000000, 0.000000000000000000, 0.000000000000000000 ) ) ;
#34 = CIRCLE ( 'NONE', #76, 10.00000000000000355 ) ;
#35 =( LENGTH_UNIT ( ) NAMED_UNIT ( * ) SI_UNIT ( .MILLI., .METRE. ) );
#36 = DIRECTION ( 'NONE',  ( -0.000000000000000000, -1.000000000000000000, -0.000000000000000000 ) ) ;
#37 = DIRECTION ( 'NONE',  ( 0.000000000000000000, -0.000000000000000000, 1.000000000000000000 ) ) ;
#38 = COLOUR_RGB ( '',1.000000000000000000, 0.000000000000000000, 0.000000000000000000 ) ;
#39 = EDGE_CURVE ( 'NONE', #271, #57, #165, .T. ) ;
#40 = AXIS2_PLACEMENT_3D ( 'NONE', #355, #174, #146 ) ;
#41 = SURFACE_STYLE_USAGE ( .BOTH. , #250 ) ;
#42 = CARTESIAN_POINT ( 'NONE',  ( 0.000000000000000000, 0.000000000000000000, -9.000000000000001776 ) ) ;
#43 = SURFACE_SIDE_STYLE ('',( #291 ) ) ;
#44 = LINE ( 'NONE', #261, #360 ) ;
#45 = CARTESIAN_POINT ( 'NONE',  ( 0.000000000000000000, 1.000000000000000000, 0.000000000000000000 ) ) ;
#46 = CIRCLE ( 'NONE', #351, 10.00000000000000178 ) ;
#47 = SURFACE_STYLE_USAGE ( .BOTH. , #258 ) ;
#48 = DIRECTION ( 'NONE',  ( -0.000000000000000000, -1.000000000000000000, -0.000000000000000000 ) ) ;
#49 = FACE_OUTER_BOUND ( 'NONE', #102, .T. ) ;
#50 = CARTESIAN_POINT ( 'NONE',  ( -9.999999999999987566, 40.00000000000000000, 0.000000000000000000 ) ) ;
#51 = ADVANCED_FACE ( 'NONE', ( #58 ), #275, .T. ) ;
#52 = DIRECTION ( 'NONE',  ( 0.000000000000000000, 0.000000000000000000, 1.000000000000000000 ) ) ;
#53 = VERTEX_POINT ( 'NONE', #227 ) ;
#54 = FILL_AREA_STYLE_COLOUR ( '', #369 ) ;
#55 = FILL_AREA_STYLE ('',( #234 ) ) ;
#56 = ORIENTED_EDGE ( 'NONE', *, *, #215, .T. ) ;
#57 = VERTEX_POINT ( 'NONE', #42 ) ;
#58 = FACE_OUTER_BOUND ( 'NONE', #244, .T. ) ;
#59 = ORIENTED_EDGE ( 'NONE', *, *, #137, .F. ) ;
#60 = CARTESIAN_POINT ( 'NONE',  ( -1.347111479062090180E-15, 100.0000000000000000, 0.000000000000000000 ) ) ;
#61 = ADVANCED_FACE ( 'NONE', ( #251 ), #256, .T. ) ;
#62 = CIRCLE ( 'NONE', #300, 9.999999999999994671 ) ;
#63 = DIRECTION ( 'NONE',  ( -0.000000000000000000, -1.000000000000000000, -0.000000000000000000 ) ) ;
#64 =( NAMED_UNIT ( * ) PLANE_ANGLE_UNIT ( ) SI_UNIT ( $, .RADIAN. ) );
#65 = PRESENTATION_STYLE_ASSIGNMENT (( #138 ) ) ;
#66 = EDGE_CURVE ( 'NONE', #53, #271, #226, .T. ) ;
#67 = DIRECTION ( 'NONE',  ( -1.000000000000000000, 0.000000000000000000, 0.000000000000000000 ) ) ;
#68 = MECHANICAL_DESIGN_GEOMETRIC_PRESENTATION_REPRESENTATION (  '', ( #260 ), #159 ) ;
#69 = DIRECTION ( 'NONE',  ( 1.236440607496819135E-16, -1.000000000000000000, 0.000000000000000000 ) ) ;
#70 = FACE_OUTER_BOUND ( 'NONE', #131, .T. ) ;
#71 = PRODUCT_DEFINITION_SHAPE ( 'NONE', 'NONE',  #85 ) ;
#72 = AXIS2_PLACEMENT_3D ( 'NONE', #115, #230, #89 ) ;
#73 = AXIS2_PLACEMENT_3D ( 'NONE', #315, #63, #193 ) ;
#74 = CARTESIAN_POINT ( 'NONE',  ( 1.224646799147353454E-15, 0.000000000000000000, 10.00000000000000178 ) ) ;
#75 = CARTESIAN_POINT ( 'NONE',  ( 0.000000000000000000, 0.000000000000000000, 0.000000000000000000 ) ) ;
#76 = AXIS2_PLACEMENT_3D ( 'NONE', #192, #255, #108 ) ;
#77 = EDGE_CURVE ( 'NONE', #27, #279, #270, .T. ) ;
#78 = PRESENTATION_STYLE_ASSIGNMENT (( #218 ) ) ;
#79 = DIRECTION ( 'NONE',  ( -1.236440607496819135E-16, 1.000000000000000000, -0.000000000000000000 ) ) ;
#80 = ORIENTED_EDGE ( 'NONE', *, *, #283, .F. ) ;
#81 = ORIENTED_EDGE ( 'NONE', *, *, #66, .T. ) ;
#82 = ADVANCED_FACE ( 'NONE', ( #49 ), #326, .T. ) ;
#83 = DIRECTION ( 'NONE',  ( -1.000000000000000000, 0.000000000000000000, 0.000000000000000000 ) ) ;
#84 =( GEOMETRIC_REPRESENTATION_CONTEXT ( 3 ) GLOBAL_UNCERTAINTY_ASSIGNED_CONTEXT ( ( #278 ) ) GLOBAL_UNIT_ASSIGNED_CONTEXT ( ( #185, #236, #274 ) ) REPRESENTATION_CONTEXT ( 'NONE', 'WORKASPACE' ) );
#85 = PRODUCT_DEFINITION ( 'UNKNOWN', '', #211, #121 ) ;
#86 = FILL_AREA_STYLE_COLOUR ( '', #301 ) ;
#87 = SURFACE_STYLE_FILL_AREA ( #287 ) ;
#88 = DIRECTION ( 'NONE',  ( -1.236440607496819135E-16, 1.000000000000000000, 0.000000000000000000 ) ) ;
#89 = DIRECTION ( 'NONE',  ( 0.000000000000000000, 0.000000000000000000, -1.000000000000000000 ) ) ;
#90 = DIRECTION ( 'NONE',  ( -1.000000000000000000, 0.000000000000000000, 0.000000000000000000 ) ) ;
#91 = DIRECTION ( 'NONE',  ( 0.000000000000000000, 0.000000000000000000, -1.000000000000000000 ) ) ;
#92 = AXIS2_PLACEMENT_3D ( 'NONE', #276, #23, #335 ) ;
#93 = AXIS2_PLACEMENT_3D ( 'NONE', #359, #48, #207 ) ;
#94 = VECTOR ( 'NONE', #36, 1000.000000000000000 ) ;
#95 = PRESENTATION_STYLE_ASSIGNMENT (( #281 ) ) ;
#96 = FACE_OUTER_BOUND ( 'NONE', #338, .T. ) ;
#97 = SURFACE_SIDE_STYLE ('',( #329 ) ) ;
#98 = ORIENTED_EDGE ( 'NONE', *, *, #205, .T. ) ;
#99 = ORIENTED_EDGE ( 'NONE', *, *, #215, .F. ) ;
#100 = PRESENTATION_LAYER_ASSIGNMENT (  '', '', ( #32 ) ) ;
#101 =( LENGTH_UNIT ( ) NAMED_UNIT ( * ) SI_UNIT ( .MILLI., .METRE. ) );
#102 = EDGE_LOOP ( 'NONE', ( #216, #237, #149, #122 ) ) ;
#103 = SURFACE_SIDE_STYLE ('',( #139 ) ) ;
#104 = MANIFOLD_SOLID_BREP ( 'Revolve - Tool Body (Straight Shanked)', #350 ) ;
#105 = UNCERTAINTY_MEASURE_WITH_UNIT (LENGTH_MEASURE( 1.000000000000000082E-05 ), #101, 'distance_accuracy_value', 'NONE');
#106 = FACE_OUTER_BOUND ( 'NONE', #370, .T. ) ;
#107 = EDGE_CURVE ( 'NONE', #57, #279, #318, .T. ) ;
#108 = DIRECTION ( 'NONE',  ( -1.000000000000000000, 0.000000000000000000, 0.000000000000000000 ) ) ;
#109 = TOROIDAL_SURFACE ( 'NONE', #182, 9.000000000000001776, 1.000000000000000444 ) ;
#110 = PRESENTATION_STYLE_ASSIGNMENT (( #3 ) ) ;
#111 = PRESENTATION_STYLE_ASSIGNMENT (( #41 ) ) ;
#112 = DIRECTION ( 'NONE',  ( 0.000000000000000000, 0.000000000000000000, -1.000000000000000000 ) ) ;
#113 = FILL_AREA_STYLE_COLOUR ( '', #177 ) ;
#114 =( GEOMETRIC_REPRESENTATION_CONTEXT ( 3 ) GLOBAL_UNCERTAINTY_ASSIGNED_CONTEXT ( ( #217 ) ) GLOBAL_UNIT_ASSIGNED_CONTEXT ( ( #161, #253, #266 ) ) REPRESENTATION_CONTEXT ( 'NONE', 'WORKASPACE' ) );
#115 = CARTESIAN_POINT ( 'NONE',  ( 0.000000000000000000, 0.000000000000000000, 0.000000000000000000 ) ) ;
#116 = DIRECTION ( 'NONE',  ( -0.000000000000000000, -1.000000000000000000, -0.000000000000000000 ) ) ;
#117 = FILL_AREA_STYLE ('',( #164 ) ) ;
#118 = STYLED_ITEM ( 'NONE', ( #259 ), #268 ) ;
#119 = APPLICATION_PROTOCOL_DEFINITION ( 'draft international standard', 'automotive_design', 1998, #163 ) ;
#120 = CARTESIAN_POINT ( 'NONE',  ( 1.224646799147353256E-15, 1.000000000000000000, 10.00000000000000178 ) ) ;
#121 = PRODUCT_DEFINITION_CONTEXT ( 'detailed design', #163, 'design' ) ;
#122 = ORIENTED_EDGE ( 'NONE', *, *, #298, .F. ) ;
#123 = CARTESIAN_POINT ( 'NONE',  ( 1.224646799147353256E-15, 40.00000000000000000, 10.00000000000000000 ) ) ;
#124 = ORIENTED_EDGE ( 'NONE', *, *, #144, .F. ) ;
#125 = ORIENTED_EDGE ( 'NONE', *, *, #197, .T. ) ;
#126 = UNCERTAINTY_MEASURE_WITH_UNIT (LENGTH_MEASURE( 1.000000000000000082E-05 ), #201, 'distance_accuracy_value', 'NONE');
#127 =( NAMED_UNIT ( * ) SI_UNIT ( $, .STERADIAN. ) SOLID_ANGLE_UNIT ( ) );
#128 = ORIENTED_EDGE ( 'NONE', *, *, #19, .T. ) ;
#129 = ADVANCED_FACE ( 'NONE', ( #246 ), #109, .T. ) ;
#130 = PRESENTATION_STYLE_ASSIGNMENT (( #25 ) ) ;
#131 = EDGE_LOOP ( 'NONE', ( #56, #20, #214, #242 ) ) ;
#132 = CLOSED_SHELL ( 'NONE', ( #181, #288, #268, #129, #51, #334 ) ) ;
#133 =( NAMED_UNIT ( * ) PLANE_ANGLE_UNIT ( ) SI_UNIT ( $, .RADIAN. ) );
#134 = PRESENTATION_LAYER_ASSIGNMENT (  '', '', ( #223 ) ) ;
#135 =( NAMED_UNIT ( * ) PLANE_ANGLE_UNIT ( ) SI_UNIT ( $, .RADIAN. ) );
#136 = CARTESIAN_POINT ( 'NONE',  ( 1.102182119232617911E-15, 1.000000000000000000, 9.000000000000001776 ) ) ;
#137 = EDGE_CURVE ( 'NONE', #277, #188, #286, .T. ) ;
#138 = SURFACE_STYLE_USAGE ( .BOTH. , #103 ) ;
#139 = SURFACE_STYLE_FILL_AREA ( #1 ) ;
#140 = AXIS2_PLACEMENT_3D ( 'NONE', #160, #88, #284 ) ;
#141 = COLOUR_RGB ( '',1.000000000000000000, 0.000000000000000000, 0.000000000000000000 ) ;
#142 =( NAMED_UNIT ( * ) PLANE_ANGLE_UNIT ( ) SI_UNIT ( $, .RADIAN. ) );
#143 = DIRECTION ( 'NONE',  ( 0.000000000000000000, 0.000000000000000000, -1.000000000000000000 ) ) ;
#144 = EDGE_CURVE ( 'NONE', #308, #27, #200, .T. ) ;
#145 = PRESENTATION_LAYER_ASSIGNMENT (  '', '', ( #158 ) ) ;
#146 = DIRECTION ( 'NONE',  ( 0.000000000000000000, 0.000000000000000000, -1.000000000000000000 ) ) ;
#147 = EDGE_CURVE ( 'NONE', #271, #27, #46, .T. ) ;
#148 = AXIS2_PLACEMENT_3D ( 'NONE', #45, #263, #91 ) ;
#149 = ORIENTED_EDGE ( 'NONE', *, *, #137, .T. ) ;
#150 = DIRECTION ( 'NONE',  ( -1.000000000000000000, 0.000000000000000000, 0.000000000000000000 ) ) ;
#151 = CARTESIAN_POINT ( 'NONE',  ( -1.347111479062089982E-15, 100.0000000000000000, 0.000000000000000000 ) ) ;
#152 = ORIENTED_EDGE ( 'NONE', *, *, #167, .T. ) ;
#153 = ORIENTED_EDGE ( 'NONE', *, *, #167, .F. ) ;
#154 = ORIENTED_EDGE ( 'NONE', *, *, #39, .F. ) ;
#155 = ORIENTED_EDGE ( 'NONE', *, *, #273, .T. ) ;
#156 = FILL_AREA_STYLE ('',( #86 ) ) ;
#157 = AXIS2_PLACEMENT_3D ( 'NONE', #240, #150, #366 ) ;
#158 = STYLED_ITEM ( 'NONE', ( #7 ), #181 ) ;
#159 =( GEOMETRIC_REPRESENTATION_CONTEXT ( 3 ) GLOBAL_UNCERTAINTY_ASSIGNED_CONTEXT ( ( #126 ) ) GLOBAL_UNIT_ASSIGNED_CONTEXT ( ( #201, #225, #289 ) ) REPRESENTATION_CONTEXT ( 'NONE', 'WORKASPACE' ) );
#160 = CARTESIAN_POINT ( 'NONE',  ( 6.071532165918824830E-15, 40.00000000000000000, 0.000000000000000000 ) ) ;
#161 =( LENGTH_UNIT ( ) NAMED_UNIT ( * ) SI_UNIT ( .MILLI., .METRE. ) );
#162 = CARTESIAN_POINT ( 'NONE',  ( 0.000000000000000000, 0.000000000000000000, 0.000000000000000000 ) ) ;
#163 = APPLICATION_CONTEXT ( 'automotive_design' ) ;
#164 = FILL_AREA_STYLE_COLOUR ( '', #233 ) ;
#165 = CIRCLE ( 'NONE', #157, 1.000000000000000888 ) ;
#166 = PRESENTATION_LAYER_ASSIGNMENT (  '', '', ( #118 ) ) ;
#167 = EDGE_CURVE ( 'NONE', #277, #222, #323, .T. ) ;
#168 = DIRECTION ( 'NONE',  ( 1.000000000000000000, 1.236440607496819135E-16, 0.000000000000000000 ) ) ;
#169 = DIRECTION ( 'NONE',  ( -1.236440607496819135E-16, 1.000000000000000000, -0.000000000000000000 ) ) ;
#170 = SURFACE_STYLE_FILL_AREA ( #294 ) ;
#171 = DIRECTION ( 'NONE',  ( -0.000000000000000000, -1.000000000000000000, -0.000000000000000000 ) ) ;
#172 = PRODUCT ( '59609', '59609', '', ( #18 ) ) ;
#173 = CARTESIAN_POINT ( 'NONE',  ( 0.000000000000000000, 1.000000000000000000, -10.00000000000000178 ) ) ;
#174 = DIRECTION ( 'NONE',  ( -0.000000000000000000, -1.000000000000000000, -0.000000000000000000 ) ) ;
#175 = CIRCLE ( 'NONE', #148, 10.00000000000000178 ) ;
#176 = COLOUR_RGB ( '',1.000000000000000000, 0.000000000000000000, 0.000000000000000000 ) ;
#177 = COLOUR_RGB ( '',1.000000000000000000, 0.000000000000000000, 0.000000000000000000 ) ;
#178 = APPLICATION_CONTEXT ( 'automotive_design' ) ;
#179 =( GEOMETRIC_REPRESENTATION_CONTEXT ( 3 ) GLOBAL_UNCERTAINTY_ASSIGNED_CONTEXT ( ( #105 ) ) GLOBAL_UNIT_ASSIGNED_CONTEXT ( ( #101, #135, #127 ) ) REPRESENTATION_CONTEXT ( 'NONE', 'WORKASPACE' ) );
#180 = AXIS2_PLACEMENT_3D ( 'NONE', #10, #203, #90 ) ;
#181 = ADVANCED_FACE ( 'NONE', ( #70 ), #321, .T. ) ;
#182 = AXIS2_PLACEMENT_3D ( 'NONE', #358, #354, #317 ) ;
#183 = ORIENTED_EDGE ( 'NONE', *, *, #357, .F. ) ;
#184 = CARTESIAN_POINT ( 'NONE',  ( -1.347111479062090180E-15, 100.0000000000000000, 0.000000000000000000 ) ) ;
#185 =( LENGTH_UNIT ( ) NAMED_UNIT ( * ) SI_UNIT ( .MILLI., .METRE. ) );
#186 = ORIENTED_EDGE ( 'NONE', *, *, #298, .T. ) ;
#187 = CIRCLE ( 'NONE', #40, 10.00000000000000000 ) ;
#188 = VERTEX_POINT ( 'NONE', #353 ) ;
#189 = EDGE_LOOP ( 'NONE', ( #21, #245, #330, #154 ) ) ;
#190 = PLANE ( 'NONE',  #140 ) ;
#191 = TOROIDAL_SURFACE ( 'NONE', #92, 9.000000000000001776, 1.000000000000000444 ) ;
#192 = CARTESIAN_POINT ( 'NONE',  ( -1.347111479062089982E-15, 100.0000000000000000, 0.000000000000000000 ) ) ;
#193 = DIRECTION ( 'NONE',  ( 0.000000000000000000, 0.000000000000000000, -1.000000000000000000 ) ) ;
#194 =( NAMED_UNIT ( * ) SI_UNIT ( $, .STERADIAN. ) SOLID_ANGLE_UNIT ( ) );
#195 = DIRECTION ( 'NONE',  ( -1.236440607496819135E-16, 1.000000000000000000, -0.000000000000000000 ) ) ;
#196 =( NAMED_UNIT ( * ) SI_UNIT ( $, .STERADIAN. ) SOLID_ANGLE_UNIT ( ) );
#197 = EDGE_CURVE ( 'NONE', #308, #53, #254, .T. ) ;
#198 = CARTESIAN_POINT ( 'NONE',  ( 10.00000000000000178, 100.0000000000000000, 0.000000000000000000 ) ) ;
#199 = MECHANICAL_DESIGN_GEOMETRIC_PRESENTATION_REPRESENTATION (  '', ( #345 ), #84 ) ;
#200 = LINE ( 'NONE', #74, #346 ) ;
#201 =( LENGTH_UNIT ( ) NAMED_UNIT ( * ) SI_UNIT ( .MILLI., .METRE. ) );
#202 = STYLED_ITEM ( 'NONE', ( #65 ), #129 ) ;
#203 = DIRECTION ( 'NONE',  ( -1.236440607496819135E-16, 1.000000000000000000, -0.000000000000000000 ) ) ;
#204 = DIRECTION ( 'NONE',  ( -1.224646799147353454E-16, 0.000000000000000000, -1.000000000000000000 ) ) ;
#205 = EDGE_CURVE ( 'NONE', #222, #311, #44, .T. ) ;
#206 =( GEOMETRIC_REPRESENTATION_CONTEXT ( 3 ) GLOBAL_UNCERTAINTY_ASSIGNED_CONTEXT ( ( #309 ) ) GLOBAL_UNIT_ASSIGNED_CONTEXT ( ( #267, #11, #322 ) ) REPRESENTATION_CONTEXT ( 'NONE', 'WORKASPACE' ) );
#207 = DIRECTION ( 'NONE',  ( 0.000000000000000000, 0.000000000000000000, -1.000000000000000000 ) ) ;
#208 = SHAPE_DEFINITION_REPRESENTATION ( #71, #314 ) ;
#209 = COLOUR_RGB ( '',0.7921568627450980005, 0.8196078431372548767, 0.9333333333333333481 ) ;
#210 = AXIS2_PLACEMENT_3D ( 'NONE', #60, #6, #33 ) ;
#211 = PRODUCT_DEFINITION_FORMATION_WITH_SPECIFIED_SOURCE ( 'ANY', '', #172, .NOT_KNOWN. ) ;
#212 = UNCERTAINTY_MEASURE_WITH_UNIT (LENGTH_MEASURE( 1.000000000000000082E-05 ), #35, 'distance_accuracy_value', 'NONE');
#213 = ORIENTED_EDGE ( 'NONE', *, *, #357, .T. ) ;
#214 = ORIENTED_EDGE ( 'NONE', *, *, #147, .F. ) ;
#215 = EDGE_CURVE ( 'NONE', #53, #308, #187, .T. ) ;
#216 = ORIENTED_EDGE ( 'NONE', *, *, #205, .F. ) ;
#217 = UNCERTAINTY_MEASURE_WITH_UNIT (LENGTH_MEASURE( 1.000000000000000082E-05 ), #161, 'distance_accuracy_value', 'NONE');
#218 = SURFACE_STYLE_USAGE ( .BOTH. , #97 ) ;
#219 = DIRECTION ( 'NONE',  ( 0.000000000000000000, 0.000000000000000000, -1.000000000000000000 ) ) ;
#220 = ORIENTED_EDGE ( 'NONE', *, *, #107, .T. ) ;
#221 = MECHANICAL_DESIGN_GEOMETRIC_PRESENTATION_REPRESENTATION (  '', ( #118 ), #235 ) ;
#222 = VERTEX_POINT ( 'NONE', #264 ) ;
#223 = STYLED_ITEM ( 'NONE', ( #110 ), #104 ) ;
#224 = PLANE ( 'NONE',  #17 ) ;
#225 =( NAMED_UNIT ( * ) PLANE_ANGLE_UNIT ( ) SI_UNIT ( $, .RADIAN. ) );
#226 = LINE ( 'NONE', #285, #94 ) ;
#227 = CARTESIAN_POINT ( 'NONE',  ( 0.000000000000000000, 40.00000000000000000, -10.00000000000000000 ) ) ;
#228 = AXIS2_PLACEMENT_3D ( 'NONE', #75, #52, #302 ) ;
#229 =( GEOMETRIC_REPRESENTATION_CONTEXT ( 3 ) GLOBAL_UNCERTAINTY_ASSIGNED_CONTEXT ( ( #340 ) ) GLOBAL_UNIT_ASSIGNED_CONTEXT ( ( #344, #133, #292 ) ) REPRESENTATION_CONTEXT ( 'NONE', 'WORKASPACE' ) );
#230 = DIRECTION ( 'NONE',  ( 0.000000000000000000, -1.000000000000000000, -0.000000000000000000 ) ) ;
#231 = CARTESIAN_POINT ( 'NONE',  ( 6.071532165918824830E-15, 40.00000000000000000, 0.000000000000000000 ) ) ;
#232 = AXIS2_PLACEMENT_3D ( 'NONE', #151, #79, #241 ) ;
#233 = COLOUR_RGB ( '',1.000000000000000000, 0.000000000000000000, 0.000000000000000000 ) ;
#234 = FILL_AREA_STYLE_COLOUR ( '', #176 ) ;
#235 =( GEOMETRIC_REPRESENTATION_CONTEXT ( 3 ) GLOBAL_UNCERTAINTY_ASSIGNED_CONTEXT ( ( #28 ) ) GLOBAL_UNIT_ASSIGNED_CONTEXT ( ( #356, #142, #320 ) ) REPRESENTATION_CONTEXT ( 'NONE', 'WORKASPACE' ) );
#236 =( NAMED_UNIT ( * ) PLANE_ANGLE_UNIT ( ) SI_UNIT ( $, .RADIAN. ) );
#237 = ORIENTED_EDGE ( 'NONE', *, *, #283, .T. ) ;
#238 = MECHANICAL_DESIGN_GEOMETRIC_PRESENTATION_REPRESENTATION (  '', ( #32 ), #312 ) ;
#239 = EDGE_LOOP ( 'NONE', ( #213, #186 ) ) ;
#240 = CARTESIAN_POINT ( 'NONE',  ( 0.000000000000000000, 1.000000000000000000, -9.000000000000001776 ) ) ;
#241 = DIRECTION ( 'NONE',  ( -1.000000000000000000, 0.000000000000000000, 0.000000000000000000 ) ) ;
#242 = ORIENTED_EDGE ( 'NONE', *, *, #66, .F. ) ;
#243 = SURFACE_SIDE_STYLE ('',( #280 ) ) ;
#244 = EDGE_LOOP ( 'NONE', ( #124, #125, #81, #342 ) ) ;
#245 = ORIENTED_EDGE ( 'NONE', *, *, #77, .T. ) ;
#246 = FACE_OUTER_BOUND ( 'NONE', #24, .T. ) ;
#247 = ADVANCED_FACE ( 'NONE', ( #15 ), #224, .F. ) ;
#248 = SURFACE_SIDE_STYLE ('',( #339 ) ) ;
#249 = UNCERTAINTY_MEASURE_WITH_UNIT (LENGTH_MEASURE( 1.000000000000000082E-05 ), #26, 'distance_accuracy_value', 'NONE');
#250 = SURFACE_SIDE_STYLE ('',( #87 ) ) ;
#251 = FACE_OUTER_BOUND ( 'NONE', #272, .T. ) ;
#252 = PRODUCT_RELATED_PRODUCT_CATEGORY ( 'part', '', ( #172 ) ) ;
#253 =( NAMED_UNIT ( * ) PLANE_ANGLE_UNIT ( ) SI_UNIT ( $, .RADIAN. ) );
#254 = CIRCLE ( 'NONE', #307, 10.00000000000000000 ) ;
#255 = DIRECTION ( 'NONE',  ( -1.236440607496819135E-16, 1.000000000000000000, -0.000000000000000000 ) ) ;
#256 = CYLINDRICAL_SURFACE ( 'NONE', #210, 9.999999999999998224 ) ;
#257 = FACE_OUTER_BOUND ( 'NONE', #189, .T. ) ;
#258 = SURFACE_SIDE_STYLE ('',( #170 ) ) ;
#259 = PRESENTATION_STYLE_ASSIGNMENT (( #297 ) ) ;
#260 = STYLED_ITEM ( 'NONE', ( #111 ), #364 ) ;
#261 = CARTESIAN_POINT ( 'NONE',  ( 9.999999999999996447, 100.0000000000000000, 1.224646799147353059E-15 ) ) ;
#262 = AXIS2_PLACEMENT_3D ( 'NONE', #136, #4, #204 ) ;
#263 = DIRECTION ( 'NONE',  ( -0.000000000000000000, -1.000000000000000000, -0.000000000000000000 ) ) ;
#264 = CARTESIAN_POINT ( 'NONE',  ( 10.00000000000000178, 40.00000000000000000, 1.224646799147353651E-15 ) ) ;
#265 = CARTESIAN_POINT ( 'NONE',  ( 1.163414459189985682E-15, 0.000000000000000000, 9.000000000000001776 ) ) ;
#266 =( NAMED_UNIT ( * ) SI_UNIT ( $, .STERADIAN. ) SOLID_ANGLE_UNIT ( ) );
#267 =( LENGTH_UNIT ( ) NAMED_UNIT ( * ) SI_UNIT ( .MILLI., .METRE. ) );
#268 = ADVANCED_FACE ( 'NONE', ( #16 ), #9, .T. ) ;
#269 =( GEOMETRIC_REPRESENTATION_CONTEXT ( 3 ) GLOBAL_UNCERTAINTY_ASSIGNED_CONTEXT ( ( #212 ) ) GLOBAL_UNIT_ASSIGNED_CONTEXT ( ( #35, #64, #196 ) ) REPRESENTATION_CONTEXT ( 'NONE', 'WORKASPACE' ) );
#270 = CIRCLE ( 'NONE', #262, 1.000000000000000888 ) ;
#271 = VERTEX_POINT ( 'NONE', #173 ) ;
#272 = EDGE_LOOP ( 'NONE', ( #152, #98, #183, #59 ) ) ;
#273 = EDGE_CURVE ( 'NONE', #27, #271, #175, .T. ) ;
#274 =( NAMED_UNIT ( * ) SI_UNIT ( $, .STERADIAN. ) SOLID_ANGLE_UNIT ( ) );
#275 = CYLINDRICAL_SURFACE ( 'NONE', #296, 10.00000000000000178 ) ;
#276 = CARTESIAN_POINT ( 'NONE',  ( 0.000000000000000000, 1.000000000000000000, 0.000000000000000000 ) ) ;
#277 = VERTEX_POINT ( 'NONE', #50 ) ;
#278 = UNCERTAINTY_MEASURE_WITH_UNIT (LENGTH_MEASURE( 1.000000000000000082E-05 ), #185, 'distance_accuracy_value', 'NONE');
#279 = VERTEX_POINT ( 'NONE', #265 ) ;
#280 = SURFACE_STYLE_FILL_AREA ( #29 ) ;
#281 = SURFACE_STYLE_USAGE ( .BOTH. , #333 ) ;
#282 = ORIENTED_EDGE ( 'NONE', *, *, #77, .F. ) ;
#283 = EDGE_CURVE ( 'NONE', #222, #277, #62, .T. ) ;
#284 = DIRECTION ( 'NONE',  ( -1.000000000000000000, -1.236440607496819135E-16, 0.000000000000000000 ) ) ;
#285 = CARTESIAN_POINT ( 'NONE',  ( 0.000000000000000000, 0.000000000000000000, -10.00000000000000178 ) ) ;
#286 = LINE ( 'NONE', #324, #328 ) ;
#287 = FILL_AREA_STYLE ('',( #8 ) ) ;
#288 = ADVANCED_FACE ( 'NONE', ( #257 ), #191, .T. ) ;
#289 =( NAMED_UNIT ( * ) SI_UNIT ( $, .STERADIAN. ) SOLID_ANGLE_UNIT ( ) );
#290 = DIRECTION ( 'NONE',  ( -0.000000000000000000, -1.000000000000000000, -0.000000000000000000 ) ) ;
#291 = SURFACE_STYLE_FILL_AREA ( #117 ) ;
#292 =( NAMED_UNIT ( * ) SI_UNIT ( $, .STERADIAN. ) SOLID_ANGLE_UNIT ( ) );
#293 = MECHANICAL_DESIGN_GEOMETRIC_PRESENTATION_REPRESENTATION (  '', ( #223 ), #229 ) ;
#294 = FILL_AREA_STYLE ('',( #113 ) ) ;
#295 = DIRECTION ( 'NONE',  ( 0.000000000000000000, 0.000000000000000000, -1.000000000000000000 ) ) ;
#296 = AXIS2_PLACEMENT_3D ( 'NONE', #162, #290, #112 ) ;
#297 = SURFACE_STYLE_USAGE ( .BOTH. , #43 ) ;
#298 = EDGE_CURVE ( 'NONE', #311, #188, #305, .T. ) ;
#299 = CARTESIAN_POINT ( 'NONE',  ( 0.000000000000000000, 1.000000000000000000, 0.000000000000000000 ) ) ;
#300 = AXIS2_PLACEMENT_3D ( 'NONE', #231, #361, #67 ) ;
#301 = COLOUR_RGB ( '',0.7921568627450980005, 0.8196078431372548767, 0.9333333333333333481 ) ;
#302 = DIRECTION ( 'NONE',  ( 1.000000000000000000, 0.000000000000000000, 0.000000000000000000 ) ) ;
#303 = DIRECTION ( 'NONE',  ( -0.000000000000000000, -1.000000000000000000, -0.000000000000000000 ) ) ;
#304 = EDGE_LOOP ( 'NONE', ( #220, #128 ) ) ;
#305 = CIRCLE ( 'NONE', #232, 10.00000000000000355 ) ;
#306 = AXIS2_PLACEMENT_3D ( 'NONE', #310, #303, #219 ) ;
#307 = AXIS2_PLACEMENT_3D ( 'NONE', #319, #171, #295 ) ;
#308 = VERTEX_POINT ( 'NONE', #123 ) ;
#309 = UNCERTAINTY_MEASURE_WITH_UNIT (LENGTH_MEASURE( 1.000000000000000082E-05 ), #267, 'distance_accuracy_value', 'NONE');
#310 = CARTESIAN_POINT ( 'NONE',  ( 0.000000000000000000, 0.000000000000000000, 0.000000000000000000 ) ) ;
#311 = VERTEX_POINT ( 'NONE', #2 ) ;
#312 =( GEOMETRIC_REPRESENTATION_CONTEXT ( 3 ) GLOBAL_UNCERTAINTY_ASSIGNED_CONTEXT ( ( #249 ) ) GLOBAL_UNIT_ASSIGNED_CONTEXT ( ( #26, #336, #194 ) ) REPRESENTATION_CONTEXT ( 'NONE', 'WORKASPACE' ) );
#313 = PRESENTATION_LAYER_ASSIGNMENT (  '', '', ( #202 ) ) ;
#314 = ADVANCED_BREP_SHAPE_REPRESENTATION ( '59609', ( #364, #104, #228 ), #269 ) ;
#315 = CARTESIAN_POINT ( 'NONE',  ( 0.000000000000000000, 0.000000000000000000, 0.000000000000000000 ) ) ;
#316 = STYLED_ITEM ( 'NONE', ( #130 ), #288 ) ;
#317 = DIRECTION ( 'NONE',  ( 0.000000000000000000, 0.000000000000000000, -1.000000000000000000 ) ) ;
#318 = CIRCLE ( 'NONE', #73, 9.000000000000001776 ) ;
#319 = CARTESIAN_POINT ( 'NONE',  ( 0.000000000000000000, 40.00000000000000000, 0.000000000000000000 ) ) ;
#320 =( NAMED_UNIT ( * ) SI_UNIT ( $, .STERADIAN. ) SOLID_ANGLE_UNIT ( ) );
#321 = CYLINDRICAL_SURFACE ( 'NONE', #93, 10.00000000000000178 ) ;
#322 =( NAMED_UNIT ( * ) SI_UNIT ( $, .STERADIAN. ) SOLID_ANGLE_UNIT ( ) );
#323 = CIRCLE ( 'NONE', #180, 9.999999999999994671 ) ;
#324 = CARTESIAN_POINT ( 'NONE',  ( -10.00000000000000000, 100.0000000000000000, 0.000000000000000000 ) ) ;
#325 = AXIS2_PLACEMENT_3D ( 'NONE', #343, #348, #37 ) ;
#326 = CYLINDRICAL_SURFACE ( 'NONE', #337, 9.999999999999998224 ) ;
#327 = CIRCLE ( 'NONE', #306, 9.000000000000001776 ) ;
#328 = VECTOR ( 'NONE', #169, 1000.000000000000000 ) ;
#329 = SURFACE_STYLE_FILL_AREA ( #341 ) ;
#330 = ORIENTED_EDGE ( 'NONE', *, *, #107, .F. ) ;
#331 = MECHANICAL_DESIGN_GEOMETRIC_PRESENTATION_REPRESENTATION (  '', ( #316 ), #179 ) ;
#332 = FILL_AREA_STYLE_COLOUR ( '', #38 ) ;
#333 = SURFACE_SIDE_STYLE ('',( #22 ) ) ;
#334 = ADVANCED_FACE ( 'NONE', ( #96 ), #367, .T. ) ;
#335 = DIRECTION ( 'NONE',  ( 0.000000000000000000, 0.000000000000000000, -1.000000000000000000 ) ) ;
#336 =( NAMED_UNIT ( * ) PLANE_ANGLE_UNIT ( ) SI_UNIT ( $, .RADIAN. ) );
#337 = AXIS2_PLACEMENT_3D ( 'NONE', #184, #195, #83 ) ;
#338 = EDGE_LOOP ( 'NONE', ( #99, #365 ) ) ;
#339 = SURFACE_STYLE_FILL_AREA ( #156 ) ;
#340 = UNCERTAINTY_MEASURE_WITH_UNIT (LENGTH_MEASURE( 1.000000000000000082E-05 ), #344, 'distance_accuracy_value', 'NONE');
#341 = FILL_AREA_STYLE ('',( #332 ) ) ;
#342 = ORIENTED_EDGE ( 'NONE', *, *, #273, .F. ) ;
#343 = CARTESIAN_POINT ( 'NONE',  ( 0.000000000000000000, 40.00000000000000000, 0.000000000000000000 ) ) ;
#344 =( LENGTH_UNIT ( ) NAMED_UNIT ( * ) SI_UNIT ( .MILLI., .METRE. ) );
#345 = STYLED_ITEM ( 'NONE', ( #78 ), #334 ) ;
#346 = VECTOR ( 'NONE', #13, 1000.000000000000000 ) ;
#347 = FILL_AREA_STYLE_COLOUR ( '', #141 ) ;
#348 = DIRECTION ( 'NONE',  ( 0.000000000000000000, 1.000000000000000000, 0.000000000000000000 ) ) ;
#349 = PRESENTATION_LAYER_ASSIGNMENT (  '', '', ( #316 ) ) ;
#350 = CLOSED_SHELL ( 'NONE', ( #61, #362, #82, #247 ) ) ;
#351 = AXIS2_PLACEMENT_3D ( 'NONE', #299, #116, #143 ) ;
#352 = MECHANICAL_DESIGN_GEOMETRIC_PRESENTATION_REPRESENTATION (  '', ( #202 ), #114 ) ;
#353 = CARTESIAN_POINT ( 'NONE',  ( -10.00000000000000533, 100.0000000000000000, 0.000000000000000000 ) ) ;
#354 = DIRECTION ( 'NONE',  ( -0.000000000000000000, -1.000000000000000000, -0.000000000000000000 ) ) ;
#355 = CARTESIAN_POINT ( 'NONE',  ( 0.000000000000000000, 40.00000000000000000, 0.000000000000000000 ) ) ;
#356 =( LENGTH_UNIT ( ) NAMED_UNIT ( * ) SI_UNIT ( .MILLI., .METRE. ) );
#357 = EDGE_CURVE ( 'NONE', #188, #311, #34, .T. ) ;
#358 = CARTESIAN_POINT ( 'NONE',  ( 0.000000000000000000, 1.000000000000000000, 0.000000000000000000 ) ) ;
#359 = CARTESIAN_POINT ( 'NONE',  ( 0.000000000000000000, 0.000000000000000000, 0.000000000000000000 ) ) ;
#360 = VECTOR ( 'NONE', #14, 1000.000000000000000 ) ;
#361 = DIRECTION ( 'NONE',  ( -1.236440607496819135E-16, 1.000000000000000000, -0.000000000000000000 ) ) ;
#362 = ADVANCED_FACE ( 'NONE', ( #106 ), #190, .F. ) ;
#363 = APPLICATION_PROTOCOL_DEFINITION ( 'draft international standard', 'automotive_design', 1998, #178 ) ;
#364 = MANIFOLD_SOLID_BREP ( 'Revolve - Cutting Edge', #132 ) ;
#365 = ORIENTED_EDGE ( 'NONE', *, *, #197, .F. ) ;
#366 = DIRECTION ( 'NONE',  ( 0.000000000000000000, 0.000000000000000000, 1.000000000000000000 ) ) ;
#367 = PLANE ( 'NONE',  #325 ) ;
#368 = ORIENTED_EDGE ( 'NONE', *, *, #39, .T. ) ;
#369 = COLOUR_RGB ( '',1.000000000000000000, 0.000000000000000000, 0.000000000000000000 ) ;
#370 = EDGE_LOOP ( 'NONE', ( #153, #80 ) ) ;
ENDSEC;
END-ISO-10303-21;
