ISO-10303-21;
HEADER;
FILE_DESCRIPTION (( 'STEP AP214' ),
    '1' );
FILE_NAME ('83760.STEP',
    '2023-07-05T19:24:05',
    ( '' ),
    ( '' ),
    'SwSTEP 2.0',
    'SolidWorks 2023',
    '' );
FILE_SCHEMA (( 'AUTOMOTIVE_DESIGN' ));
ENDSEC;

DATA;
#1 = SURFACE_SIDE_STYLE ('',( #191 ) ) ;
#2 =( NAMED_UNIT ( * ) SI_UNIT ( $, .STERADIAN. ) SOLID_ANGLE_UNIT ( ) );
#3 = UNCERTAINTY_MEASURE_WITH_UNIT (LENGTH_MEASURE( 1.000000000000000082E-05 ), #173, 'distance_accuracy_value', 'NONE');
#4 = STYLED_ITEM ( 'NONE', ( #180 ), #18 ) ;
#5 = DIMENSIONAL_EXPONENTS ( 1.000000000000000000, 0.000000000000000000, 0.000000000000000000, 0.000000000000000000, 0.000000000000000000, 0.000000000000000000, 0.000000000000000000 ) ;
#6 =( GEOMETRIC_REPRESENTATION_CONTEXT ( 3 ) GLOBAL_UNCERTAINTY_ASSIGNED_CONTEXT ( ( #44 ) ) GLOBAL_UNIT_ASSIGNED_CONTEXT ( ( #60, #52, #248 ) ) REPRESENTATION_CONTEXT ( 'NONE', 'WORKASPACE' ) );
#7 = SURFACE_SIDE_STYLE ('',( #328 ) ) ;
#8 = EDGE_CURVE ( 'NONE', #112, #329, #166, .T. ) ;
#9 = EDGE_LOOP ( 'NONE', ( #334, #11, #91, #34 ) ) ;
#10 = VERTEX_POINT ( 'NONE', #140 ) ;
#11 = ORIENTED_EDGE ( 'NONE', *, *, #194, .T. ) ;
#12 = EDGE_CURVE ( 'NONE', #96, #227, #292, .T. ) ;
#13 = CARTESIAN_POINT ( 'NONE',  ( 2.902588493268279793E-16, 0.5000000000000000000, 0.000000000000000000 ) ) ;
#14 = ORIENTED_EDGE ( 'NONE', *, *, #119, .T. ) ;
#15 = CARTESIAN_POINT ( 'NONE',  ( 0.06249999999999993061, 1.500000000000000222, 7.654042494670926730E-18 ) ) ;
#16 = APPLICATION_PROTOCOL_DEFINITION ( 'draft international standard', 'automotive_design', 1998, #306 ) ;
#17 = CARTESIAN_POINT ( 'NONE',  ( 0.000000000000000000, 0.000000000000000000, 0.000000000000000000 ) ) ;
#18 = MANIFOLD_SOLID_BREP ( 'Revolve - Cutting Edge', #293 ) ;
#19 = CARTESIAN_POINT ( 'NONE',  ( -0.06249999999999940326, 0.5000000000000000000, 0.000000000000000000 ) ) ;
#20 =( LENGTH_UNIT ( ) NAMED_UNIT ( * ) SI_UNIT ( $, .METRE. ) );
#21 =( NAMED_UNIT ( * ) PLANE_ANGLE_UNIT ( ) SI_UNIT ( $, .RADIAN. ) );
#22 =( GEOMETRIC_REPRESENTATION_CONTEXT ( 3 ) GLOBAL_UNCERTAINTY_ASSIGNED_CONTEXT ( ( #192 ) ) GLOBAL_UNIT_ASSIGNED_CONTEXT ( ( #71, #231, #203 ) ) REPRESENTATION_CONTEXT ( 'NONE', 'WORKASPACE' ) );
#23 = FACE_OUTER_BOUND ( 'NONE', #199, .T. ) ;
#24 = LINE ( 'NONE', #131, #109 ) ;
#25 = FACE_OUTER_BOUND ( 'NONE', #138, .T. ) ;
#26 = LENGTH_MEASURE_WITH_UNIT ( LENGTH_MEASURE( 0.02539999999999999897 ), #162 );
#27 = CIRCLE ( 'NONE', #196, 0.06249999999999969469 ) ;
#28 = EDGE_CURVE ( 'NONE', #112, #323, #213, .T. ) ;
#29 = FILL_AREA_STYLE ('',( #246 ) ) ;
#30 = DIRECTION ( 'NONE',  ( 0.000000000000000000, 0.000000000000000000, -1.000000000000000000 ) ) ;
#31 = VECTOR ( 'NONE', #332, 39.37007874015748143 ) ;
#32 = COLOUR_RGB ( '',1.000000000000000000, 0.000000000000000000, 0.000000000000000000 ) ;
#33 =( CONVERSION_BASED_UNIT ( 'INCH', #222 ) LENGTH_UNIT ( ) NAMED_UNIT ( #55 ) );
#34 = ORIENTED_EDGE ( 'NONE', *, *, #197, .F. ) ;
#35 = DIMENSIONAL_EXPONENTS ( 1.000000000000000000, 0.000000000000000000, 0.000000000000000000, 0.000000000000000000, 0.000000000000000000, 0.000000000000000000, 0.000000000000000000 ) ;
#36 = CARTESIAN_POINT ( 'NONE',  ( 0.000000000000000000, 0.000000000000000000, 0.000000000000000000 ) ) ;
#37 = CARTESIAN_POINT ( 'NONE',  ( 7.654042494670956004E-18, 0.05244372694857978023, 0.06249999999999997918 ) ) ;
#38 = ORIENTED_EDGE ( 'NONE', *, *, #119, .F. ) ;
#39 = ORIENTED_EDGE ( 'NONE', *, *, #152, .T. ) ;
#40 =( NAMED_UNIT ( * ) PLANE_ANGLE_UNIT ( ) SI_UNIT ( $, .RADIAN. ) );
#41 = ORIENTED_EDGE ( 'NONE', *, *, #133, .F. ) ;
#42 = DIRECTION ( 'NONE',  ( 9.381338752702748037E-17, 0.6427876096865378086, -0.7660444431189793457 ) ) ;
#43 = STYLED_ITEM ( 'NONE', ( #97 ), #135 ) ;
#44 = UNCERTAINTY_MEASURE_WITH_UNIT (LENGTH_MEASURE( 1.000000000000000082E-05 ), #60, 'distance_accuracy_value', 'NONE');
#45 = AXIS2_PLACEMENT_3D ( 'NONE', #291, #104, #266 ) ;
#46 = DIRECTION ( 'NONE',  ( -0.000000000000000000, -1.000000000000000000, -0.000000000000000000 ) ) ;
#47 = DIRECTION ( 'NONE',  ( -1.000000000000000000, 0.000000000000000000, 0.000000000000000000 ) ) ;
#48 = SURFACE_SIDE_STYLE ('',( #94 ) ) ;
#49 = STYLED_ITEM ( 'NONE', ( #53 ), #300 ) ;
#50 = DIRECTION ( 'NONE',  ( 0.000000000000000000, 0.000000000000000000, -1.000000000000000000 ) ) ;
#51 =( NAMED_UNIT ( * ) SI_UNIT ( $, .STERADIAN. ) SOLID_ANGLE_UNIT ( ) );
#52 =( NAMED_UNIT ( * ) PLANE_ANGLE_UNIT ( ) SI_UNIT ( $, .RADIAN. ) );
#53 = PRESENTATION_STYLE_ASSIGNMENT (( #301 ) ) ;
#54 = CIRCLE ( 'NONE', #45, 0.06249999999999997918 ) ;
#55 = DIMENSIONAL_EXPONENTS ( 1.000000000000000000, 0.000000000000000000, 0.000000000000000000, 0.000000000000000000, 0.000000000000000000, 0.000000000000000000, 0.000000000000000000 ) ;
#56 =( LENGTH_UNIT ( ) NAMED_UNIT ( * ) SI_UNIT ( $, .METRE. ) );
#57 = FACE_OUTER_BOUND ( 'NONE', #224, .T. ) ;
#58 = UNCERTAINTY_MEASURE_WITH_UNIT (LENGTH_MEASURE( 1.000000000000000082E-05 ), #241, 'distance_accuracy_value', 'NONE');
#59 = PRODUCT_DEFINITION ( 'UNKNOWN', '', #163, #299 ) ;
#60 =( CONVERSION_BASED_UNIT ( 'INCH', #26 ) LENGTH_UNIT ( ) NAMED_UNIT ( #5 ) );
#61 = STYLED_ITEM ( 'NONE', ( #125 ), #108 ) ;
#62 = CIRCLE ( 'NONE', #178, 0.06249999999999997918 ) ;
#63 = ORIENTED_EDGE ( 'NONE', *, *, #194, .F. ) ;
#64 = EDGE_CURVE ( 'NONE', #10, #304, #320, .T. ) ;
#65 = DIRECTION ( 'NONE',  ( -1.000000000000000000, 0.000000000000000000, 0.000000000000000000 ) ) ;
#66 =( NAMED_UNIT ( * ) PLANE_ANGLE_UNIT ( ) SI_UNIT ( $, .RADIAN. ) );
#67 = DIRECTION ( 'NONE',  ( 0.000000000000000000, 0.000000000000000000, 1.000000000000000000 ) ) ;
#68 = ORIENTED_EDGE ( 'NONE', *, *, #88, .F. ) ;
#69 = MECHANICAL_DESIGN_GEOMETRIC_PRESENTATION_REPRESENTATION (  '', ( #43 ), #321 ) ;
#70 = SHAPE_DEFINITION_REPRESENTATION ( #115, #85 ) ;
#71 =( CONVERSION_BASED_UNIT ( 'INCH', #229 ) LENGTH_UNIT ( ) NAMED_UNIT ( #136 ) );
#72 = DIMENSIONAL_EXPONENTS ( 1.000000000000000000, 0.000000000000000000, 0.000000000000000000, 0.000000000000000000, 0.000000000000000000, 0.000000000000000000, 0.000000000000000000 ) ;
#73 = ORIENTED_EDGE ( 'NONE', *, *, #182, .F. ) ;
#74 = DIRECTION ( 'NONE',  ( 0.000000000000000000, 1.000000000000000000, 0.000000000000000000 ) ) ;
#75 = FILL_AREA_STYLE_COLOUR ( '', #275 ) ;
#76 =( LENGTH_UNIT ( ) NAMED_UNIT ( * ) SI_UNIT ( $, .METRE. ) );
#77 = FILL_AREA_STYLE ('',( #75 ) ) ;
#78 = CARTESIAN_POINT ( 'NONE',  ( 1.836970198721030181E-16, 1.500000000000000222, 0.000000000000000000 ) ) ;
#79 = LENGTH_MEASURE_WITH_UNIT ( LENGTH_MEASURE( 0.02539999999999999897 ), #290 );
#80 = SURFACE_STYLE_USAGE ( .BOTH. , #48 ) ;
#81 = CARTESIAN_POINT ( 'NONE',  ( 0.000000000000000000, 0.000000000000000000, 0.000000000000000000 ) ) ;
#82 = AXIS2_PLACEMENT_3D ( 'NONE', #81, #212, #187 ) ;
#83 = FILL_AREA_STYLE_COLOUR ( '', #156 ) ;
#84 =( CONVERSION_BASED_UNIT ( 'INCH', #217 ) LENGTH_UNIT ( ) NAMED_UNIT ( #150 ) );
#85 = ADVANCED_BREP_SHAPE_REPRESENTATION ( '83760', ( #18, #259, #295 ), #161 ) ;
#86 = SURFACE_STYLE_USAGE ( .BOTH. , #7 ) ;
#87 = UNCERTAINTY_MEASURE_WITH_UNIT (LENGTH_MEASURE( 1.000000000000000082E-05 ), #263, 'distance_accuracy_value', 'NONE');
#88 = EDGE_CURVE ( 'NONE', #227, #96, #269, .T. ) ;
#89 = ORIENTED_EDGE ( 'NONE', *, *, #12, .F. ) ;
#90 = DIRECTION ( 'NONE',  ( -1.065618294547249489E-16, 1.000000000000000000, 0.000000000000000000 ) ) ;
#91 = ORIENTED_EDGE ( 'NONE', *, *, #92, .T. ) ;
#92 = EDGE_CURVE ( 'NONE', #10, #323, #24, .T. ) ;
#93 = DIRECTION ( 'NONE',  ( -1.065618294547249612E-16, 1.000000000000000000, -0.000000000000000000 ) ) ;
#94 = SURFACE_STYLE_FILL_AREA ( #99 ) ;
#95 = FACE_OUTER_BOUND ( 'NONE', #337, .T. ) ;
#96 = VERTEX_POINT ( 'NONE', #242 ) ;
#97 = PRESENTATION_STYLE_ASSIGNMENT (( #313 ) ) ;
#98 = MECHANICAL_DESIGN_GEOMETRIC_PRESENTATION_REPRESENTATION (  '', ( #49 ), #303 ) ;
#99 = FILL_AREA_STYLE ('',( #341 ) ) ;
#100 = APPLICATION_PROTOCOL_DEFINITION ( 'draft international standard', 'automotive_design', 1998, #314 ) ;
#101 = DIRECTION ( 'NONE',  ( -1.065618294547249489E-16, 1.000000000000000000, -0.000000000000000000 ) ) ;
#102 = PLANE ( 'NONE',  #255 ) ;
#103 = PRESENTATION_LAYER_ASSIGNMENT (  '', '', ( #226 ) ) ;
#104 = DIRECTION ( 'NONE',  ( -0.000000000000000000, -1.000000000000000000, -0.000000000000000000 ) ) ;
#105 = CARTESIAN_POINT ( 'NONE',  ( 0.000000000000000000, 39.37007874015748143, 0.000000000000000000 ) ) ;
#106 = MECHANICAL_DESIGN_GEOMETRIC_PRESENTATION_REPRESENTATION (  '', ( #186 ), #110 ) ;
#107 = FILL_AREA_STYLE_COLOUR ( '', #346 ) ;
#108 = ADVANCED_FACE ( 'NONE', ( #349 ), #310, .T. ) ;
#109 = VECTOR ( 'NONE', #210, 39.37007874015748143 ) ;
#110 =( GEOMETRIC_REPRESENTATION_CONTEXT ( 3 ) GLOBAL_UNCERTAINTY_ASSIGNED_CONTEXT ( ( #124 ) ) GLOBAL_UNIT_ASSIGNED_CONTEXT ( ( #33, #250, #2 ) ) REPRESENTATION_CONTEXT ( 'NONE', 'WORKASPACE' ) );
#111 = FILL_AREA_STYLE ('',( #107 ) ) ;
#112 = VERTEX_POINT ( 'NONE', #17 ) ;
#113 = VECTOR ( 'NONE', #101, 39.37007874015748143 ) ;
#114 = CARTESIAN_POINT ( 'NONE',  ( 1.836970198721030181E-16, 1.500000000000000222, 0.000000000000000000 ) ) ;
#115 = PRODUCT_DEFINITION_SHAPE ( 'NONE', 'NONE',  #59 ) ;
#116 =( NAMED_UNIT ( * ) SI_UNIT ( $, .STERADIAN. ) SOLID_ANGLE_UNIT ( ) );
#117 = ORIENTED_EDGE ( 'NONE', *, *, #64, .T. ) ;
#118 = EDGE_LOOP ( 'NONE', ( #282, #307, #39 ) ) ;
#119 = EDGE_CURVE ( 'NONE', #312, #230, #27, .T. ) ;
#120 = CARTESIAN_POINT ( 'NONE',  ( 0.000000000000000000, 0.5000000000000000000, 0.000000000000000000 ) ) ;
#121 = PRESENTATION_LAYER_ASSIGNMENT (  '', '', ( #49 ) ) ;
#122 = CARTESIAN_POINT ( 'NONE',  ( 0.000000000000000000, 0.05244372694857978023, -0.06249999999999997918 ) ) ;
#123 = LINE ( 'NONE', #15, #113 ) ;
#124 = UNCERTAINTY_MEASURE_WITH_UNIT (LENGTH_MEASURE( 1.000000000000000082E-05 ), #33, 'distance_accuracy_value', 'NONE');
#125 = PRESENTATION_STYLE_ASSIGNMENT (( #289 ) ) ;
#126 = FILL_AREA_STYLE ('',( #153 ) ) ;
#127 =( NAMED_UNIT ( * ) PLANE_ANGLE_UNIT ( ) SI_UNIT ( $, .RADIAN. ) );
#128 =( GEOMETRIC_REPRESENTATION_CONTEXT ( 3 ) GLOBAL_UNCERTAINTY_ASSIGNED_CONTEXT ( ( #58 ) ) GLOBAL_UNIT_ASSIGNED_CONTEXT ( ( #241, #21, #51 ) ) REPRESENTATION_CONTEXT ( 'NONE', 'WORKASPACE' ) );
#129 = DIRECTION ( 'NONE',  ( -1.065618294547249612E-16, 1.000000000000000000, -0.000000000000000000 ) ) ;
#130 = DIRECTION ( 'NONE',  ( -1.000000000000000000, 0.000000000000000000, 0.000000000000000000 ) ) ;
#131 = CARTESIAN_POINT ( 'NONE',  ( 0.000000000000000000, 0.000000000000000000, -0.06249999999999997918 ) ) ;
#132 = SURFACE_STYLE_USAGE ( .BOTH. , #271 ) ;
#133 = EDGE_CURVE ( 'NONE', #312, #227, #123, .T. ) ;
#134 = COLOUR_RGB ( '',1.000000000000000000, 0.000000000000000000, 0.000000000000000000 ) ;
#135 = ADVANCED_FACE ( 'NONE', ( #252 ), #146, .T. ) ;
#136 = DIMENSIONAL_EXPONENTS ( 1.000000000000000000, 0.000000000000000000, 0.000000000000000000, 0.000000000000000000, 0.000000000000000000, 0.000000000000000000, 0.000000000000000000 ) ;
#137 = CARTESIAN_POINT ( 'NONE',  ( 0.000000000000000000, 39.37007874015748143, 0.000000000000000000 ) ) ;
#138 = EDGE_LOOP ( 'NONE', ( #172, #218 ) ) ;
#139 = PRODUCT_RELATED_PRODUCT_CATEGORY ( 'part', '', ( #335 ) ) ;
#140 = CARTESIAN_POINT ( 'NONE',  ( 0.000000000000000000, 0.5000000000000000000, -0.06249999999999997918 ) ) ;
#141 = DIRECTION ( 'NONE',  ( 0.000000000000000000, -0.000000000000000000, 1.000000000000000000 ) ) ;
#142 =( GEOMETRIC_REPRESENTATION_CONTEXT ( 3 ) GLOBAL_UNCERTAINTY_ASSIGNED_CONTEXT ( ( #149 ) ) GLOBAL_UNIT_ASSIGNED_CONTEXT ( ( #236, #127, #270 ) ) REPRESENTATION_CONTEXT ( 'NONE', 'WORKASPACE' ) );
#143 = AXIS2_PLACEMENT_3D ( 'NONE', #258, #288, #214 ) ;
#144 = ORIENTED_EDGE ( 'NONE', *, *, #28, .F. ) ;
#145 = LENGTH_MEASURE_WITH_UNIT ( LENGTH_MEASURE( 0.02539999999999999897 ), #342 );
#146 = PLANE ( 'NONE',  #311 ) ;
#147 = DIMENSIONAL_EXPONENTS ( 1.000000000000000000, 0.000000000000000000, 0.000000000000000000, 0.000000000000000000, 0.000000000000000000, 0.000000000000000000, 0.000000000000000000 ) ;
#148 = EDGE_LOOP ( 'NONE', ( #144, #206, #284 ) ) ;
#149 = UNCERTAINTY_MEASURE_WITH_UNIT (LENGTH_MEASURE( 1.000000000000000082E-05 ), #236, 'distance_accuracy_value', 'NONE');
#150 = DIMENSIONAL_EXPONENTS ( 1.000000000000000000, 0.000000000000000000, 0.000000000000000000, 0.000000000000000000, 0.000000000000000000, 0.000000000000000000, 0.000000000000000000 ) ;
#151 = SURFACE_STYLE_FILL_AREA ( #188 ) ;
#152 = EDGE_CURVE ( 'NONE', #323, #329, #62, .T. ) ;
#153 = FILL_AREA_STYLE_COLOUR ( '', #134 ) ;
#154 = CARTESIAN_POINT ( 'NONE',  ( 2.902588493268279793E-16, 0.5000000000000000000, 0.000000000000000000 ) ) ;
#155 = COLOUR_RGB ( '',1.000000000000000000, 0.000000000000000000, 0.000000000000000000 ) ;
#156 = COLOUR_RGB ( '',0.7921568627450980005, 0.8196078431372548767, 0.9333333333333333481 ) ;
#157 = CARTESIAN_POINT ( 'NONE',  ( 0.06249999999999997918, 1.500000000000000222, 7.654042494670929811E-18 ) ) ;
#158 = DIRECTION ( 'NONE',  ( -1.000000000000000000, 0.000000000000000000, 0.000000000000000000 ) ) ;
#159 = SURFACE_SIDE_STYLE ('',( #345 ) ) ;
#160 = DIRECTION ( 'NONE',  ( 0.000000000000000000, 0.000000000000000000, -1.000000000000000000 ) ) ;
#161 =( GEOMETRIC_REPRESENTATION_CONTEXT ( 3 ) GLOBAL_UNCERTAINTY_ASSIGNED_CONTEXT ( ( #87 ) ) GLOBAL_UNIT_ASSIGNED_CONTEXT ( ( #263, #66, #257 ) ) REPRESENTATION_CONTEXT ( 'NONE', 'WORKASPACE' ) );
#162 =( LENGTH_UNIT ( ) NAMED_UNIT ( * ) SI_UNIT ( $, .METRE. ) );
#163 = PRODUCT_DEFINITION_FORMATION_WITH_SPECIFIED_SOURCE ( 'ANY', '', #335, .NOT_KNOWN. ) ;
#164 = CARTESIAN_POINT ( 'NONE',  ( 0.06249999999999997918, 0.5000000000000000000, 7.654042494670929811E-18 ) ) ;
#165 = ADVANCED_FACE ( 'NONE', ( #95 ), #200, .T. ) ;
#166 = LINE ( 'NONE', #36, #31 ) ;
#167 = DIRECTION ( 'NONE',  ( 0.000000000000000000, 0.000000000000000000, 1.000000000000000000 ) ) ;
#168 = ORIENTED_EDGE ( 'NONE', *, *, #92, .F. ) ;
#169 =( LENGTH_UNIT ( ) NAMED_UNIT ( * ) SI_UNIT ( $, .METRE. ) );
#170 = AXIS2_PLACEMENT_3D ( 'NONE', #347, #272, #158 ) ;
#171 = MECHANICAL_DESIGN_GEOMETRIC_PRESENTATION_REPRESENTATION (  '', ( #278 ), #128 ) ;
#172 = ORIENTED_EDGE ( 'NONE', *, *, #12, .T. ) ;
#173 =( CONVERSION_BASED_UNIT ( 'INCH', #175 ) LENGTH_UNIT ( ) NAMED_UNIT ( #35 ) );
#174 = DIRECTION ( 'NONE',  ( -0.000000000000000000, -1.000000000000000000, -0.000000000000000000 ) ) ;
#175 = LENGTH_MEASURE_WITH_UNIT ( LENGTH_MEASURE( 0.02539999999999999897 ), #76 );
#176 = DIMENSIONAL_EXPONENTS ( 1.000000000000000000, 0.000000000000000000, 0.000000000000000000, 0.000000000000000000, 0.000000000000000000, 0.000000000000000000, 0.000000000000000000 ) ;
#177 = VECTOR ( 'NONE', #42, 39.37007874015748143 ) ;
#178 = AXIS2_PLACEMENT_3D ( 'NONE', #228, #174, #333 ) ;
#179 = FACE_OUTER_BOUND ( 'NONE', #9, .T. ) ;
#180 = PRESENTATION_STYLE_ASSIGNMENT (( #80 ) ) ;
#181 = CARTESIAN_POINT ( 'NONE',  ( 0.000000000000000000, 0.05244372694857978023, 0.000000000000000000 ) ) ;
#182 = EDGE_CURVE ( 'NONE', #230, #312, #221, .T. ) ;
#183 = DIRECTION ( 'NONE',  ( -0.000000000000000000, -1.000000000000000000, -0.000000000000000000 ) ) ;
#184 = MECHANICAL_DESIGN_GEOMETRIC_PRESENTATION_REPRESENTATION (  '', ( #4 ), #142 ) ;
#185 = EDGE_CURVE ( 'NONE', #304, #329, #350, .T. ) ;
#186 = STYLED_ITEM ( 'NONE', ( #277 ), #274 ) ;
#187 = DIRECTION ( 'NONE',  ( 0.000000000000000000, 0.000000000000000000, -1.000000000000000000 ) ) ;
#188 = FILL_AREA_STYLE ('',( #83 ) ) ;
#189 = DIRECTION ( 'NONE',  ( -0.000000000000000000, -1.000000000000000000, -0.000000000000000000 ) ) ;
#190 = CIRCLE ( 'NONE', #325, 0.06249999999999997918 ) ;
#191 = SURFACE_STYLE_FILL_AREA ( #29 ) ;
#192 = UNCERTAINTY_MEASURE_WITH_UNIT (LENGTH_MEASURE( 1.000000000000000082E-05 ), #71, 'distance_accuracy_value', 'NONE');
#193 = ORIENTED_EDGE ( 'NONE', *, *, #239, .T. ) ;
#194 = EDGE_CURVE ( 'NONE', #304, #10, #54, .T. ) ;
#195 =( LENGTH_UNIT ( ) NAMED_UNIT ( * ) SI_UNIT ( $, .METRE. ) );
#196 = AXIS2_PLACEMENT_3D ( 'NONE', #13, #93, #198 ) ;
#197 = EDGE_CURVE ( 'NONE', #329, #323, #190, .T. ) ;
#198 = DIRECTION ( 'NONE',  ( -1.000000000000000000, 0.000000000000000000, 0.000000000000000000 ) ) ;
#199 = EDGE_LOOP ( 'NONE', ( #279, #309, #89, #256 ) ) ;
#200 = CYLINDRICAL_SURFACE ( 'NONE', #143, 0.06249999999999974326 ) ;
#201 = ORIENTED_EDGE ( 'NONE', *, *, #64, .F. ) ;
#202 = DIRECTION ( 'NONE',  ( 0.000000000000000000, 1.000000000000000000, 0.000000000000000000 ) ) ;
#203 =( NAMED_UNIT ( * ) SI_UNIT ( $, .STERADIAN. ) SOLID_ANGLE_UNIT ( ) );
#204 = PRESENTATION_LAYER_ASSIGNMENT (  '', '', ( #43 ) ) ;
#205 = AXIS2_PLACEMENT_3D ( 'NONE', #322, #90, #245 ) ;
#206 = ORIENTED_EDGE ( 'NONE', *, *, #8, .T. ) ;
#207 = CARTESIAN_POINT ( 'NONE',  ( 0.000000000000000000, 0.5000000000000000000, 0.000000000000000000 ) ) ;
#208 = SURFACE_SIDE_STYLE ('',( #343 ) ) ;
#209 = CARTESIAN_POINT ( 'NONE',  ( 7.654042494670956004E-18, 0.000000000000000000, 0.06249999999999997918 ) ) ;
#210 = DIRECTION ( 'NONE',  ( -0.000000000000000000, -1.000000000000000000, -0.000000000000000000 ) ) ;
#211 = AXIS2_PLACEMENT_3D ( 'NONE', #154, #237, #130 ) ;
#212 = DIRECTION ( 'NONE',  ( -0.000000000000000000, -1.000000000000000000, -0.000000000000000000 ) ) ;
#213 = LINE ( 'NONE', #318, #177 ) ;
#214 = DIRECTION ( 'NONE',  ( -1.000000000000000000, 0.000000000000000000, 0.000000000000000000 ) ) ;
#215 = ADVANCED_FACE ( 'NONE', ( #23 ), #315, .T. ) ;
#216 = CYLINDRICAL_SURFACE ( 'NONE', #249, 0.06249999999999997918 ) ;
#217 = LENGTH_MEASURE_WITH_UNIT ( LENGTH_MEASURE( 0.02539999999999999897 ), #195 );
#218 = ORIENTED_EDGE ( 'NONE', *, *, #88, .T. ) ;
#219 = UNCERTAINTY_MEASURE_WITH_UNIT (LENGTH_MEASURE( 1.000000000000000082E-05 ), #84, 'distance_accuracy_value', 'NONE');
#220 = FACE_OUTER_BOUND ( 'NONE', #148, .T. ) ;
#221 = CIRCLE ( 'NONE', #211, 0.06249999999999969469 ) ;
#222 = LENGTH_MEASURE_WITH_UNIT ( LENGTH_MEASURE( 0.02539999999999999897 ), #56 );
#223 = FACE_OUTER_BOUND ( 'NONE', #285, .T. ) ;
#224 = EDGE_LOOP ( 'NONE', ( #117, #327, #260, #168 ) ) ;
#225 = DIRECTION ( 'NONE',  ( 0.000000000000000000, 0.000000000000000000, 1.000000000000000000 ) ) ;
#226 = STYLED_ITEM ( 'NONE', ( #240 ), #259 ) ;
#227 = VERTEX_POINT ( 'NONE', #157 ) ;
#228 = CARTESIAN_POINT ( 'NONE',  ( 0.000000000000000000, 0.05244372694857978023, 0.000000000000000000 ) ) ;
#229 = LENGTH_MEASURE_WITH_UNIT ( LENGTH_MEASURE( 0.02539999999999999897 ), #169 );
#230 = VERTEX_POINT ( 'NONE', #19 ) ;
#231 =( NAMED_UNIT ( * ) PLANE_ANGLE_UNIT ( ) SI_UNIT ( $, .RADIAN. ) );
#232 = AXIS2_PLACEMENT_3D ( 'NONE', #78, #129, #47 ) ;
#233 = FILL_AREA_STYLE_COLOUR ( '', #155 ) ;
#234 = ADVANCED_FACE ( 'NONE', ( #179 ), #319, .T. ) ;
#235 = SURFACE_SIDE_STYLE ('',( #151 ) ) ;
#236 =( CONVERSION_BASED_UNIT ( 'INCH', #294 ) LENGTH_UNIT ( ) NAMED_UNIT ( #147 ) );
#237 = DIRECTION ( 'NONE',  ( -1.065618294547249612E-16, 1.000000000000000000, -0.000000000000000000 ) ) ;
#238 = VECTOR ( 'NONE', #273, 39.37007874015748143 ) ;
#239 = EDGE_CURVE ( 'NONE', #230, #96, #297, .T. ) ;
#240 = PRESENTATION_STYLE_ASSIGNMENT (( #344 ) ) ;
#241 =( CONVERSION_BASED_UNIT ( 'INCH', #79 ) LENGTH_UNIT ( ) NAMED_UNIT ( #72 ) );
#242 = CARTESIAN_POINT ( 'NONE',  ( -0.06249999999999960448, 1.500000000000000222, 0.000000000000000000 ) ) ;
#243 = DIRECTION ( 'NONE',  ( -0.000000000000000000, -1.000000000000000000, -0.000000000000000000 ) ) ;
#244 = MECHANICAL_DESIGN_GEOMETRIC_PRESENTATION_REPRESENTATION (  '', ( #226 ), #6 ) ;
#245 = DIRECTION ( 'NONE',  ( -1.000000000000000000, -1.065618294547249489E-16, 0.000000000000000000 ) ) ;
#246 = FILL_AREA_STYLE_COLOUR ( '', #32 ) ;
#247 = PRESENTATION_LAYER_ASSIGNMENT (  '', '', ( #4 ) ) ;
#248 =( NAMED_UNIT ( * ) SI_UNIT ( $, .STERADIAN. ) SOLID_ANGLE_UNIT ( ) );
#249 = AXIS2_PLACEMENT_3D ( 'NONE', #326, #189, #30 ) ;
#250 =( NAMED_UNIT ( * ) PLANE_ANGLE_UNIT ( ) SI_UNIT ( $, .RADIAN. ) );
#251 = EDGE_LOOP ( 'NONE', ( #201, #63 ) ) ;
#252 = FACE_OUTER_BOUND ( 'NONE', #251, .T. ) ;
#253 = ADVANCED_FACE ( 'NONE', ( #25 ), #102, .F. ) ;
#254 = AXIS2_PLACEMENT_3D ( 'NONE', #120, #183, #50 ) ;
#255 = AXIS2_PLACEMENT_3D ( 'NONE', #348, #316, #268 ) ;
#256 = ORIENTED_EDGE ( 'NONE', *, *, #239, .F. ) ;
#257 =( NAMED_UNIT ( * ) SI_UNIT ( $, .STERADIAN. ) SOLID_ANGLE_UNIT ( ) );
#258 = CARTESIAN_POINT ( 'NONE',  ( 1.836970198721030181E-16, 1.500000000000000222, 0.000000000000000000 ) ) ;
#259 = MANIFOLD_SOLID_BREP ( 'Revolve - Tool Body (Straight Shanked)', #324 ) ;
#260 = ORIENTED_EDGE ( 'NONE', *, *, #152, .F. ) ;
#261 = PRODUCT_CONTEXT ( 'NONE', #306, 'mechanical' ) ;
#262 = DIRECTION ( 'NONE',  ( -1.065618294547249612E-16, 1.000000000000000000, -0.000000000000000000 ) ) ;
#263 =( CONVERSION_BASED_UNIT ( 'INCH', #145 ) LENGTH_UNIT ( ) NAMED_UNIT ( #176 ) );
#264 = DIRECTION ( 'NONE',  ( 0.000000000000000000, 1.000000000000000000, 0.000000000000000000 ) ) ;
#265 = MECHANICAL_DESIGN_GEOMETRIC_PRESENTATION_REPRESENTATION (  '', ( #61 ), #22 ) ;
#266 = DIRECTION ( 'NONE',  ( 0.000000000000000000, 0.000000000000000000, -1.000000000000000000 ) ) ;
#267 = SURFACE_STYLE_FILL_AREA ( #126 ) ;
#268 = DIRECTION ( 'NONE',  ( 1.000000000000000000, 1.065618294547249489E-16, 0.000000000000000000 ) ) ;
#269 = CIRCLE ( 'NONE', #170, 0.06249999999999979183 ) ;
#270 =( NAMED_UNIT ( * ) SI_UNIT ( $, .STERADIAN. ) SOLID_ANGLE_UNIT ( ) );
#271 = SURFACE_SIDE_STYLE ('',( #267 ) ) ;
#272 = DIRECTION ( 'NONE',  ( -1.065618294547249612E-16, 1.000000000000000000, -0.000000000000000000 ) ) ;
#273 = DIRECTION ( 'NONE',  ( -1.065618294547249489E-16, 1.000000000000000000, -0.000000000000000000 ) ) ;
#274 = ADVANCED_FACE ( 'NONE', ( #57 ), #216, .T. ) ;
#275 = COLOUR_RGB ( '',1.000000000000000000, 0.000000000000000000, 0.000000000000000000 ) ;
#276 =( NAMED_UNIT ( * ) PLANE_ANGLE_UNIT ( ) SI_UNIT ( $, .RADIAN. ) );
#277 = PRESENTATION_STYLE_ASSIGNMENT (( #86 ) ) ;
#278 = STYLED_ITEM ( 'NONE', ( #317 ), #234 ) ;
#279 = ORIENTED_EDGE ( 'NONE', *, *, #182, .T. ) ;
#280 = DIRECTION ( 'NONE',  ( 1.000000000000000000, 0.000000000000000000, 0.000000000000000000 ) ) ;
#281 = CARTESIAN_POINT ( 'NONE',  ( 0.000000000000000000, 0.000000000000000000, 0.000000000000000000 ) ) ;
#282 = ORIENTED_EDGE ( 'NONE', *, *, #8, .F. ) ;
#283 = PRESENTATION_LAYER_ASSIGNMENT (  '', '', ( #61 ) ) ;
#284 = ORIENTED_EDGE ( 'NONE', *, *, #197, .T. ) ;
#285 = EDGE_LOOP ( 'NONE', ( #73, #38 ) ) ;
#286 = ADVANCED_FACE ( 'NONE', ( #223 ), #298, .F. ) ;
#287 = CONICAL_SURFACE ( 'NONE', #351, 46.91943277929979672, 0.8726646259971667652 ) ;
#288 = DIRECTION ( 'NONE',  ( -1.065618294547249612E-16, 1.000000000000000000, -0.000000000000000000 ) ) ;
#289 = SURFACE_STYLE_USAGE ( .BOTH. , #159 ) ;
#290 =( LENGTH_UNIT ( ) NAMED_UNIT ( * ) SI_UNIT ( $, .METRE. ) );
#291 = CARTESIAN_POINT ( 'NONE',  ( 0.000000000000000000, 0.5000000000000000000, 0.000000000000000000 ) ) ;
#292 = CIRCLE ( 'NONE', #338, 0.06249999999999979183 ) ;
#293 = CLOSED_SHELL ( 'NONE', ( #108, #274, #135, #234, #300 ) ) ;
#294 = LENGTH_MEASURE_WITH_UNIT ( LENGTH_MEASURE( 0.02539999999999999897 ), #20 );
#295 = AXIS2_PLACEMENT_3D ( 'NONE', #281, #225, #280 ) ;
#296 = CARTESIAN_POINT ( 'NONE',  ( -0.06249999999999955591, 1.500000000000000222, 0.000000000000000000 ) ) ;
#297 = LINE ( 'NONE', #296, #238 ) ;
#298 = PLANE ( 'NONE',  #205 ) ;
#299 = PRODUCT_DEFINITION_CONTEXT ( 'detailed design', #314, 'design' ) ;
#300 = ADVANCED_FACE ( 'NONE', ( #220 ), #287, .T. ) ;
#301 = SURFACE_STYLE_USAGE ( .BOTH. , #1 ) ;
#302 = COLOUR_RGB ( '',0.7921568627450980005, 0.8196078431372548767, 0.9333333333333333481 ) ;
#303 =( GEOMETRIC_REPRESENTATION_CONTEXT ( 3 ) GLOBAL_UNCERTAINTY_ASSIGNED_CONTEXT ( ( #219 ) ) GLOBAL_UNIT_ASSIGNED_CONTEXT ( ( #84, #276, #305 ) ) REPRESENTATION_CONTEXT ( 'NONE', 'WORKASPACE' ) );
#304 = VERTEX_POINT ( 'NONE', #308 ) ;
#305 =( NAMED_UNIT ( * ) SI_UNIT ( $, .STERADIAN. ) SOLID_ANGLE_UNIT ( ) );
#306 = APPLICATION_CONTEXT ( 'automotive_design' ) ;
#307 = ORIENTED_EDGE ( 'NONE', *, *, #28, .T. ) ;
#308 = CARTESIAN_POINT ( 'NONE',  ( 7.654042494670956004E-18, 0.5000000000000000000, 0.06249999999999997918 ) ) ;
#309 = ORIENTED_EDGE ( 'NONE', *, *, #133, .T. ) ;
#310 = CONICAL_SURFACE ( 'NONE', #330, 46.91943277929979672, 0.8726646259971667652 ) ;
#311 = AXIS2_PLACEMENT_3D ( 'NONE', #207, #74, #141 ) ;
#312 = VERTEX_POINT ( 'NONE', #164 ) ;
#313 = SURFACE_STYLE_USAGE ( .BOTH. , #208 ) ;
#314 = APPLICATION_CONTEXT ( 'automotive_design' ) ;
#315 = CYLINDRICAL_SURFACE ( 'NONE', #232, 0.06249999999999974326 ) ;
#316 = DIRECTION ( 'NONE',  ( 1.065618294547249489E-16, -1.000000000000000000, 0.000000000000000000 ) ) ;
#317 = PRESENTATION_STYLE_ASSIGNMENT (( #132 ) ) ;
#318 = CARTESIAN_POINT ( 'NONE',  ( 0.000000000000000000, 0.000000000000000000, 0.000000000000000000 ) ) ;
#319 = CYLINDRICAL_SURFACE ( 'NONE', #82, 0.06249999999999997918 ) ;
#320 = CIRCLE ( 'NONE', #254, 0.06249999999999997918 ) ;
#321 =( GEOMETRIC_REPRESENTATION_CONTEXT ( 3 ) GLOBAL_UNCERTAINTY_ASSIGNED_CONTEXT ( ( #3 ) ) GLOBAL_UNIT_ASSIGNED_CONTEXT ( ( #173, #40, #116 ) ) REPRESENTATION_CONTEXT ( 'NONE', 'WORKASPACE' ) );
#322 = CARTESIAN_POINT ( 'NONE',  ( 2.902588493268279793E-16, 0.5000000000000000000, 0.000000000000000000 ) ) ;
#323 = VERTEX_POINT ( 'NONE', #122 ) ;
#324 = CLOSED_SHELL ( 'NONE', ( #215, #286, #165, #253 ) ) ;
#325 = AXIS2_PLACEMENT_3D ( 'NONE', #181, #243, #160 ) ;
#326 = CARTESIAN_POINT ( 'NONE',  ( 0.000000000000000000, 0.000000000000000000, 0.000000000000000000 ) ) ;
#327 = ORIENTED_EDGE ( 'NONE', *, *, #185, .T. ) ;
#328 = SURFACE_STYLE_FILL_AREA ( #111 ) ;
#329 = VERTEX_POINT ( 'NONE', #37 ) ;
#330 = AXIS2_PLACEMENT_3D ( 'NONE', #105, #264, #67 ) ;
#331 = PRESENTATION_LAYER_ASSIGNMENT (  '', '', ( #186 ) ) ;
#332 = DIRECTION ( 'NONE',  ( 0.000000000000000000, 0.6427876096865378086, 0.7660444431189793457 ) ) ;
#333 = DIRECTION ( 'NONE',  ( 0.000000000000000000, 0.000000000000000000, -1.000000000000000000 ) ) ;
#334 = ORIENTED_EDGE ( 'NONE', *, *, #185, .F. ) ;
#335 = PRODUCT ( '83760', '83760', '', ( #261 ) ) ;
#336 = FILL_AREA_STYLE ('',( #233 ) ) ;
#337 = EDGE_LOOP ( 'NONE', ( #41, #14, #193, #68 ) ) ;
#338 = AXIS2_PLACEMENT_3D ( 'NONE', #114, #262, #65 ) ;
#339 = PRESENTATION_LAYER_ASSIGNMENT (  '', '', ( #278 ) ) ;
#340 = VECTOR ( 'NONE', #46, 39.37007874015748143 ) ;
#341 = FILL_AREA_STYLE_COLOUR ( '', #302 ) ;
#342 =( LENGTH_UNIT ( ) NAMED_UNIT ( * ) SI_UNIT ( $, .METRE. ) );
#343 = SURFACE_STYLE_FILL_AREA ( #336 ) ;
#344 = SURFACE_STYLE_USAGE ( .BOTH. , #235 ) ;
#345 = SURFACE_STYLE_FILL_AREA ( #77 ) ;
#346 = COLOUR_RGB ( '',1.000000000000000000, 0.000000000000000000, 0.000000000000000000 ) ;
#347 = CARTESIAN_POINT ( 'NONE',  ( 1.836970198721030181E-16, 1.500000000000000222, 0.000000000000000000 ) ) ;
#348 = CARTESIAN_POINT ( 'NONE',  ( 0.06249999999999997918, 1.500000000000000222, 0.000000000000000000 ) ) ;
#349 = FACE_OUTER_BOUND ( 'NONE', #118, .T. ) ;
#350 = LINE ( 'NONE', #209, #340 ) ;
#351 = AXIS2_PLACEMENT_3D ( 'NONE', #137, #202, #167 ) ;
ENDSEC;
END-ISO-10303-21;
