ISO-10303-21;
HEADER;
FILE_DESCRIPTION (( 'STEP AP214' ),
    '1' );
FILE_NAME ('07019.STEP',
    '2023-07-12T13:05:07',
    ( '' ),
    ( '' ),
    'SwSTEP 2.0',
    'SolidWorks 2023',
    '' );
FILE_SCHEMA (( 'AUTOMOTIVE_DESIGN' ));
ENDSEC;

DATA;
#1 = LINE ( 'NONE', #291, #125 ) ;
#2 =( GEOMETRIC_REPRESENTATION_CONTEXT ( 3 ) GLOBAL_UNCERTAINTY_ASSIGNED_CONTEXT ( ( #69 ) ) GLOBAL_UNIT_ASSIGNED_CONTEXT ( ( #299, #11, #156 ) ) REPRESENTATION_CONTEXT ( 'NONE', 'WORKASPACE' ) );
#3 = FACE_OUTER_BOUND ( 'NONE', #22, .T. ) ;
#4 = DIRECTION ( 'NONE',  ( -7.727494760452073194E-18, -1.000000000000000000, -0.000000000000000000 ) ) ;
#5 = DIRECTION ( 'NONE',  ( -1.000000000000000000, 0.000000000000000000, 0.000000000000000000 ) ) ;
#6 = DIRECTION ( 'NONE',  ( -1.000000000000000000, -1.431940337298288554E-16, 0.000000000000000000 ) ) ;
#7 = AXIS2_PLACEMENT_3D ( 'NONE', #189, #76, #6 ) ;
#8 = AXIS2_PLACEMENT_3D ( 'NONE', #62, #180, #175 ) ;
#9 =( NAMED_UNIT ( * ) PLANE_ANGLE_UNIT ( ) SI_UNIT ( $, .RADIAN. ) );
#10 = CARTESIAN_POINT ( 'NONE',  ( 0.3749999999999998335, 3.000000000000000444, 4.592425496802572986E-17 ) ) ;
#11 =( NAMED_UNIT ( * ) PLANE_ANGLE_UNIT ( ) SI_UNIT ( $, .RADIAN. ) );
#12 =( CONVERSION_BASED_UNIT ( 'INCH', #77 ) LENGTH_UNIT ( ) NAMED_UNIT ( #281 ) );
#13 = ORIENTED_EDGE ( 'NONE', *, *, #14, .T. ) ;
#14 = EDGE_CURVE ( 'NONE', #132, #130, #19, .T. ) ;
#15 =( LENGTH_UNIT ( ) NAMED_UNIT ( * ) SI_UNIT ( $, .METRE. ) );
#16 = CIRCLE ( 'NONE', #224, 0.3750000000000001110 ) ;
#17 = EDGE_LOOP ( 'NONE', ( #105, #221 ) ) ;
#18 = APPLICATION_PROTOCOL_DEFINITION ( 'draft international standard', 'automotive_design', 1998, #192 ) ;
#19 = LINE ( 'NONE', #79, #92 ) ;
#20 = STYLED_ITEM ( 'NONE', ( #273 ), #90 ) ;
#21 = CYLINDRICAL_SURFACE ( 'NONE', #208, 0.3749999999999998890 ) ;
#22 = EDGE_LOOP ( 'NONE', ( #282, #290 ) ) ;
#23 = DIMENSIONAL_EXPONENTS ( 1.000000000000000000, 0.000000000000000000, 0.000000000000000000, 0.000000000000000000, 0.000000000000000000, 0.000000000000000000, 0.000000000000000000 ) ;
#24 = DIRECTION ( 'NONE',  ( -7.727494760452073194E-18, -1.000000000000000000, -0.000000000000000000 ) ) ;
#25 = ORIENTED_EDGE ( 'NONE', *, *, #304, .T. ) ;
#26 =( GEOMETRIC_REPRESENTATION_CONTEXT ( 3 ) GLOBAL_UNCERTAINTY_ASSIGNED_CONTEXT ( ( #277 ) ) GLOBAL_UNIT_ASSIGNED_CONTEXT ( ( #283, #86, #170 ) ) REPRESENTATION_CONTEXT ( 'NONE', 'WORKASPACE' ) );
#27 = STYLED_ITEM ( 'NONE', ( #163 ), #114 ) ;
#28 = APPLICATION_CONTEXT ( 'automotive_design' ) ;
#29 = UNCERTAINTY_MEASURE_WITH_UNIT (LENGTH_MEASURE( 1.000000000000000082E-05 ), #244, 'distance_accuracy_value', 'NONE');
#30 =( NAMED_UNIT ( * ) SI_UNIT ( $, .STERADIAN. ) SOLID_ANGLE_UNIT ( ) );
#31 = CIRCLE ( 'NONE', #70, 0.3750000000000000555 ) ;
#32 = CARTESIAN_POINT ( 'NONE',  ( 1.449978133535231054E-18, 0.1876388374866273800, 0.000000000000000000 ) ) ;
#33 = CARTESIAN_POINT ( 'NONE',  ( -0.3749999999999993339, 0.1876388374866271580, 0.000000000000000000 ) ) ;
#34 =( GEOMETRIC_REPRESENTATION_CONTEXT ( 3 ) GLOBAL_UNCERTAINTY_ASSIGNED_CONTEXT ( ( #29 ) ) GLOBAL_UNIT_ASSIGNED_CONTEXT ( ( #244, #9, #270 ) ) REPRESENTATION_CONTEXT ( 'NONE', 'WORKASPACE' ) );
#35 = VERTEX_POINT ( 'NONE', #219 ) ;
#36 = AXIS2_PLACEMENT_3D ( 'NONE', #229, #24, #166 ) ;
#37 = PLANE ( 'NONE',  #194 ) ;
#38 = ORIENTED_EDGE ( 'NONE', *, *, #96, .T. ) ;
#39 = SURFACE_SIDE_STYLE ('',( #58 ) ) ;
#40 = ORIENTED_EDGE ( 'NONE', *, *, #201, .T. ) ;
#41 = SURFACE_STYLE_USAGE ( .BOTH. , #43 ) ;
#42 = ORIENTED_EDGE ( 'NONE', *, *, #172, .T. ) ;
#43 = SURFACE_SIDE_STYLE ('',( #106 ) ) ;
#44 =( NAMED_UNIT ( * ) SI_UNIT ( $, .STERADIAN. ) SOLID_ANGLE_UNIT ( ) );
#45 =( LENGTH_UNIT ( ) NAMED_UNIT ( * ) SI_UNIT ( $, .METRE. ) );
#46 = CARTESIAN_POINT ( 'NONE',  ( 0.3750000000000000555, 0.1876388374866273800, 4.592425496802575451E-17 ) ) ;
#47 = PRODUCT_DEFINITION_SHAPE ( 'NONE', 'NONE',  #153 ) ;
#48 = PRESENTATION_LAYER_ASSIGNMENT (  '', '', ( #20 ) ) ;
#49 = SURFACE_SIDE_STYLE ('',( #206 ) ) ;
#50 = DIRECTION ( 'NONE',  ( -0.8660254037844397068, 0.4999999999999979461, 0.000000000000000000 ) ) ;
#51 = FILL_AREA_STYLE ('',( #143 ) ) ;
#52 = EDGE_CURVE ( 'NONE', #160, #249, #268, .T. ) ;
#53 = DIRECTION ( 'NONE',  ( -1.000000000000000000, -1.821231995776177205E-16, 0.000000000000000000 ) ) ;
#54 = LINE ( 'NONE', #146, #102 ) ;
#55 = FACE_OUTER_BOUND ( 'NONE', #200, .T. ) ;
#56 = PRESENTATION_STYLE_ASSIGNMENT (( #41 ) ) ;
#57 = SURFACE_STYLE_USAGE ( .BOTH. , #107 ) ;
#58 = SURFACE_STYLE_FILL_AREA ( #177 ) ;
#59 = DIRECTION ( 'NONE',  ( 0.000000000000000000, 0.000000000000000000, 1.000000000000000000 ) ) ;
#60 = FILL_AREA_STYLE ('',( #279 ) ) ;
#61 = PRESENTATION_LAYER_ASSIGNMENT (  '', '', ( #124 ) ) ;
#62 = CARTESIAN_POINT ( 'NONE',  ( -6.123233995736770966E-17, 3.000000000000000444, 0.000000000000000000 ) ) ;
#63 = MECHANICAL_DESIGN_GEOMETRIC_PRESENTATION_REPRESENTATION (  '', ( #89 ), #269 ) ;
#64 = PRESENTATION_LAYER_ASSIGNMENT (  '', '', ( #117 ) ) ;
#65 = ORIENTED_EDGE ( 'NONE', *, *, #52, .T. ) ;
#66 = ORIENTED_EDGE ( 'NONE', *, *, #257, .F. ) ;
#67 = ORIENTED_EDGE ( 'NONE', *, *, #116, .F. ) ;
#68 = DIMENSIONAL_EXPONENTS ( 1.000000000000000000, 0.000000000000000000, 0.000000000000000000, 0.000000000000000000, 0.000000000000000000, 0.000000000000000000, 0.000000000000000000 ) ;
#69 = UNCERTAINTY_MEASURE_WITH_UNIT (LENGTH_MEASURE( 1.000000000000000082E-05 ), #299, 'distance_accuracy_value', 'NONE');
#70 = AXIS2_PLACEMENT_3D ( 'NONE', #32, #94, #243 ) ;
#71 = FILL_AREA_STYLE_COLOUR ( '', #81 ) ;
#72 =( LENGTH_UNIT ( ) NAMED_UNIT ( * ) SI_UNIT ( $, .METRE. ) );
#73 = CARTESIAN_POINT ( 'NONE',  ( 0.3750000000000000555, 0.1876388374866272968, 4.592425496802573602E-17 ) ) ;
#74 = LENGTH_MEASURE_WITH_UNIT ( LENGTH_MEASURE( 0.02539999999999999897 ), #237 );
#75 = DIRECTION ( 'NONE',  ( -1.431940337298288554E-16, 1.000000000000000000, -0.000000000000000000 ) ) ;
#76 = DIRECTION ( 'NONE',  ( -1.431940337298288554E-16, 1.000000000000000000, 0.000000000000000000 ) ) ;
#77 = LENGTH_MEASURE_WITH_UNIT ( LENGTH_MEASURE( 0.02539999999999999897 ), #78 );
#78 =( LENGTH_UNIT ( ) NAMED_UNIT ( * ) SI_UNIT ( $, .METRE. ) );
#79 = CARTESIAN_POINT ( 'NONE',  ( 0.05000000000000000278, 0.000000000000000000, 6.123233995736766344E-18 ) ) ;
#80 = CIRCLE ( 'NONE', #260, 0.05000000000000000278 ) ;
#81 = COLOUR_RGB ( '',1.000000000000000000, 0.000000000000000000, 0.000000000000000000 ) ;
#82 = DIMENSIONAL_EXPONENTS ( 1.000000000000000000, 0.000000000000000000, 0.000000000000000000, 0.000000000000000000, 0.000000000000000000, 0.000000000000000000, 0.000000000000000000 ) ;
#83 = PRODUCT_RELATED_PRODUCT_CATEGORY ( 'part', '', ( #84 ) ) ;
#84 = PRODUCT ( '07019', '07019', '', ( #250 ) ) ;
#85 = COLOUR_RGB ( '',0.7921568627450980005, 0.8196078431372548767, 0.9333333333333333481 ) ;
#86 =( NAMED_UNIT ( * ) PLANE_ANGLE_UNIT ( ) SI_UNIT ( $, .RADIAN. ) );
#87 = DIRECTION ( 'NONE',  ( -1.000000000000000000, 7.727494760452073194E-18, 0.000000000000000000 ) ) ;
#88 = CIRCLE ( 'NONE', #155, 0.3749999999999996669 ) ;
#89 = STYLED_ITEM ( 'NONE', ( #222 ), #97 ) ;
#90 = ADVANCED_FACE ( 'NONE', ( #294 ), #246, .T. ) ;
#91 = CARTESIAN_POINT ( 'NONE',  ( 2.985708763640712371E-36, 3.863747380226036597E-19, 0.000000000000000000 ) ) ;
#92 = VECTOR ( 'NONE', #127, 39.37007874015748854 ) ;
#93 = AXIS2_PLACEMENT_3D ( 'NONE', #272, #59, #154 ) ;
#94 = DIRECTION ( 'NONE',  ( -7.727494760452073194E-18, -1.000000000000000000, -0.000000000000000000 ) ) ;
#95 = PRESENTATION_STYLE_ASSIGNMENT (( #168 ) ) ;
#96 = EDGE_CURVE ( 'NONE', #223, #249, #149, .T. ) ;
#97 = MANIFOLD_SOLID_BREP ( 'Revolve - Cutting Edge', #289 ) ;
#98 = LENGTH_MEASURE_WITH_UNIT ( LENGTH_MEASURE( 0.02539999999999999897 ), #266 );
#99 = CARTESIAN_POINT ( 'NONE',  ( 2.985708763640712371E-36, 3.863747380226036597E-19, 0.000000000000000000 ) ) ;
#100 = DIRECTION ( 'NONE',  ( 1.000000000000000000, 1.431940337298288554E-16, 0.000000000000000000 ) ) ;
#101 = DIRECTION ( 'NONE',  ( -1.431940337298288554E-16, 1.000000000000000000, -0.000000000000000000 ) ) ;
#102 = VECTOR ( 'NONE', #242, 39.37007874015748143 ) ;
#103 = EDGE_LOOP ( 'NONE', ( #40, #65, #248, #135 ) ) ;
#104 = DIRECTION ( 'NONE',  ( -1.431940337298288554E-16, 1.000000000000000000, -0.000000000000000000 ) ) ;
#105 = ORIENTED_EDGE ( 'NONE', *, *, #122, .T. ) ;
#106 = SURFACE_STYLE_FILL_AREA ( #126 ) ;
#107 = SURFACE_SIDE_STYLE ('',( #228 ) ) ;
#108 = FACE_OUTER_BOUND ( 'NONE', #17, .T. ) ;
#109 = VERTEX_POINT ( 'NONE', #232 ) ;
#110 = FACE_OUTER_BOUND ( 'NONE', #241, .T. ) ;
#111 =( GEOMETRIC_REPRESENTATION_CONTEXT ( 3 ) GLOBAL_UNCERTAINTY_ASSIGNED_CONTEXT ( ( #115 ) ) GLOBAL_UNIT_ASSIGNED_CONTEXT ( ( #12, #193, #190 ) ) REPRESENTATION_CONTEXT ( 'NONE', 'WORKASPACE' ) );
#112 = DIMENSIONAL_EXPONENTS ( 1.000000000000000000, 0.000000000000000000, 0.000000000000000000, 0.000000000000000000, 0.000000000000000000, 0.000000000000000000, 0.000000000000000000 ) ;
#113 = MECHANICAL_DESIGN_GEOMETRIC_PRESENTATION_REPRESENTATION (  '', ( #117 ), #217 ) ;
#114 = ADVANCED_FACE ( 'NONE', ( #159 ), #247, .T. ) ;
#115 = UNCERTAINTY_MEASURE_WITH_UNIT (LENGTH_MEASURE( 1.000000000000000082E-05 ), #12, 'distance_accuracy_value', 'NONE');
#116 = EDGE_CURVE ( 'NONE', #35, #130, #147, .T. ) ;
#117 = STYLED_ITEM ( 'NONE', ( #95 ), #220 ) ;
#118 = DIRECTION ( 'NONE',  ( -7.727494760452073194E-18, -1.000000000000000000, -0.000000000000000000 ) ) ;
#119 = CYLINDRICAL_SURFACE ( 'NONE', #162, 0.3749999999999998890 ) ;
#120 = SURFACE_SIDE_STYLE ('',( #142 ) ) ;
#121 =( GEOMETRIC_REPRESENTATION_CONTEXT ( 3 ) GLOBAL_UNCERTAINTY_ASSIGNED_CONTEXT ( ( #230 ) ) GLOBAL_UNIT_ASSIGNED_CONTEXT ( ( #141, #255, #44 ) ) REPRESENTATION_CONTEXT ( 'NONE', 'WORKASPACE' ) );
#122 = EDGE_CURVE ( 'NONE', #109, #132, #236, .T. ) ;
#123 = FACE_OUTER_BOUND ( 'NONE', #195, .T. ) ;
#124 = STYLED_ITEM ( 'NONE', ( #56 ), #288 ) ;
#125 = VECTOR ( 'NONE', #50, 39.37007874015748854 ) ;
#126 = FILL_AREA_STYLE ('',( #128 ) ) ;
#127 = DIRECTION ( 'NONE',  ( 0.8660254037844397068, 0.4999999999999979461, 1.060575238724908024E-16 ) ) ;
#128 = FILL_AREA_STYLE_COLOUR ( '', #240 ) ;
#129 = FILL_AREA_STYLE_COLOUR ( '', #210 ) ;
#130 = VERTEX_POINT ( 'NONE', #46 ) ;
#131 = SURFACE_STYLE_USAGE ( .BOTH. , #39 ) ;
#132 = VERTEX_POINT ( 'NONE', #258 ) ;
#133 = CARTESIAN_POINT ( 'NONE',  ( 1.492854381820356186E-36, 1.931873690113018298E-19, 0.000000000000000000 ) ) ;
#134 = DIRECTION ( 'NONE',  ( -1.000000000000000000, 7.727494760452073194E-18, 0.000000000000000000 ) ) ;
#135 = ORIENTED_EDGE ( 'NONE', *, *, #239, .F. ) ;
#136 = ADVANCED_FACE ( 'NONE', ( #110 ), #181, .T. ) ;
#137 = DIRECTION ( 'NONE',  ( 7.727494760452073194E-18, 1.000000000000000000, 0.000000000000000000 ) ) ;
#138 =( CONVERSION_BASED_UNIT ( 'INCH', #226 ) LENGTH_UNIT ( ) NAMED_UNIT ( #23 ) );
#139 = SURFACE_SIDE_STYLE ('',( #305 ) ) ;
#140 = DIRECTION ( 'NONE',  ( 1.000000000000000000, 0.000000000000000000, 0.000000000000000000 ) ) ;
#141 =( CONVERSION_BASED_UNIT ( 'INCH', #309 ) LENGTH_UNIT ( ) NAMED_UNIT ( #68 ) );
#142 = SURFACE_STYLE_FILL_AREA ( #51 ) ;
#143 = FILL_AREA_STYLE_COLOUR ( '', #85 ) ;
#144 = ADVANCED_FACE ( 'NONE', ( #3 ), #287, .F. ) ;
#145 = DIRECTION ( 'NONE',  ( -1.000000000000000000, 7.727494760452073194E-18, 0.000000000000000000 ) ) ;
#146 = CARTESIAN_POINT ( 'NONE',  ( -0.3749999999999999445, 3.000000000000000444, 0.000000000000000000 ) ) ;
#147 = CIRCLE ( 'NONE', #303, 0.3750000000000000555 ) ;
#148 = ORIENTED_EDGE ( 'NONE', *, *, #214, .T. ) ;
#149 = CIRCLE ( 'NONE', #8, 0.3750000000000001110 ) ;
#150 = EDGE_CURVE ( 'NONE', #132, #109, #80, .T. ) ;
#151 = ORIENTED_EDGE ( 'NONE', *, *, #150, .F. ) ;
#152 = CARTESIAN_POINT ( 'NONE',  ( -6.123233995736772199E-17, 3.000000000000000444, 0.000000000000000000 ) ) ;
#153 = PRODUCT_DEFINITION ( 'UNKNOWN', '', #256, #302 ) ;
#154 = DIRECTION ( 'NONE',  ( 1.000000000000000000, 0.000000000000000000, 0.000000000000000000 ) ) ;
#155 = AXIS2_PLACEMENT_3D ( 'NONE', #174, #104, #276 ) ;
#156 =( NAMED_UNIT ( * ) SI_UNIT ( $, .STERADIAN. ) SOLID_ANGLE_UNIT ( ) );
#157 = UNCERTAINTY_MEASURE_WITH_UNIT (LENGTH_MEASURE( 1.000000000000000082E-05 ), #238, 'distance_accuracy_value', 'NONE');
#158 = VERTEX_POINT ( 'NONE', #33 ) ;
#159 = FACE_OUTER_BOUND ( 'NONE', #252, .T. ) ;
#160 = VERTEX_POINT ( 'NONE', #73 ) ;
#161 = PRESENTATION_STYLE_ASSIGNMENT (( #182 ) ) ;
#162 = AXIS2_PLACEMENT_3D ( 'NONE', #209, #171, #5 ) ;
#163 = PRESENTATION_STYLE_ASSIGNMENT (( #184 ) ) ;
#164 = PRESENTATION_LAYER_ASSIGNMENT (  '', '', ( #89 ) ) ;
#165 = AXIS2_PLACEMENT_3D ( 'NONE', #186, #75, #53 ) ;
#166 = DIRECTION ( 'NONE',  ( 1.000000000000000000, -7.727494760452073194E-18, 0.000000000000000000 ) ) ;
#167 = AXIS2_PLACEMENT_3D ( 'NONE', #207, #218, #100 ) ;
#168 = SURFACE_STYLE_USAGE ( .BOTH. , #120 ) ;
#169 = MECHANICAL_DESIGN_GEOMETRIC_PRESENTATION_REPRESENTATION (  '', ( #27 ), #121 ) ;
#170 =( NAMED_UNIT ( * ) SI_UNIT ( $, .STERADIAN. ) SOLID_ANGLE_UNIT ( ) );
#171 = DIRECTION ( 'NONE',  ( -1.431940337298288554E-16, 1.000000000000000000, -0.000000000000000000 ) ) ;
#172 = EDGE_CURVE ( 'NONE', #109, #35, #1, .T. ) ;
#173 = FACE_OUTER_BOUND ( 'NONE', #103, .T. ) ;
#174 = CARTESIAN_POINT ( 'NONE',  ( 3.414809992080329023E-16, 0.1876388374866272135, 0.000000000000000000 ) ) ;
#175 = DIRECTION ( 'NONE',  ( -1.000000000000000000, 0.000000000000000000, 0.000000000000000000 ) ) ;
#176 = AXIS2_PLACEMENT_3D ( 'NONE', #204, #137, #87 ) ;
#177 = FILL_AREA_STYLE ('',( #129 ) ) ;
#178 = COLOUR_RGB ( '',1.000000000000000000, 0.000000000000000000, 0.000000000000000000 ) ;
#179 = DIRECTION ( 'NONE',  ( -1.000000000000000000, 0.000000000000000000, 0.000000000000000000 ) ) ;
#180 = DIRECTION ( 'NONE',  ( -1.431940337298288554E-16, 1.000000000000000000, -0.000000000000000000 ) ) ;
#181 = CONICAL_SURFACE ( 'NONE', #216, 0.05000000000000000278, 1.047197551196600074 ) ;
#182 = SURFACE_STYLE_USAGE ( .BOTH. , #139 ) ;
#183 = ORIENTED_EDGE ( 'NONE', *, *, #116, .T. ) ;
#184 = SURFACE_STYLE_USAGE ( .BOTH. , #49 ) ;
#185 = CARTESIAN_POINT ( 'NONE',  ( 2.985708763640712371E-36, 3.863747380226036597E-19, 0.000000000000000000 ) ) ;
#186 = CARTESIAN_POINT ( 'NONE',  ( 3.414809992080329023E-16, 0.1876388374866272135, 0.000000000000000000 ) ) ;
#187 = PRESENTATION_LAYER_ASSIGNMENT (  '', '', ( #27 ) ) ;
#188 = DIRECTION ( 'NONE',  ( 7.727494760452073194E-18, 1.000000000000000000, 0.000000000000000000 ) ) ;
#189 = CARTESIAN_POINT ( 'NONE',  ( 3.414809992080329023E-16, 0.1876388374866273523, 0.000000000000000000 ) ) ;
#190 =( NAMED_UNIT ( * ) SI_UNIT ( $, .STERADIAN. ) SOLID_ANGLE_UNIT ( ) );
#191 = DIRECTION ( 'NONE',  ( 1.000000000000000000, -7.727494760452073194E-18, 0.000000000000000000 ) ) ;
#192 = APPLICATION_CONTEXT ( 'automotive_design' ) ;
#193 =( NAMED_UNIT ( * ) PLANE_ANGLE_UNIT ( ) SI_UNIT ( $, .RADIAN. ) );
#194 = AXIS2_PLACEMENT_3D ( 'NONE', #133, #227, #191 ) ;
#195 = EDGE_LOOP ( 'NONE', ( #38, #148 ) ) ;
#196 = APPLICATION_PROTOCOL_DEFINITION ( 'draft international standard', 'automotive_design', 1998, #28 ) ;
#197 = SHAPE_DEFINITION_REPRESENTATION ( #47, #274 ) ;
#198 = UNCERTAINTY_MEASURE_WITH_UNIT (LENGTH_MEASURE( 1.000000000000000082E-05 ), #138, 'distance_accuracy_value', 'NONE');
#199 = ORIENTED_EDGE ( 'NONE', *, *, #122, .F. ) ;
#200 = EDGE_LOOP ( 'NONE', ( #296, #25, #271, #253 ) ) ;
#201 = EDGE_CURVE ( 'NONE', #158, #160, #211, .T. ) ;
#202 = FILL_AREA_STYLE ('',( #71 ) ) ;
#203 = DIMENSIONAL_EXPONENTS ( 1.000000000000000000, 0.000000000000000000, 0.000000000000000000, 0.000000000000000000, 0.000000000000000000, 0.000000000000000000, 0.000000000000000000 ) ;
#204 = CARTESIAN_POINT ( 'NONE',  ( 1.449978133535231054E-18, 0.1876388374866273800, 0.000000000000000000 ) ) ;
#205 =( NAMED_UNIT ( * ) PLANE_ANGLE_UNIT ( ) SI_UNIT ( $, .RADIAN. ) );
#206 = SURFACE_STYLE_FILL_AREA ( #284 ) ;
#207 = CARTESIAN_POINT ( 'NONE',  ( 0.3750000000000000555, 3.000000000000000444, 0.000000000000000000 ) ) ;
#208 = AXIS2_PLACEMENT_3D ( 'NONE', #152, #295, #179 ) ;
#209 = CARTESIAN_POINT ( 'NONE',  ( -6.123233995736772199E-17, 3.000000000000000444, 0.000000000000000000 ) ) ;
#210 = COLOUR_RGB ( '',0.7921568627450980005, 0.8196078431372548767, 0.9333333333333333481 ) ;
#211 = CIRCLE ( 'NONE', #165, 0.3749999999999996669 ) ;
#212 = CARTESIAN_POINT ( 'NONE',  ( -0.3750000000000001665, 3.000000000000000444, 0.000000000000000000 ) ) ;
#213 =( NAMED_UNIT ( * ) PLANE_ANGLE_UNIT ( ) SI_UNIT ( $, .RADIAN. ) );
#214 = EDGE_CURVE ( 'NONE', #249, #223, #16, .T. ) ;
#215 = PLANE ( 'NONE',  #167 ) ;
#216 = AXIS2_PLACEMENT_3D ( 'NONE', #185, #188, #145 ) ;
#217 =( GEOMETRIC_REPRESENTATION_CONTEXT ( 3 ) GLOBAL_UNCERTAINTY_ASSIGNED_CONTEXT ( ( #157 ) ) GLOBAL_UNIT_ASSIGNED_CONTEXT ( ( #238, #213, #30 ) ) REPRESENTATION_CONTEXT ( 'NONE', 'WORKASPACE' ) );
#218 = DIRECTION ( 'NONE',  ( 1.431940337298288554E-16, -1.000000000000000000, 0.000000000000000000 ) ) ;
#219 = CARTESIAN_POINT ( 'NONE',  ( -0.3750000000000000555, 0.1876388374866273800, 0.000000000000000000 ) ) ;
#220 = MANIFOLD_SOLID_BREP ( 'Revolve - Tool Body (Tipped Off)', #234 ) ;
#221 = ORIENTED_EDGE ( 'NONE', *, *, #150, .T. ) ;
#222 = PRESENTATION_STYLE_ASSIGNMENT (( #131 ) ) ;
#223 = VERTEX_POINT ( 'NONE', #212 ) ;
#224 = AXIS2_PLACEMENT_3D ( 'NONE', #265, #286, #263 ) ;
#225 = ADVANCED_FACE ( 'NONE', ( #55 ), #119, .T. ) ;
#226 = LENGTH_MEASURE_WITH_UNIT ( LENGTH_MEASURE( 0.02539999999999999897 ), #15 );
#227 = DIRECTION ( 'NONE',  ( -7.727494760452073194E-18, -1.000000000000000000, 0.000000000000000000 ) ) ;
#228 = SURFACE_STYLE_FILL_AREA ( #60 ) ;
#229 = CARTESIAN_POINT ( 'NONE',  ( 2.985708763640712371E-36, 3.863747380226036597E-19, 0.000000000000000000 ) ) ;
#230 = UNCERTAINTY_MEASURE_WITH_UNIT (LENGTH_MEASURE( 1.000000000000000082E-05 ), #141, 'distance_accuracy_value', 'NONE');
#231 = DIMENSIONAL_EXPONENTS ( 1.000000000000000000, 0.000000000000000000, 0.000000000000000000, 0.000000000000000000, 0.000000000000000000, 0.000000000000000000, 0.000000000000000000 ) ;
#232 = CARTESIAN_POINT ( 'NONE',  ( -0.05000000000000000278, 7.727494760452073194E-19, 0.000000000000000000 ) ) ;
#233 = MECHANICAL_DESIGN_GEOMETRIC_PRESENTATION_REPRESENTATION (  '', ( #20 ), #111 ) ;
#234 = CLOSED_SHELL ( 'NONE', ( #292, #144, #225, #267 ) ) ;
#235 = LENGTH_MEASURE_WITH_UNIT ( LENGTH_MEASURE( 0.02539999999999999897 ), #45 );
#236 = CIRCLE ( 'NONE', #36, 0.05000000000000000278 ) ;
#237 =( LENGTH_UNIT ( ) NAMED_UNIT ( * ) SI_UNIT ( $, .METRE. ) );
#238 =( CONVERSION_BASED_UNIT ( 'INCH', #74 ) LENGTH_UNIT ( ) NAMED_UNIT ( #82 ) );
#239 = EDGE_CURVE ( 'NONE', #158, #223, #54, .T. ) ;
#240 = COLOUR_RGB ( '',1.000000000000000000, 0.000000000000000000, 0.000000000000000000 ) ;
#241 = EDGE_LOOP ( 'NONE', ( #298, #199, #42, #183 ) ) ;
#242 = DIRECTION ( 'NONE',  ( -1.431940337298288554E-16, 1.000000000000000000, -0.000000000000000000 ) ) ;
#243 = DIRECTION ( 'NONE',  ( 1.000000000000000000, 0.000000000000000000, 0.000000000000000000 ) ) ;
#244 =( CONVERSION_BASED_UNIT ( 'INCH', #98 ) LENGTH_UNIT ( ) NAMED_UNIT ( #231 ) );
#245 =( LENGTH_UNIT ( ) NAMED_UNIT ( * ) SI_UNIT ( $, .METRE. ) );
#246 = CONICAL_SURFACE ( 'NONE', #280, 0.05000000000000000278, 1.047197551196600074 ) ;
#247 = PLANE ( 'NONE',  #176 ) ;
#248 = ORIENTED_EDGE ( 'NONE', *, *, #96, .F. ) ;
#249 = VERTEX_POINT ( 'NONE', #259 ) ;
#250 = PRODUCT_CONTEXT ( 'NONE', #28, 'mechanical' ) ;
#251 = DIRECTION ( 'NONE',  ( 7.727494760452073194E-18, 1.000000000000000000, 0.000000000000000000 ) ) ;
#252 = EDGE_LOOP ( 'NONE', ( #67, #66 ) ) ;
#253 = ORIENTED_EDGE ( 'NONE', *, *, #214, .F. ) ;
#254 = STYLED_ITEM ( 'NONE', ( #161 ), #136 ) ;
#255 =( NAMED_UNIT ( * ) PLANE_ANGLE_UNIT ( ) SI_UNIT ( $, .RADIAN. ) );
#256 = PRODUCT_DEFINITION_FORMATION_WITH_SPECIFIED_SOURCE ( 'ANY', '', #84, .NOT_KNOWN. ) ;
#257 = EDGE_CURVE ( 'NONE', #130, #35, #31, .T. ) ;
#258 = CARTESIAN_POINT ( 'NONE',  ( 0.05000000000000000278, 0.000000000000000000, 2.602374448188125966E-17 ) ) ;
#259 = CARTESIAN_POINT ( 'NONE',  ( 0.3750000000000000555, 3.000000000000000444, 4.592425496802573602E-17 ) ) ;
#260 = AXIS2_PLACEMENT_3D ( 'NONE', #91, #4, #261 ) ;
#261 = DIRECTION ( 'NONE',  ( 1.000000000000000000, -7.727494760452073194E-18, 0.000000000000000000 ) ) ;
#262 = VECTOR ( 'NONE', #101, 39.37007874015748143 ) ;
#263 = DIRECTION ( 'NONE',  ( -1.000000000000000000, 0.000000000000000000, 0.000000000000000000 ) ) ;
#264 = MECHANICAL_DESIGN_GEOMETRIC_PRESENTATION_REPRESENTATION (  '', ( #124 ), #2 ) ;
#265 = CARTESIAN_POINT ( 'NONE',  ( -6.123233995736770966E-17, 3.000000000000000444, 0.000000000000000000 ) ) ;
#266 =( LENGTH_UNIT ( ) NAMED_UNIT ( * ) SI_UNIT ( $, .METRE. ) );
#267 = ADVANCED_FACE ( 'NONE', ( #123 ), #215, .F. ) ;
#268 = LINE ( 'NONE', #10, #262 ) ;
#269 =( GEOMETRIC_REPRESENTATION_CONTEXT ( 3 ) GLOBAL_UNCERTAINTY_ASSIGNED_CONTEXT ( ( #198 ) ) GLOBAL_UNIT_ASSIGNED_CONTEXT ( ( #138, #205, #285 ) ) REPRESENTATION_CONTEXT ( 'NONE', 'WORKASPACE' ) );
#270 =( NAMED_UNIT ( * ) SI_UNIT ( $, .STERADIAN. ) SOLID_ANGLE_UNIT ( ) );
#271 = ORIENTED_EDGE ( 'NONE', *, *, #239, .T. ) ;
#272 = CARTESIAN_POINT ( 'NONE',  ( 0.000000000000000000, 0.000000000000000000, 0.000000000000000000 ) ) ;
#273 = PRESENTATION_STYLE_ASSIGNMENT (( #57 ) ) ;
#274 = ADVANCED_BREP_SHAPE_REPRESENTATION ( '07019', ( #97, #220, #93 ), #34 ) ;
#275 = EDGE_LOOP ( 'NONE', ( #151, #13, #300, #301 ) ) ;
#276 = DIRECTION ( 'NONE',  ( -1.000000000000000000, -1.821231995776177205E-16, 0.000000000000000000 ) ) ;
#277 = UNCERTAINTY_MEASURE_WITH_UNIT (LENGTH_MEASURE( 1.000000000000000082E-05 ), #283, 'distance_accuracy_value', 'NONE');
#278 = MECHANICAL_DESIGN_GEOMETRIC_PRESENTATION_REPRESENTATION (  '', ( #254 ), #26 ) ;
#279 = FILL_AREA_STYLE_COLOUR ( '', #178 ) ;
#280 = AXIS2_PLACEMENT_3D ( 'NONE', #99, #251, #134 ) ;
#281 = DIMENSIONAL_EXPONENTS ( 1.000000000000000000, 0.000000000000000000, 0.000000000000000000, 0.000000000000000000, 0.000000000000000000, 0.000000000000000000, 0.000000000000000000 ) ;
#282 = ORIENTED_EDGE ( 'NONE', *, *, #201, .F. ) ;
#283 =( CONVERSION_BASED_UNIT ( 'INCH', #235 ) LENGTH_UNIT ( ) NAMED_UNIT ( #203 ) );
#284 = FILL_AREA_STYLE ('',( #308 ) ) ;
#285 =( NAMED_UNIT ( * ) SI_UNIT ( $, .STERADIAN. ) SOLID_ANGLE_UNIT ( ) );
#286 = DIRECTION ( 'NONE',  ( -1.431940337298288554E-16, 1.000000000000000000, -0.000000000000000000 ) ) ;
#287 = PLANE ( 'NONE',  #7 ) ;
#288 = ADVANCED_FACE ( 'NONE', ( #108 ), #37, .T. ) ;
#289 = CLOSED_SHELL ( 'NONE', ( #90, #114, #136, #288 ) ) ;
#290 = ORIENTED_EDGE ( 'NONE', *, *, #304, .F. ) ;
#291 = CARTESIAN_POINT ( 'NONE',  ( -0.05000000000000000278, 7.727494760452073194E-19, 0.000000000000000000 ) ) ;
#292 = ADVANCED_FACE ( 'NONE', ( #173 ), #21, .T. ) ;
#293 = LENGTH_MEASURE_WITH_UNIT ( LENGTH_MEASURE( 0.02539999999999999897 ), #245 );
#294 = FACE_OUTER_BOUND ( 'NONE', #275, .T. ) ;
#295 = DIRECTION ( 'NONE',  ( -1.431940337298288554E-16, 1.000000000000000000, -0.000000000000000000 ) ) ;
#296 = ORIENTED_EDGE ( 'NONE', *, *, #52, .F. ) ;
#297 = PRESENTATION_LAYER_ASSIGNMENT (  '', '', ( #254 ) ) ;
#298 = ORIENTED_EDGE ( 'NONE', *, *, #14, .F. ) ;
#299 =( CONVERSION_BASED_UNIT ( 'INCH', #293 ) LENGTH_UNIT ( ) NAMED_UNIT ( #112 ) );
#300 = ORIENTED_EDGE ( 'NONE', *, *, #257, .T. ) ;
#301 = ORIENTED_EDGE ( 'NONE', *, *, #172, .F. ) ;
#302 = PRODUCT_DEFINITION_CONTEXT ( 'detailed design', #192, 'design' ) ;
#303 = AXIS2_PLACEMENT_3D ( 'NONE', #307, #118, #140 ) ;
#304 = EDGE_CURVE ( 'NONE', #160, #158, #88, .T. ) ;
#305 = SURFACE_STYLE_FILL_AREA ( #202 ) ;
#306 = COLOUR_RGB ( '',1.000000000000000000, 0.000000000000000000, 0.000000000000000000 ) ;
#307 = CARTESIAN_POINT ( 'NONE',  ( 1.449978133535231054E-18, 0.1876388374866273800, 0.000000000000000000 ) ) ;
#308 = FILL_AREA_STYLE_COLOUR ( '', #306 ) ;
#309 = LENGTH_MEASURE_WITH_UNIT ( LENGTH_MEASURE( 0.02539999999999999897 ), #72 );
ENDSEC;
END-ISO-10303-21;
