ISO-10303-21;
HEADER;
FILE_DESCRIPTION (( 'STEP AP214' ),
    '1' );
FILE_NAME ('Micro_SBMM-060-348X.STEP',
    '2021-09-02T17:13:55',
    ( '' ),
    ( '' ),
    'SwSTEP 2.0',
    'SolidWorks 2020',
    '' );
FILE_SCHEMA (( 'AUTOMOTIVE_DESIGN' ));
ENDSEC;

DATA;
#1 = VECTOR ( 'NONE', #152, 39.37007874015748143 ) ;
#2 = LENGTH_MEASURE_WITH_UNIT ( LENGTH_MEASURE( 0.02539999999999999897 ), #132 );
#3 = ORIENTED_EDGE ( 'NONE', *, *, #96, .F. ) ;
#4 = DIRECTION ( 'NONE',  ( 1.000000000000000000, 0.0000000000000000000, 0.0000000000000000000 ) ) ;
#5 = STYLED_ITEM ( 'NONE', ( #95 ), #248 ) ;
#6 =( GEOMETRIC_REPRESENTATION_CONTEXT ( 3 ) GLOBAL_UNCERTAINTY_ASSIGNED_CONTEXT ( ( #301 ) ) GLOBAL_UNIT_ASSIGNED_CONTEXT ( ( #259, #274, #309 ) ) REPRESENTATION_CONTEXT ( 'NONE', 'WORKASPACE' ) );
#7 = FILL_AREA_STYLE ('',( #33 ) ) ;
#8 =( LENGTH_UNIT ( ) NAMED_UNIT ( * ) SI_UNIT ( $, .METRE. ) );
#9 = SURFACE_SIDE_STYLE ('',( #245 ) ) ;
#10 = DIRECTION ( 'NONE',  ( -0.7071067811865422437, 0.0000000000000000000, -0.7071067811865526798 ) ) ;
#11 = CONICAL_SURFACE ( 'NONE', #299, 0.1299209999999998422, 0.08314123188844155243 ) ;
#12 = VERTEX_POINT ( 'NONE', #161 ) ;
#13 = SURFACE_SIDE_STYLE ('',( #171 ) ) ;
#14 = VECTOR ( 'NONE', #137, 39.37007874015748854 ) ;
#15 = DIRECTION ( 'NONE',  ( -0.0000000000000000000, -0.0000000000000000000, -1.000000000000000000 ) ) ;
#16 = SHAPE_DEFINITION_REPRESENTATION ( #82, #248 ) ;
#17 = CONICAL_SURFACE ( 'NONE', #211, 0.1299209999999998422, 0.08314123188844155243 ) ;
#18 = DIRECTION ( 'NONE',  ( -0.0000000000000000000, -0.0000000000000000000, -1.000000000000000000 ) ) ;
#19 = ORIENTED_EDGE ( 'NONE', *, *, #42, .T. ) ;
#20 = DIRECTION ( 'NONE',  ( -0.0000000000000000000, -0.0000000000000000000, -1.000000000000000000 ) ) ;
#21 = CARTESIAN_POINT ( 'NONE',  ( 0.0000000000000000000, 0.0000000000000000000, 1.874014999999997322 ) ) ;
#22 = DIRECTION ( 'NONE',  ( -1.000000000000000000, 0.0000000000000000000, 0.0000000000000000000 ) ) ;
#23 = DIRECTION ( 'NONE',  ( 1.000000000000000000, 0.0000000000000000000, 0.0000000000000000000 ) ) ;
#24 = AXIS2_PLACEMENT_3D ( 'NONE', #202, #78, #76 ) ;
#25 = EDGE_LOOP ( 'NONE', ( #196, #191, #122, #329 ) ) ;
#26 = APPLICATION_PROTOCOL_DEFINITION ( 'draft international standard', 'automotive_design', 1998, #72 ) ;
#27 = EDGE_LOOP ( 'NONE', ( #148, #59, #175, #47 ) ) ;
#28 = DIRECTION ( 'NONE',  ( 0.0000000000000000000, 0.0000000000000000000, 1.000000000000000000 ) ) ;
#29 = DIRECTION ( 'NONE',  ( -0.0000000000000000000, -0.0000000000000000000, -1.000000000000000000 ) ) ;
#30 = AXIS2_PLACEMENT_3D ( 'NONE', #182, #283, #156 ) ;
#31 = CARTESIAN_POINT ( 'NONE',  ( 0.0000000000000000000, 0.0000000000000000000, 3.937007999999999619 ) ) ;
#32 = DIRECTION ( 'NONE',  ( 0.0000000000000000000, 1.000000000000000000, 0.0000000000000000000 ) ) ;
#33 = FILL_AREA_STYLE_COLOUR ( '', #241 ) ;
#34 = CARTESIAN_POINT ( 'NONE',  ( -0.1181100000000000344, 1.446430334472939393E-17, 1.732283000000000239 ) ) ;
#35 = EDGE_CURVE ( 'NONE', #49, #280, #91, .T. ) ;
#36 = FACE_OUTER_BOUND ( 'NONE', #39, .T. ) ;
#37 = MECHANICAL_DESIGN_GEOMETRIC_PRESENTATION_REPRESENTATION (  '', ( #5 ), #6 ) ;
#38 = FILL_AREA_STYLE_COLOUR ( '', #136 ) ;
#39 = EDGE_LOOP ( 'NONE', ( #269, #81, #254, #335, #41 ) ) ;
#40 = AXIS2_PLACEMENT_3D ( 'NONE', #31, #342, #317 ) ;
#41 = ORIENTED_EDGE ( 'NONE', *, *, #177, .F. ) ;
#42 = EDGE_CURVE ( 'NONE', #224, #143, #279, .T. ) ;
#43 = DIRECTION ( 'NONE',  ( 0.0000000000000000000, 0.0000000000000000000, 1.000000000000000000 ) ) ;
#44 = VERTEX_POINT ( 'NONE', #320 ) ;
#45 = DIRECTION ( 'NONE',  ( 0.0000000000000000000, 0.0000000000000000000, -1.000000000000000000 ) ) ;
#46 = CIRCLE ( 'NONE', #181, 0.1181099999999999928 ) ;
#47 = ORIENTED_EDGE ( 'NONE', *, *, #42, .F. ) ;
#48 = CARTESIAN_POINT ( 'NONE',  ( -0.1181100000000000344, 0.0000000000000000000, 3.937007999999999619 ) ) ;
#49 = VERTEX_POINT ( 'NONE', #294 ) ;
#50 = CARTESIAN_POINT ( 'NONE',  ( 0.0000000000000000000, 0.07873999999999996280, 0.2061439962741667686 ) ) ;
#51 = ORIENTED_EDGE ( 'NONE', *, *, #102, .F. ) ;
#52 = DIRECTION ( 'NONE',  ( -0.0000000000000000000, -0.0000000000000000000, -1.000000000000000000 ) ) ;
#53 = CONICAL_SURFACE ( 'NONE', #30, 0.1031100000000005484, 0.7853981633974410625 ) ;
#54 = FACE_OUTER_BOUND ( 'NONE', #178, .T. ) ;
#55 = CARTESIAN_POINT ( 'NONE',  ( -0.1031100000000005484, 0.0000000000000000000, 3.937007999999999619 ) ) ;
#56 = DIRECTION ( 'NONE',  ( 1.000000000000000000, 1.224646799147353207E-16, -0.0000000000000000000 ) ) ;
#57 = FACE_OUTER_BOUND ( 'NONE', #65, .T. ) ;
#58 = MECHANICAL_DESIGN_GEOMETRIC_PRESENTATION_REPRESENTATION (  '', ( #339 ), #250 ) ;
#59 = ORIENTED_EDGE ( 'NONE', *, *, #237, .T. ) ;
#60 = CARTESIAN_POINT ( 'NONE',  ( 0.1181100000000000344, 0.0000000000000000000, 1.732283000000000239 ) ) ;
#61 = CYLINDRICAL_SURFACE ( 'NONE', #263, 0.1181100000000000344 ) ;
#62 = PRESENTATION_STYLE_ASSIGNMENT (( #212 ) ) ;
#63 =( NAMED_UNIT ( * ) SI_UNIT ( $, .STERADIAN. ) SOLID_ANGLE_UNIT ( ) );
#64 = DIMENSIONAL_EXPONENTS ( 1.000000000000000000, 0.0000000000000000000, 0.0000000000000000000, 0.0000000000000000000, 0.0000000000000000000, 0.0000000000000000000, 0.0000000000000000000 ) ;
#65 = EDGE_LOOP ( 'NONE', ( #3, #302, #123, #89 ) ) ;
#66 = CIRCLE ( 'NONE', #257, 0.07873999999999996280 ) ;
#67 = ADVANCED_FACE ( 'NONE', ( #188 ), #291, .T. ) ;
#68 = CARTESIAN_POINT ( 'NONE',  ( 0.0000000000000000000, 0.0000000000000000000, 0.0000000000000000000 ) ) ;
#69 = AXIS2_PLACEMENT_3D ( 'NONE', #68, #43, #98 ) ;
#70 = ORIENTED_EDGE ( 'NONE', *, *, #278, .F. ) ;
#71 = CARTESIAN_POINT ( 'NONE',  ( 0.1031100000000005484, 1.262733314600842673E-17, 3.937007999999999619 ) ) ;
#72 = APPLICATION_CONTEXT ( 'automotive_design' ) ;
#73 = ORIENTED_EDGE ( 'NONE', *, *, #169, .T. ) ;
#74 = DIRECTION ( 'NONE',  ( -1.000000000000000000, 0.0000000000000000000, 0.0000000000000000000 ) ) ;
#75 = AXIS2_PLACEMENT_3D ( 'NONE', #204, #345, #215 ) ;
#76 = DIRECTION ( 'NONE',  ( 1.000000000000000000, 0.0000000000000000000, 0.0000000000000000000 ) ) ;
#77 = CARTESIAN_POINT ( 'NONE',  ( 0.1181100000000000344, 1.446430334472939084E-17, 3.937007999999999619 ) ) ;
#78 = DIRECTION ( 'NONE',  ( 0.0000000000000000000, 0.0000000000000000000, 1.000000000000000000 ) ) ;
#79 = CARTESIAN_POINT ( 'NONE',  ( 0.0000000000000000000, 0.0000000000000000000, 3.937007999999999619 ) ) ;
#80 = AXIS2_PLACEMENT_3D ( 'NONE', #79, #218, #165 ) ;
#81 = ORIENTED_EDGE ( 'NONE', *, *, #184, .T. ) ;
#82 = PRODUCT_DEFINITION_SHAPE ( 'NONE', 'NONE',  #324 ) ;
#83 = CARTESIAN_POINT ( 'NONE',  ( 0.0000000000000000000, 0.0000000000000000000, 0.0000000000000000000 ) ) ;
#84 = DIRECTION ( 'NONE',  ( -1.000000000000000000, 0.0000000000000000000, 0.0000000000000000000 ) ) ;
#85 = DIRECTION ( 'NONE',  ( -1.000000000000000000, 0.0000000000000000000, 0.0000000000000000000 ) ) ;
#86 = AXIS2_PLACEMENT_3D ( 'NONE', #131, #52, #340 ) ;
#87 = CARTESIAN_POINT ( 'NONE',  ( 0.0000000000000000000, 0.0000000000000000000, 3.937007999999999619 ) ) ;
#88 = CARTESIAN_POINT ( 'NONE',  ( -0.1031100000000005484, 0.0000000000000000000, 3.937007999999999619 ) ) ;
#89 = ORIENTED_EDGE ( 'NONE', *, *, #169, .F. ) ;
#90 = EDGE_CURVE ( 'NONE', #341, #143, #46, .T. ) ;
#91 = CIRCLE ( 'NONE', #140, 0.1031100000000005484 ) ;
#92 = ADVANCED_FACE ( 'NONE', ( #36 ), #141, .T. ) ;
#93 = ORIENTED_EDGE ( 'NONE', *, *, #108, .F. ) ;
#94 = UNCERTAINTY_MEASURE_WITH_UNIT (LENGTH_MEASURE( 1.000000000000000082E-05 ), #261, 'distance_accuracy_value', 'NONE');
#95 = PRESENTATION_STYLE_ASSIGNMENT (( #121 ) ) ;
#96 = EDGE_CURVE ( 'NONE', #164, #307, #206, .T. ) ;
#97 = EDGE_LOOP ( 'NONE', ( #151, #337, #305, #330 ) ) ;
#98 = DIRECTION ( 'NONE',  ( 1.000000000000000000, 0.0000000000000000000, 0.0000000000000000000 ) ) ;
#99 = ORIENTED_EDGE ( 'NONE', *, *, #163, .F. ) ;
#100 = LINE ( 'NONE', #71, #134 ) ;
#101 = ORIENTED_EDGE ( 'NONE', *, *, #177, .T. ) ;
#102 = EDGE_CURVE ( 'NONE', #164, #326, #114, .T. ) ;
#103 = DIRECTION ( 'NONE',  ( 0.0000000000000000000, 0.0000000000000000000, 1.000000000000000000 ) ) ;
#104 = PRODUCT_RELATED_PRODUCT_CATEGORY ( 'part', '', ( #290 ) ) ;
#105 = MANIFOLD_SOLID_BREP ( 'Cut-Revolve3', #239 ) ;
#106 = DIRECTION ( 'NONE',  ( 0.0000000000000000000, 1.000000000000000000, 0.0000000000000000000 ) ) ;
#107 = CARTESIAN_POINT ( 'NONE',  ( 0.1299209999999998422, 0.0000000000000000000, 1.874014999999997322 ) ) ;
#108 = EDGE_CURVE ( 'NONE', #280, #49, #230, .T. ) ;
#109 = FACE_OUTER_BOUND ( 'NONE', #97, .T. ) ;
#110 =( CONVERSION_BASED_UNIT ( 'INCH', #344 ) LENGTH_UNIT ( ) NAMED_UNIT ( #119 ) );
#111 = SPHERICAL_SURFACE ( 'NONE', #252, 0.1181099999999999928 ) ;
#112 = EDGE_LOOP ( 'NONE', ( #99, #93, #135, #70 ) ) ;
#113 = DIRECTION ( 'NONE',  ( 0.0000000000000000000, 0.0000000000000000000, -1.000000000000000000 ) ) ;
#114 = LINE ( 'NONE', #321, #14 ) ;
#115 =( NAMED_UNIT ( * ) PLANE_ANGLE_UNIT ( ) SI_UNIT ( $, .RADIAN. ) );
#116 = AXIS2_PLACEMENT_3D ( 'NONE', #83, #296, #217 ) ;
#117 = ORIENTED_EDGE ( 'NONE', *, *, #272, .T. ) ;
#118 = FILL_AREA_STYLE ('',( #38 ) ) ;
#119 = DIMENSIONAL_EXPONENTS ( 1.000000000000000000, 0.0000000000000000000, 0.0000000000000000000, 0.0000000000000000000, 0.0000000000000000000, 0.0000000000000000000, 0.0000000000000000000 ) ;
#120 = CONICAL_SURFACE ( 'NONE', #80, 0.1031100000000005484, 0.7853981633974410625 ) ;
#121 = SURFACE_STYLE_USAGE ( .BOTH. , #13 ) ;
#122 = ORIENTED_EDGE ( 'NONE', *, *, #155, .T. ) ;
#123 = ORIENTED_EDGE ( 'NONE', *, *, #197, .F. ) ;
#124 = PLANE ( 'NONE',  #303 ) ;
#125 = EDGE_CURVE ( 'NONE', #341, #198, #201, .T. ) ;
#126 = CIRCLE ( 'NONE', #86, 0.07873999999999996280 ) ;
#127 = FACE_OUTER_BOUND ( 'NONE', #112, .T. ) ;
#128 = CARTESIAN_POINT ( 'NONE',  ( -0.07873999999999996280, 0.0000000000000000000, 0.2061439962741667686 ) ) ;
#129 = LINE ( 'NONE', #48, #1 ) ;
#130 = VECTOR ( 'NONE', #20, 39.37007874015748143 ) ;
#131 = CARTESIAN_POINT ( 'NONE',  ( 0.0000000000000000000, 0.0000000000000000000, 0.2061439962741667686 ) ) ;
#132 =( LENGTH_UNIT ( ) NAMED_UNIT ( * ) SI_UNIT ( $, .METRE. ) );
#133 = LENGTH_MEASURE_WITH_UNIT ( LENGTH_MEASURE( 0.02539999999999999897 ), #8 );
#134 = VECTOR ( 'NONE', #233, 39.37007874015748854 ) ;
#135 = ORIENTED_EDGE ( 'NONE', *, *, #319, .T. ) ;
#136 = COLOUR_RGB ( '',0.7921568627450980005, 0.8196078431372548767, 0.9333333333333333481 ) ;
#137 = DIRECTION ( 'NONE',  ( -0.08304547985374029218, 1.017013810865390570E-17, 0.9965457582448795648 ) ) ;
#138 = DIRECTION ( 'NONE',  ( 1.000000000000000000, 0.0000000000000000000, 0.0000000000000000000 ) ) ;
#139 = ADVANCED_FACE ( 'NONE', ( #300 ), #61, .T. ) ;
#140 = AXIS2_PLACEMENT_3D ( 'NONE', #87, #325, #260 ) ;
#141 = CYLINDRICAL_SURFACE ( 'NONE', #150, 0.07873999999999992117 ) ;
#142 = ADVANCED_FACE ( 'NONE', ( #256 ), #11, .T. ) ;
#143 = VERTEX_POINT ( 'NONE', #312 ) ;
#144 = VECTOR ( 'NONE', #185, 39.37007874015748143 ) ;
#145 = ADVANCED_FACE ( 'NONE', ( #281 ), #306, .T. ) ;
#146 = ORIENTED_EDGE ( 'NONE', *, *, #108, .T. ) ;
#147 = EDGE_CURVE ( 'NONE', #44, #12, #235, .T. ) ;
#148 = ORIENTED_EDGE ( 'NONE', *, *, #297, .T. ) ;
#149 = DIRECTION ( 'NONE',  ( 1.000000000000000000, 0.0000000000000000000, 0.0000000000000000000 ) ) ;
#150 = AXIS2_PLACEMENT_3D ( 'NONE', #166, #264, #84 ) ;
#151 = ORIENTED_EDGE ( 'NONE', *, *, #35, .F. ) ;
#152 = DIRECTION ( 'NONE',  ( -0.0000000000000000000, -0.0000000000000000000, -1.000000000000000000 ) ) ;
#153 = EDGE_LOOP ( 'NONE', ( #146, #234 ) ) ;
#154 = SPHERICAL_SURFACE ( 'NONE', #293, 0.1181099999999999928 ) ;
#155 = EDGE_CURVE ( 'NONE', #44, #326, #129, .T. ) ;
#156 = DIRECTION ( 'NONE',  ( -1.000000000000000000, 0.0000000000000000000, 0.0000000000000000000 ) ) ;
#157 = AXIS2_PLACEMENT_3D ( 'NONE', #314, #268, #4 ) ;
#158 = FACE_OUTER_BOUND ( 'NONE', #153, .T. ) ;
#159 = ORIENTED_EDGE ( 'NONE', *, *, #125, .F. ) ;
#160 = CARTESIAN_POINT ( 'NONE',  ( 0.0000000000000000000, 0.0000000000000000000, 0.1181100000000000066 ) ) ;
#161 = CARTESIAN_POINT ( 'NONE',  ( 0.1181100000000000344, 1.446430334472939084E-17, 3.922007999999999939 ) ) ;
#162 = CARTESIAN_POINT ( 'NONE',  ( 0.0000000000000000000, 0.0000000000000000000, 0.2061439962741667686 ) ) ;
#163 = EDGE_CURVE ( 'NONE', #49, #12, #100, .T. ) ;
#164 = VERTEX_POINT ( 'NONE', #284 ) ;
#165 = DIRECTION ( 'NONE',  ( -1.000000000000000000, 0.0000000000000000000, 0.0000000000000000000 ) ) ;
#166 = CARTESIAN_POINT ( 'NONE',  ( 0.0000000000000000000, 0.0000000000000000000, 0.0000000000000000000 ) ) ;
#167 = LINE ( 'NONE', #88, #315 ) ;
#168 = ORIENTED_EDGE ( 'NONE', *, *, #221, .T. ) ;
#169 = EDGE_CURVE ( 'NONE', #307, #313, #205, .T. ) ;
#170 = CIRCLE ( 'NONE', #157, 0.1181100000000000344 ) ;
#171 = SURFACE_STYLE_FILL_AREA ( #118 ) ;
#172 = ORIENTED_EDGE ( 'NONE', *, *, #285, .F. ) ;
#173 = DIMENSIONAL_EXPONENTS ( 1.000000000000000000, 0.0000000000000000000, 0.0000000000000000000, 0.0000000000000000000, 0.0000000000000000000, 0.0000000000000000000, 0.0000000000000000000 ) ;
#174 = DIRECTION ( 'NONE',  ( -0.0000000000000000000, -0.0000000000000000000, -1.000000000000000000 ) ) ;
#175 = ORIENTED_EDGE ( 'NONE', *, *, #90, .T. ) ;
#176 = CIRCLE ( 'NONE', #75, 0.07873999999999996280 ) ;
#177 = EDGE_CURVE ( 'NONE', #164, #198, #251, .T. ) ;
#178 = EDGE_LOOP ( 'NONE', ( #214, #225, #200, #19 ) ) ;
#179 = DIRECTION ( 'NONE',  ( 0.0000000000000000000, 0.0000000000000000000, 1.000000000000000000 ) ) ;
#180 = DIRECTION ( 'NONE',  ( -1.000000000000000000, 0.0000000000000000000, 0.0000000000000000000 ) ) ;
#181 = AXIS2_PLACEMENT_3D ( 'NONE', #189, #56, #243 ) ;
#182 = CARTESIAN_POINT ( 'NONE',  ( 0.0000000000000000000, 0.0000000000000000000, 3.937007999999999619 ) ) ;
#183 = DIRECTION ( 'NONE',  ( -0.0000000000000000000, -0.0000000000000000000, -1.000000000000000000 ) ) ;
#184 = EDGE_CURVE ( 'NONE', #307, #288, #308, .T. ) ;
#185 = DIRECTION ( 'NONE',  ( -0.0000000000000000000, -0.0000000000000000000, -1.000000000000000000 ) ) ;
#186 = CARTESIAN_POINT ( 'NONE',  ( 0.07873999999999992117, 9.642868896486249264E-18, 0.0000000000000000000 ) ) ;
#187 = CIRCLE ( 'NONE', #273, 0.07873999999999985178 ) ;
#188 = FACE_OUTER_BOUND ( 'NONE', #220, .T. ) ;
#189 = CARTESIAN_POINT ( 'NONE',  ( 0.0000000000000000000, 0.0000000000000000000, 0.1181100000000000066 ) ) ;
#190 = CARTESIAN_POINT ( 'NONE',  ( 0.0000000000000000000, 0.0000000000000000000, 3.922007999999999939 ) ) ;
#191 = ORIENTED_EDGE ( 'NONE', *, *, #278, .T. ) ;
#192 = CARTESIAN_POINT ( 'NONE',  ( 0.07873999999999996280, 9.642868896486255427E-18, 0.2061439962741667686 ) ) ;
#193 = AXIS2_PLACEMENT_3D ( 'NONE', #162, #183, #22 ) ;
#194 = DIRECTION ( 'NONE',  ( -1.000000000000000000, 0.0000000000000000000, 0.0000000000000000000 ) ) ;
#195 = DIRECTION ( 'NONE',  ( -1.000000000000000000, 0.0000000000000000000, 0.0000000000000000000 ) ) ;
#196 = ORIENTED_EDGE ( 'NONE', *, *, #221, .F. ) ;
#197 = EDGE_CURVE ( 'NONE', #313, #326, #328, .T. ) ;
#198 = VERTEX_POINT ( 'NONE', #128 ) ;
#199 = ORIENTED_EDGE ( 'NONE', *, *, #155, .F. ) ;
#200 = ORIENTED_EDGE ( 'NONE', *, *, #226, .T. ) ;
#201 = CIRCLE ( 'NONE', #193, 0.07873999999999996280 ) ;
#202 = CARTESIAN_POINT ( 'NONE',  ( 0.0000000000000000000, 0.0000000000000000000, 1.732283000000000239 ) ) ;
#203 = ORIENTED_EDGE ( 'NONE', *, *, #237, .F. ) ;
#204 = CARTESIAN_POINT ( 'NONE',  ( 0.0000000000000000000, 0.0000000000000000000, 0.2061439962741667686 ) ) ;
#205 = LINE ( 'NONE', #107, #333 ) ;
#206 = CIRCLE ( 'NONE', #247, 0.07873999999999985178 ) ;
#207 = LINE ( 'NONE', #77, #144 ) ;
#208 = ADVANCED_FACE ( 'NONE', ( #127 ), #53, .T. ) ;
#209 = ADVANCED_FACE ( 'NONE', ( #231 ), #154, .T. ) ;
#210 = DIRECTION ( 'NONE',  ( -1.000000000000000000, 0.0000000000000000000, 0.0000000000000000000 ) ) ;
#211 = AXIS2_PLACEMENT_3D ( 'NONE', #292, #28, #138 ) ;
#212 = SURFACE_STYLE_USAGE ( .BOTH. , #9 ) ;
#213 = CARTESIAN_POINT ( 'NONE',  ( 0.0000000000000000000, 0.0000000000000000000, 0.2061439962741667686 ) ) ;
#214 = ORIENTED_EDGE ( 'NONE', *, *, #90, .F. ) ;
#215 = DIRECTION ( 'NONE',  ( -1.000000000000000000, 0.0000000000000000000, 0.0000000000000000000 ) ) ;
#216 = CARTESIAN_POINT ( 'NONE',  ( 0.0000000000000000000, 0.0000000000000000000, 0.1181100000000000066 ) ) ;
#217 = DIRECTION ( 'NONE',  ( -1.000000000000000000, 0.0000000000000000000, 0.0000000000000000000 ) ) ;
#218 = DIRECTION ( 'NONE',  ( 0.0000000000000000000, 0.0000000000000000000, -1.000000000000000000 ) ) ;
#219 = AXIS2_PLACEMENT_3D ( 'NONE', #190, #113, #244 ) ;
#220 = EDGE_LOOP ( 'NONE', ( #238, #117, #101, #159, #203 ) ) ;
#221 = EDGE_CURVE ( 'NONE', #12, #313, #207, .T. ) ;
#222 = ORIENTED_EDGE ( 'NONE', *, *, #272, .F. ) ;
#223 = PRESENTATION_LAYER_ASSIGNMENT (  '', '', ( #339 ) ) ;
#224 = VERTEX_POINT ( 'NONE', #50 ) ;
#225 = ORIENTED_EDGE ( 'NONE', *, *, #125, .T. ) ;
#226 = EDGE_CURVE ( 'NONE', #198, #224, #126, .T. ) ;
#227 = PRODUCT_CONTEXT ( 'NONE', #72, 'mechanical' ) ;
#228 = ORIENTED_EDGE ( 'NONE', *, *, #147, .T. ) ;
#229 = CARTESIAN_POINT ( 'NONE',  ( 0.0000000000000000000, 0.0000000000000000000, 3.937007999999999619 ) ) ;
#230 = CIRCLE ( 'NONE', #40, 0.1031100000000005484 ) ;
#231 = FACE_OUTER_BOUND ( 'NONE', #27, .T. ) ;
#232 = ADVANCED_FACE ( 'NONE', ( #158 ), #124, .T. ) ;
#233 = DIRECTION ( 'NONE',  ( 0.7071067811865422437, 8.659560562354868763E-17, -0.7071067811865526798 ) ) ;
#234 = ORIENTED_EDGE ( 'NONE', *, *, #35, .T. ) ;
#235 = CIRCLE ( 'NONE', #287, 0.1181100000000000344 ) ;
#236 = DIRECTION ( 'NONE',  ( 1.000000000000000000, 0.0000000000000000000, 0.0000000000000000000 ) ) ;
#237 = EDGE_CURVE ( 'NONE', #288, #341, #176, .T. ) ;
#238 = ORIENTED_EDGE ( 'NONE', *, *, #184, .F. ) ;
#239 = CLOSED_SHELL ( 'NONE', ( #253, #139, #92, #334, #209, #343, #142, #67, #145, #232, #208 ) ) ;
#240 = CARTESIAN_POINT ( 'NONE',  ( 0.0000000000000000000, 0.0000000000000000000, 3.937007999999999619 ) ) ;
#241 = COLOUR_RGB ( '',0.7921568627450980005, 0.8196078431372548767, 0.9333333333333333481 ) ;
#242 =( NAMED_UNIT ( * ) SI_UNIT ( $, .STERADIAN. ) SOLID_ANGLE_UNIT ( ) );
#243 = DIRECTION ( 'NONE',  ( -1.224646799147353207E-16, 1.000000000000000000, 0.0000000000000000000 ) ) ;
#244 = DIRECTION ( 'NONE',  ( 1.000000000000000000, 0.0000000000000000000, 0.0000000000000000000 ) ) ;
#245 = SURFACE_STYLE_FILL_AREA ( #7 ) ;
#246 = DIRECTION ( 'NONE',  ( -0.0000000000000000000, -0.0000000000000000000, -1.000000000000000000 ) ) ;
#247 = AXIS2_PLACEMENT_3D ( 'NONE', #267, #246, #195 ) ;
#248 = ADVANCED_BREP_SHAPE_REPRESENTATION ( 'Micro_SBMM-060-348X', ( #105, #69 ), #266 ) ;
#249 = PRODUCT_DEFINITION_CONTEXT ( 'detailed design', #275, 'design' ) ;
#250 =( GEOMETRIC_REPRESENTATION_CONTEXT ( 3 ) GLOBAL_UNCERTAINTY_ASSIGNED_CONTEXT ( ( #271 ) ) GLOBAL_UNIT_ASSIGNED_CONTEXT ( ( #110, #262, #242 ) ) REPRESENTATION_CONTEXT ( 'NONE', 'WORKASPACE' ) );
#251 = LINE ( 'NONE', #255, #270 ) ;
#252 = AXIS2_PLACEMENT_3D ( 'NONE', #160, #322, #32 ) ;
#253 = ADVANCED_FACE ( 'NONE', ( #109 ), #120, .T. ) ;
#254 = ORIENTED_EDGE ( 'NONE', *, *, #297, .F. ) ;
#255 = CARTESIAN_POINT ( 'NONE',  ( -0.07873999999999992117, 0.0000000000000000000, 0.0000000000000000000 ) ) ;
#256 = FACE_OUTER_BOUND ( 'NONE', #276, .T. ) ;
#257 = AXIS2_PLACEMENT_3D ( 'NONE', #213, #295, #210 ) ;
#258 = EDGE_LOOP ( 'NONE', ( #228, #168, #332, #199 ) ) ;
#259 =( CONVERSION_BASED_UNIT ( 'INCH', #2 ) LENGTH_UNIT ( ) NAMED_UNIT ( #64 ) );
#260 = DIRECTION ( 'NONE',  ( 1.000000000000000000, 0.0000000000000000000, 0.0000000000000000000 ) ) ;
#261 =( CONVERSION_BASED_UNIT ( 'INCH', #133 ) LENGTH_UNIT ( ) NAMED_UNIT ( #173 ) );
#262 =( NAMED_UNIT ( * ) PLANE_ANGLE_UNIT ( ) SI_UNIT ( $, .RADIAN. ) );
#263 = AXIS2_PLACEMENT_3D ( 'NONE', #240, #174, #74 ) ;
#264 = DIRECTION ( 'NONE',  ( -0.0000000000000000000, -0.0000000000000000000, -1.000000000000000000 ) ) ;
#265 = CARTESIAN_POINT ( 'NONE',  ( 0.0000000000000000000, 0.0000000000000000000, 1.259842999999999824 ) ) ;
#266 =( GEOMETRIC_REPRESENTATION_CONTEXT ( 3 ) GLOBAL_UNCERTAINTY_ASSIGNED_CONTEXT ( ( #94 ) ) GLOBAL_UNIT_ASSIGNED_CONTEXT ( ( #261, #115, #63 ) ) REPRESENTATION_CONTEXT ( 'NONE', 'WORKASPACE' ) );
#267 = CARTESIAN_POINT ( 'NONE',  ( 0.0000000000000000000, 0.0000000000000000000, 1.259842999999999824 ) ) ;
#268 = DIRECTION ( 'NONE',  ( 0.0000000000000000000, 0.0000000000000000000, 1.000000000000000000 ) ) ;
#269 = ORIENTED_EDGE ( 'NONE', *, *, #96, .T. ) ;
#270 = VECTOR ( 'NONE', #18, 39.37007874015748143 ) ;
#271 = UNCERTAINTY_MEASURE_WITH_UNIT (LENGTH_MEASURE( 1.000000000000000082E-05 ), #110, 'distance_accuracy_value', 'NONE');
#272 = EDGE_CURVE ( 'NONE', #307, #164, #187, .T. ) ;
#273 = AXIS2_PLACEMENT_3D ( 'NONE', #265, #29, #85 ) ;
#274 =( NAMED_UNIT ( * ) PLANE_ANGLE_UNIT ( ) SI_UNIT ( $, .RADIAN. ) );
#275 = APPLICATION_CONTEXT ( 'automotive_design' ) ;
#276 = EDGE_LOOP ( 'NONE', ( #51, #222, #73, #172 ) ) ;
#277 = DIRECTION ( 'NONE',  ( 1.000000000000000000, 0.0000000000000000000, -0.0000000000000000000 ) ) ;
#278 = EDGE_CURVE ( 'NONE', #12, #44, #310, .T. ) ;
#279 = CIRCLE ( 'NONE', #327, 0.1181099999999999789 ) ;
#280 = VERTEX_POINT ( 'NONE', #55 ) ;
#281 = FACE_OUTER_BOUND ( 'NONE', #25, .T. ) ;
#282 = AXIS2_PLACEMENT_3D ( 'NONE', #286, #15, #180 ) ;
#283 = DIRECTION ( 'NONE',  ( 0.0000000000000000000, 0.0000000000000000000, -1.000000000000000000 ) ) ;
#284 = CARTESIAN_POINT ( 'NONE',  ( -0.07873999999999985178, 1.205358612060781697E-17, 1.259842999999999824 ) ) ;
#285 = EDGE_CURVE ( 'NONE', #326, #313, #170, .T. ) ;
#286 = CARTESIAN_POINT ( 'NONE',  ( 0.0000000000000000000, 0.0000000000000000000, 3.937007999999999619 ) ) ;
#287 = AXIS2_PLACEMENT_3D ( 'NONE', #336, #45, #149 ) ;
#288 = VERTEX_POINT ( 'NONE', #192 ) ;
#289 = CARTESIAN_POINT ( 'NONE',  ( 9.642868896486255427E-18, -0.07873999999999996280, 0.2061439962741667686 ) ) ;
#290 = PRODUCT ( 'Micro_SBMM-060-348X', 'Micro_SBMM-060-348X', '', ( #227 ) ) ;
#291 = CYLINDRICAL_SURFACE ( 'NONE', #116, 0.07873999999999992117 ) ;
#292 = CARTESIAN_POINT ( 'NONE',  ( 0.0000000000000000000, 0.0000000000000000000, 1.874014999999997322 ) ) ;
#293 = AXIS2_PLACEMENT_3D ( 'NONE', #338, #23, #106 ) ;
#294 = CARTESIAN_POINT ( 'NONE',  ( 0.1031100000000005484, 1.354581824536890879E-17, 3.937007999999999619 ) ) ;
#295 = DIRECTION ( 'NONE',  ( -0.0000000000000000000, -0.0000000000000000000, -1.000000000000000000 ) ) ;
#296 = DIRECTION ( 'NONE',  ( -0.0000000000000000000, -0.0000000000000000000, -1.000000000000000000 ) ) ;
#297 = EDGE_CURVE ( 'NONE', #224, #288, #66, .T. ) ;
#298 =( LENGTH_UNIT ( ) NAMED_UNIT ( * ) SI_UNIT ( $, .METRE. ) );
#299 = AXIS2_PLACEMENT_3D ( 'NONE', #21, #103, #236 ) ;
#300 = FACE_OUTER_BOUND ( 'NONE', #258, .T. ) ;
#301 = UNCERTAINTY_MEASURE_WITH_UNIT (LENGTH_MEASURE( 1.000000000000000082E-05 ), #259, 'distance_accuracy_value', 'NONE');
#302 = ORIENTED_EDGE ( 'NONE', *, *, #102, .T. ) ;
#303 = AXIS2_PLACEMENT_3D ( 'NONE', #229, #179, #277 ) ;
#304 = APPLICATION_PROTOCOL_DEFINITION ( 'draft international standard', 'automotive_design', 1998, #275 ) ;
#305 = ORIENTED_EDGE ( 'NONE', *, *, #147, .F. ) ;
#306 = CYLINDRICAL_SURFACE ( 'NONE', #282, 0.1181100000000000344 ) ;
#307 = VERTEX_POINT ( 'NONE', #316 ) ;
#308 = LINE ( 'NONE', #186, #130 ) ;
#309 =( NAMED_UNIT ( * ) SI_UNIT ( $, .STERADIAN. ) SOLID_ANGLE_UNIT ( ) );
#310 = CIRCLE ( 'NONE', #219, 0.1181100000000000344 ) ;
#311 = DIRECTION ( 'NONE',  ( 0.08304547985374029218, 0.0000000000000000000, 0.9965457582448795648 ) ) ;
#312 = CARTESIAN_POINT ( 'NONE',  ( 0.0000000000000000000, 7.232151672364693882E-18, 1.707404996040164512E-17 ) ) ;
#313 = VERTEX_POINT ( 'NONE', #60 ) ;
#314 = CARTESIAN_POINT ( 'NONE',  ( 0.0000000000000000000, 0.0000000000000000000, 1.732283000000000239 ) ) ;
#315 = VECTOR ( 'NONE', #10, 39.37007874015748854 ) ;
#316 = CARTESIAN_POINT ( 'NONE',  ( 0.07873999999999985178, 0.0000000000000000000, 1.259842999999999824 ) ) ;
#317 = DIRECTION ( 'NONE',  ( 1.000000000000000000, 0.0000000000000000000, 0.0000000000000000000 ) ) ;
#318 = DIRECTION ( 'NONE',  ( 0.0000000000000000000, 0.0000000000000000000, 1.000000000000000000 ) ) ;
#319 = EDGE_CURVE ( 'NONE', #280, #44, #167, .T. ) ;
#320 = CARTESIAN_POINT ( 'NONE',  ( -0.1181100000000000344, 0.0000000000000000000, 3.922007999999999939 ) ) ;
#321 = CARTESIAN_POINT ( 'NONE',  ( -0.1299209999999998422, 1.591073367920230651E-17, 1.874014999999997322 ) ) ;
#322 = DIRECTION ( 'NONE',  ( 1.000000000000000000, 0.0000000000000000000, 0.0000000000000000000 ) ) ;
#323 = PRODUCT_DEFINITION_FORMATION_WITH_SPECIFIED_SOURCE ( 'ANY', '', #290, .NOT_KNOWN. ) ;
#324 = PRODUCT_DEFINITION ( 'UNKNOWN', '', #323, #249 ) ;
#325 = DIRECTION ( 'NONE',  ( 0.0000000000000000000, 0.0000000000000000000, 1.000000000000000000 ) ) ;
#326 = VERTEX_POINT ( 'NONE', #34 ) ;
#327 = AXIS2_PLACEMENT_3D ( 'NONE', #216, #194, #318 ) ;
#328 = CIRCLE ( 'NONE', #24, 0.1181100000000000344 ) ;
#329 = ORIENTED_EDGE ( 'NONE', *, *, #285, .T. ) ;
#330 = ORIENTED_EDGE ( 'NONE', *, *, #319, .F. ) ;
#331 = PRESENTATION_LAYER_ASSIGNMENT (  '', '', ( #5 ) ) ;
#332 = ORIENTED_EDGE ( 'NONE', *, *, #197, .T. ) ;
#333 = VECTOR ( 'NONE', #311, 39.37007874015748854 ) ;
#334 = ADVANCED_FACE ( 'NONE', ( #57 ), #17, .T. ) ;
#335 = ORIENTED_EDGE ( 'NONE', *, *, #226, .F. ) ;
#336 = CARTESIAN_POINT ( 'NONE',  ( 0.0000000000000000000, 0.0000000000000000000, 3.922007999999999939 ) ) ;
#337 = ORIENTED_EDGE ( 'NONE', *, *, #163, .T. ) ;
#338 = CARTESIAN_POINT ( 'NONE',  ( 0.0000000000000000000, 0.0000000000000000000, 0.1181100000000000066 ) ) ;
#339 = STYLED_ITEM ( 'NONE', ( #62 ), #105 ) ;
#340 = DIRECTION ( 'NONE',  ( -1.000000000000000000, 0.0000000000000000000, 0.0000000000000000000 ) ) ;
#341 = VERTEX_POINT ( 'NONE', #289 ) ;
#342 = DIRECTION ( 'NONE',  ( 0.0000000000000000000, 0.0000000000000000000, 1.000000000000000000 ) ) ;
#343 = ADVANCED_FACE ( 'NONE', ( #54 ), #111, .T. ) ;
#344 = LENGTH_MEASURE_WITH_UNIT ( LENGTH_MEASURE( 0.02539999999999999897 ), #298 );
#345 = DIRECTION ( 'NONE',  ( -0.0000000000000000000, -0.0000000000000000000, -1.000000000000000000 ) ) ;
ENDSEC;
END-ISO-10303-21;
