ISO-10303-21;
HEADER;
FILE_DESCRIPTION (( 'STEP AP214' ),
    '1' );
FILE_NAME ('59665.STEP',
    '2023-07-24T15:52:14',
    ( '' ),
    ( '' ),
    'SwSTEP 2.0',
    'SolidWorks 2023',
    '' );
FILE_SCHEMA (( 'AUTOMOTIVE_DESIGN' ));
ENDSEC;

DATA;
#1 = APPLICATION_PROTOCOL_DEFINITION ( 'draft international standard', 'automotive_design', 1998, #134 ) ;
#2 = DIRECTION ( 'NONE',  ( -2.245185798436817151E-17, 1.000000000000000000, -0.000000000000000000 ) ) ;
#3 = EDGE_LOOP ( 'NONE', ( #173, #91 ) ) ;
#4 = DIRECTION ( 'NONE',  ( 0.000000000000000000, 0.000000000000000000, -1.000000000000000000 ) ) ;
#5 = LINE ( 'NONE', #6, #26 ) ;
#6 = CARTESIAN_POINT ( 'NONE',  ( -10.00000000000000355, 100.0000000000000000, 0.000000000000000000 ) ) ;
#7 = FILL_AREA_STYLE_COLOUR ( '', #278 ) ;
#8 = ORIENTED_EDGE ( 'NONE', *, *, #217, .F. ) ;
#9 = PLANE ( 'NONE',  #144 ) ;
#10 = AXIS2_PLACEMENT_3D ( 'NONE', #204, #40, #33 ) ;
#11 = SURFACE_STYLE_USAGE ( .BOTH. , #207 ) ;
#12 = CARTESIAN_POINT ( 'NONE',  ( 0.000000000000000000, 0.000000000000000000, 0.000000000000000000 ) ) ;
#13 = MANIFOLD_SOLID_BREP ( 'Revolve - Tool Body (Straight Shanked)', #163 ) ;
#14 = PRESENTATION_LAYER_ASSIGNMENT (  '', '', ( #101 ) ) ;
#15 = DIRECTION ( 'NONE',  ( -2.245185798436817151E-17, 1.000000000000000000, 0.000000000000000000 ) ) ;
#16 = FILL_AREA_STYLE_COLOUR ( '', #191 ) ;
#17 = DIRECTION ( 'NONE',  ( 1.000000000000000000, 2.245185798436817151E-17, 0.000000000000000000 ) ) ;
#18 = FACE_OUTER_BOUND ( 'NONE', #35, .T. ) ;
#19 = EDGE_CURVE ( 'NONE', #264, #109, #79, .T. ) ;
#20 = ORIENTED_EDGE ( 'NONE', *, *, #161, .T. ) ;
#21 = CARTESIAN_POINT ( 'NONE',  ( 2.520429634751184325E-33, 40.00000000000000000, 0.000000000000000000 ) ) ;
#22 = CARTESIAN_POINT ( 'NONE',  ( -10.00000000000000533, 100.0000000000000000, 0.000000000000000000 ) ) ;
#23 = EDGE_CURVE ( 'NONE', #264, #27, #224, .T. ) ;
#24 = DIRECTION ( 'NONE',  ( 0.000000000000000000, 1.000000000000000000, 0.000000000000000000 ) ) ;
#25 = ORIENTED_EDGE ( 'NONE', *, *, #92, .T. ) ;
#26 = VECTOR ( 'NONE', #244, 1000.000000000000000 ) ;
#27 = VERTEX_POINT ( 'NONE', #247 ) ;
#28 = EDGE_CURVE ( 'NONE', #109, #264, #157, .T. ) ;
#29 = FILL_AREA_STYLE ('',( #93 ) ) ;
#30 = UNCERTAINTY_MEASURE_WITH_UNIT (LENGTH_MEASURE( 1.000000000000000082E-05 ), #89, 'distance_accuracy_value', 'NONE');
#31 = FILL_AREA_STYLE ('',( #7 ) ) ;
#32 = AXIS2_PLACEMENT_3D ( 'NONE', #48, #210, #67 ) ;
#33 = DIRECTION ( 'NONE',  ( 0.000000000000000000, 0.000000000000000000, -1.000000000000000000 ) ) ;
#34 = DIRECTION ( 'NONE',  ( -0.000000000000000000, -1.000000000000000000, -0.000000000000000000 ) ) ;
#35 = EDGE_LOOP ( 'NONE', ( #259, #117 ) ) ;
#36 =( NAMED_UNIT ( * ) PLANE_ANGLE_UNIT ( ) SI_UNIT ( $, .RADIAN. ) );
#37 = FILL_AREA_STYLE_COLOUR ( '', #86 ) ;
#38 = CIRCLE ( 'NONE', #286, 10.00000000000000000 ) ;
#39 = CIRCLE ( 'NONE', #231, 10.00000000000000000 ) ;
#40 = DIRECTION ( 'NONE',  ( -0.000000000000000000, -1.000000000000000000, -0.000000000000000000 ) ) ;
#41 = FILL_AREA_STYLE_COLOUR ( '', #189 ) ;
#42 = CARTESIAN_POINT ( 'NONE',  ( 0.000000000000000000, 0.000000000000000000, 0.000000000000000000 ) ) ;
#43 = EDGE_LOOP ( 'NONE', ( #274, #245, #72, #81 ) ) ;
#44 = CARTESIAN_POINT ( 'NONE',  ( 0.000000000000000000, 0.000000000000000000, 0.000000000000000000 ) ) ;
#45 = PRESENTATION_STYLE_ASSIGNMENT (( #249 ) ) ;
#46 = LINE ( 'NONE', #183, #120 ) ;
#47 = SURFACE_SIDE_STYLE ('',( #182 ) ) ;
#48 = CARTESIAN_POINT ( 'NONE',  ( 1.925929944387235853E-31, 40.00000000000000000, 0.000000000000000000 ) ) ;
#49 =( LENGTH_UNIT ( ) NAMED_UNIT ( * ) SI_UNIT ( .MILLI., .METRE. ) );
#50 = EDGE_LOOP ( 'NONE', ( #270, #218, #105, #111 ) ) ;
#51 = AXIS2_PLACEMENT_3D ( 'NONE', #175, #2, #87 ) ;
#52 = DIRECTION ( 'NONE',  ( 0.000000000000000000, 0.000000000000000000, -1.000000000000000000 ) ) ;
#53 = ADVANCED_FACE ( 'NONE', ( #179 ), #153, .T. ) ;
#54 = PRESENTATION_STYLE_ASSIGNMENT (( #205 ) ) ;
#55 = EDGE_CURVE ( 'NONE', #27, #69, #174, .T. ) ;
#56 = COLOUR_RGB ( '',0.7921568627450980005, 0.8196078431372548767, 0.9333333333333333481 ) ;
#57 = PRESENTATION_LAYER_ASSIGNMENT (  '', '', ( #239 ) ) ;
#58 = ADVANCED_FACE ( 'NONE', ( #65 ), #158, .F. ) ;
#59 = APPLICATION_PROTOCOL_DEFINITION ( 'draft international standard', 'automotive_design', 1998, #122 ) ;
#60 = UNCERTAINTY_MEASURE_WITH_UNIT (LENGTH_MEASURE( 1.000000000000000082E-05 ), #49, 'distance_accuracy_value', 'NONE');
#61 = VECTOR ( 'NONE', #251, 1000.000000000000000 ) ;
#62 = SURFACE_STYLE_FILL_AREA ( #282 ) ;
#63 = MECHANICAL_DESIGN_GEOMETRIC_PRESENTATION_REPRESENTATION (  '', ( #269 ), #226 ) ;
#64 = VERTEX_POINT ( 'NONE', #221 ) ;
#65 = FACE_OUTER_BOUND ( 'NONE', #3, .T. ) ;
#66 = ORIENTED_EDGE ( 'NONE', *, *, #200, .T. ) ;
#67 = DIRECTION ( 'NONE',  ( -1.000000000000000000, 0.000000000000000000, 0.000000000000000000 ) ) ;
#68 = PRESENTATION_LAYER_ASSIGNMENT (  '', '', ( #269 ) ) ;
#69 = VERTEX_POINT ( 'NONE', #22 ) ;
#70 = MECHANICAL_DESIGN_GEOMETRIC_PRESENTATION_REPRESENTATION (  '', ( #239 ), #243 ) ;
#71 = CARTESIAN_POINT ( 'NONE',  ( 10.00000000000000000, 100.0000000000000000, 1.224646799147353454E-15 ) ) ;
#72 = ORIENTED_EDGE ( 'NONE', *, *, #156, .T. ) ;
#73 = CARTESIAN_POINT ( 'NONE',  ( 1.224646799147353256E-15, 0.000000000000000000, 10.00000000000000000 ) ) ;
#74 =( LENGTH_UNIT ( ) NAMED_UNIT ( * ) SI_UNIT ( .MILLI., .METRE. ) );
#75 = LINE ( 'NONE', #73, #61 ) ;
#76 = UNCERTAINTY_MEASURE_WITH_UNIT (LENGTH_MEASURE( 1.000000000000000082E-05 ), #233, 'distance_accuracy_value', 'NONE');
#77 =( NAMED_UNIT ( * ) SI_UNIT ( $, .STERADIAN. ) SOLID_ANGLE_UNIT ( ) );
#78 = UNCERTAINTY_MEASURE_WITH_UNIT (LENGTH_MEASURE( 1.000000000000000082E-05 ), #130, 'distance_accuracy_value', 'NONE');
#79 = CIRCLE ( 'NONE', #238, 10.00000000000000000 ) ;
#80 = DIRECTION ( 'NONE',  ( -1.000000000000000000, 0.000000000000000000, 0.000000000000000000 ) ) ;
#81 = ORIENTED_EDGE ( 'NONE', *, *, #92, .F. ) ;
#82 = CARTESIAN_POINT ( 'NONE',  ( -1.347111479062090180E-15, 100.0000000000000000, 0.000000000000000000 ) ) ;
#83 = ADVANCED_BREP_SHAPE_REPRESENTATION ( '59665', ( #213, #13, #139 ), #146 ) ;
#84 = DIRECTION ( 'NONE',  ( -1.000000000000000000, 0.000000000000000000, 0.000000000000000000 ) ) ;
#85 = ORIENTED_EDGE ( 'NONE', *, *, #19, .T. ) ;
#86 = COLOUR_RGB ( '',1.000000000000000000, 0.000000000000000000, 0.000000000000000000 ) ;
#87 = DIRECTION ( 'NONE',  ( -1.000000000000000000, 0.000000000000000000, 0.000000000000000000 ) ) ;
#88 = FILL_AREA_STYLE ('',( #37 ) ) ;
#89 =( LENGTH_UNIT ( ) NAMED_UNIT ( * ) SI_UNIT ( .MILLI., .METRE. ) );
#90 = AXIS2_PLACEMENT_3D ( 'NONE', #44, #170, #114 ) ;
#91 = ORIENTED_EDGE ( 'NONE', *, *, #55, .T. ) ;
#92 = EDGE_CURVE ( 'NONE', #235, #198, #38, .T. ) ;
#93 = FILL_AREA_STYLE_COLOUR ( '', #169 ) ;
#94 = SURFACE_SIDE_STYLE ('',( #272 ) ) ;
#95 = DIRECTION ( 'NONE',  ( 0.000000000000000000, 0.000000000000000000, -1.000000000000000000 ) ) ;
#96 = EDGE_LOOP ( 'NONE', ( #203, #25 ) ) ;
#97 = DIRECTION ( 'NONE',  ( -1.000000000000000000, 0.000000000000000000, 0.000000000000000000 ) ) ;
#98 =( GEOMETRIC_REPRESENTATION_CONTEXT ( 3 ) GLOBAL_UNCERTAINTY_ASSIGNED_CONTEXT ( ( #60 ) ) GLOBAL_UNIT_ASSIGNED_CONTEXT ( ( #49, #142, #136 ) ) REPRESENTATION_CONTEXT ( 'NONE', 'WORKASPACE' ) );
#99 = PRESENTATION_STYLE_ASSIGNMENT (( #11 ) ) ;
#100 = DIRECTION ( 'NONE',  ( 1.000000000000000000, 0.000000000000000000, 0.000000000000000000 ) ) ;
#101 = STYLED_ITEM ( 'NONE', ( #45 ), #13 ) ;
#102 = STYLED_ITEM ( 'NONE', ( #54 ), #212 ) ;
#103 = CYLINDRICAL_SURFACE ( 'NONE', #159, 10.00000000000000000 ) ;
#104 = ADVANCED_FACE ( 'NONE', ( #241 ), #115, .T. ) ;
#105 = ORIENTED_EDGE ( 'NONE', *, *, #154, .F. ) ;
#106 = PRODUCT_DEFINITION_SHAPE ( 'NONE', 'NONE',  #211 ) ;
#107 = MECHANICAL_DESIGN_GEOMETRIC_PRESENTATION_REPRESENTATION (  '', ( #151 ), #265 ) ;
#108 = DIRECTION ( 'NONE',  ( 2.245185798436817151E-17, -1.000000000000000000, 0.000000000000000000 ) ) ;
#109 = VERTEX_POINT ( 'NONE', #176 ) ;
#110 =( NAMED_UNIT ( * ) SI_UNIT ( $, .STERADIAN. ) SOLID_ANGLE_UNIT ( ) );
#111 = ORIENTED_EDGE ( 'NONE', *, *, #200, .F. ) ;
#112 = CARTESIAN_POINT ( 'NONE',  ( 10.00000000000000000, 40.00000000000000000, 1.224646799147353454E-15 ) ) ;
#113 =( NAMED_UNIT ( * ) PLANE_ANGLE_UNIT ( ) SI_UNIT ( $, .RADIAN. ) );
#114 = DIRECTION ( 'NONE',  ( 0.000000000000000000, 0.000000000000000000, -1.000000000000000000 ) ) ;
#115 = CYLINDRICAL_SURFACE ( 'NONE', #150, 10.00000000000000178 ) ;
#116 = CARTESIAN_POINT ( 'NONE',  ( 0.000000000000000000, 0.000000000000000000, -10.00000000000000000 ) ) ;
#117 = ORIENTED_EDGE ( 'NONE', *, *, #19, .F. ) ;
#118 = CARTESIAN_POINT ( 'NONE',  ( 0.000000000000000000, 40.00000000000000000, -10.00000000000000000 ) ) ;
#119 = FILL_AREA_STYLE ('',( #222 ) ) ;
#120 = VECTOR ( 'NONE', #225, 1000.000000000000000 ) ;
#121 = DIRECTION ( 'NONE',  ( -0.000000000000000000, -1.000000000000000000, -0.000000000000000000 ) ) ;
#122 = APPLICATION_CONTEXT ( 'automotive_design' ) ;
#123 = VECTOR ( 'NONE', #185, 1000.000000000000000 ) ;
#124 = PRESENTATION_LAYER_ASSIGNMENT (  '', '', ( #151 ) ) ;
#125 = ADVANCED_FACE ( 'NONE', ( #266 ), #199, .T. ) ;
#126 = AXIS2_PLACEMENT_3D ( 'NONE', #248, #160, #52 ) ;
#127 = DIRECTION ( 'NONE',  ( 0.000000000000000000, 0.000000000000000000, 1.000000000000000000 ) ) ;
#128 = EDGE_LOOP ( 'NONE', ( #20, #171, #8, #262 ) ) ;
#129 = UNCERTAINTY_MEASURE_WITH_UNIT (LENGTH_MEASURE( 1.000000000000000082E-05 ), #193, 'distance_accuracy_value', 'NONE');
#130 =( LENGTH_UNIT ( ) NAMED_UNIT ( * ) SI_UNIT ( .MILLI., .METRE. ) );
#131 = EDGE_CURVE ( 'NONE', #64, #235, #75, .T. ) ;
#132 = DIRECTION ( 'NONE',  ( -2.245185798436817151E-17, 1.000000000000000000, -0.000000000000000000 ) ) ;
#133 = SURFACE_STYLE_USAGE ( .BOTH. , #285 ) ;
#134 = APPLICATION_CONTEXT ( 'automotive_design' ) ;
#135 = PRODUCT_DEFINITION_FORMATION_WITH_SPECIFIED_SOURCE ( 'ANY', '', #256, .NOT_KNOWN. ) ;
#136 =( NAMED_UNIT ( * ) SI_UNIT ( $, .STERADIAN. ) SOLID_ANGLE_UNIT ( ) );
#137 = ORIENTED_EDGE ( 'NONE', *, *, #161, .F. ) ;
#138 = CARTESIAN_POINT ( 'NONE',  ( 0.000000000000000000, 0.000000000000000000, 0.000000000000000000 ) ) ;
#139 = AXIS2_PLACEMENT_3D ( 'NONE', #12, #127, #100 ) ;
#140 = DIRECTION ( 'NONE',  ( -0.000000000000000000, -1.000000000000000000, -0.000000000000000000 ) ) ;
#141 = UNCERTAINTY_MEASURE_WITH_UNIT (LENGTH_MEASURE( 1.000000000000000082E-05 ), #74, 'distance_accuracy_value', 'NONE');
#142 =( NAMED_UNIT ( * ) PLANE_ANGLE_UNIT ( ) SI_UNIT ( $, .RADIAN. ) );
#143 =( NAMED_UNIT ( * ) PLANE_ANGLE_UNIT ( ) SI_UNIT ( $, .RADIAN. ) );
#144 = AXIS2_PLACEMENT_3D ( 'NONE', #223, #24, #273 ) ;
#145 = DIRECTION ( 'NONE',  ( -2.245185798436817151E-17, 1.000000000000000000, -0.000000000000000000 ) ) ;
#146 =( GEOMETRIC_REPRESENTATION_CONTEXT ( 3 ) GLOBAL_UNCERTAINTY_ASSIGNED_CONTEXT ( ( #271 ) ) GLOBAL_UNIT_ASSIGNED_CONTEXT ( ( #258, #36, #110 ) ) REPRESENTATION_CONTEXT ( 'NONE', 'WORKASPACE' ) );
#147 = PLANE ( 'NONE',  #219 ) ;
#148 = SURFACE_STYLE_USAGE ( .BOTH. , #254 ) ;
#149 = DIRECTION ( 'NONE',  ( -0.000000000000000000, -1.000000000000000000, -0.000000000000000000 ) ) ;
#150 = AXIS2_PLACEMENT_3D ( 'NONE', #240, #132, #84 ) ;
#151 = STYLED_ITEM ( 'NONE', ( #277 ), #229 ) ;
#152 =( NAMED_UNIT ( * ) SI_UNIT ( $, .STERADIAN. ) SOLID_ANGLE_UNIT ( ) );
#153 = PLANE ( 'NONE',  #90 ) ;
#154 = EDGE_CURVE ( 'NONE', #69, #27, #250, .T. ) ;
#155 = CARTESIAN_POINT ( 'NONE',  ( 10.00000000000000178, 100.0000000000000000, 0.000000000000000000 ) ) ;
#156 = EDGE_CURVE ( 'NONE', #194, #198, #46, .T. ) ;
#157 = CIRCLE ( 'NONE', #32, 10.00000000000000000 ) ;
#158 = PLANE ( 'NONE',  #255 ) ;
#159 = AXIS2_PLACEMENT_3D ( 'NONE', #214, #149, #276 ) ;
#160 = DIRECTION ( 'NONE',  ( -0.000000000000000000, -1.000000000000000000, -0.000000000000000000 ) ) ;
#161 = EDGE_CURVE ( 'NONE', #194, #64, #257, .T. ) ;
#162 = DIRECTION ( 'NONE',  ( -2.245185798436817151E-17, 1.000000000000000000, -0.000000000000000000 ) ) ;
#163 = CLOSED_SHELL ( 'NONE', ( #234, #232, #104, #58 ) ) ;
#164 =( NAMED_UNIT ( * ) PLANE_ANGLE_UNIT ( ) SI_UNIT ( $, .RADIAN. ) );
#165 = SURFACE_STYLE_FILL_AREA ( #31 ) ;
#166 = EDGE_CURVE ( 'NONE', #64, #194, #39, .T. ) ;
#167 = CLOSED_SHELL ( 'NONE', ( #229, #212, #125, #53 ) ) ;
#168 =( NAMED_UNIT ( * ) PLANE_ANGLE_UNIT ( ) SI_UNIT ( $, .RADIAN. ) );
#169 = COLOUR_RGB ( '',1.000000000000000000, 0.000000000000000000, 0.000000000000000000 ) ;
#170 = DIRECTION ( 'NONE',  ( 0.000000000000000000, -1.000000000000000000, -0.000000000000000000 ) ) ;
#171 = ORIENTED_EDGE ( 'NONE', *, *, #131, .T. ) ;
#172 = PRESENTATION_STYLE_ASSIGNMENT (( #133 ) ) ;
#173 = ORIENTED_EDGE ( 'NONE', *, *, #154, .T. ) ;
#174 = CIRCLE ( 'NONE', #51, 10.00000000000000355 ) ;
#175 = CARTESIAN_POINT ( 'NONE',  ( -1.347111479062090180E-15, 100.0000000000000000, 0.000000000000000000 ) ) ;
#176 = CARTESIAN_POINT ( 'NONE',  ( -10.00000000000000000, 40.00000000000000000, 0.000000000000000000 ) ) ;
#177 = ORIENTED_EDGE ( 'NONE', *, *, #166, .F. ) ;
#178 = PRODUCT_CONTEXT ( 'NONE', #122, 'mechanical' ) ;
#179 = FACE_OUTER_BOUND ( 'NONE', #96, .T. ) ;
#180 = ORIENTED_EDGE ( 'NONE', *, *, #55, .F. ) ;
#181 = PRESENTATION_LAYER_ASSIGNMENT (  '', '', ( #102 ) ) ;
#182 = SURFACE_STYLE_FILL_AREA ( #29 ) ;
#183 = CARTESIAN_POINT ( 'NONE',  ( 0.000000000000000000, 0.000000000000000000, -10.00000000000000000 ) ) ;
#184 = DIRECTION ( 'NONE',  ( 0.000000000000000000, 0.000000000000000000, -1.000000000000000000 ) ) ;
#185 = DIRECTION ( 'NONE',  ( -2.245185798436817151E-17, 1.000000000000000000, -0.000000000000000000 ) ) ;
#186 = PRESENTATION_LAYER_ASSIGNMENT (  '', '', ( #275 ) ) ;
#187 = PRODUCT_DEFINITION_CONTEXT ( 'detailed design', #134, 'design' ) ;
#188 = PRODUCT_RELATED_PRODUCT_CATEGORY ( 'part', '', ( #256 ) ) ;
#189 = COLOUR_RGB ( '',1.000000000000000000, 0.000000000000000000, 0.000000000000000000 ) ;
#190 = DIRECTION ( 'NONE',  ( -1.000000000000000000, -2.245185798436817151E-17, 0.000000000000000000 ) ) ;
#191 = COLOUR_RGB ( '',1.000000000000000000, 0.000000000000000000, 0.000000000000000000 ) ;
#192 = SURFACE_SIDE_STYLE ('',( #195 ) ) ;
#193 =( LENGTH_UNIT ( ) NAMED_UNIT ( * ) SI_UNIT ( .MILLI., .METRE. ) );
#194 = VERTEX_POINT ( 'NONE', #118 ) ;
#195 = SURFACE_STYLE_FILL_AREA ( #88 ) ;
#196 =( GEOMETRIC_REPRESENTATION_CONTEXT ( 3 ) GLOBAL_UNCERTAINTY_ASSIGNED_CONTEXT ( ( #78 ) ) GLOBAL_UNIT_ASSIGNED_CONTEXT ( ( #130, #283, #152 ) ) REPRESENTATION_CONTEXT ( 'NONE', 'WORKASPACE' ) );
#197 = CIRCLE ( 'NONE', #10, 10.00000000000000000 ) ;
#198 = VERTEX_POINT ( 'NONE', #116 ) ;
#199 = CYLINDRICAL_SURFACE ( 'NONE', #209, 10.00000000000000000 ) ;
#200 = EDGE_CURVE ( 'NONE', #109, #69, #5, .T. ) ;
#201 = DIRECTION ( 'NONE',  ( -2.245185798436817151E-17, 1.000000000000000000, -0.000000000000000000 ) ) ;
#202 = AXIS2_PLACEMENT_3D ( 'NONE', #82, #145, #80 ) ;
#203 = ORIENTED_EDGE ( 'NONE', *, *, #217, .T. ) ;
#204 = CARTESIAN_POINT ( 'NONE',  ( 0.000000000000000000, 0.000000000000000000, 0.000000000000000000 ) ) ;
#205 = SURFACE_STYLE_USAGE ( .BOTH. , #47 ) ;
#206 = CARTESIAN_POINT ( 'NONE',  ( 1.925929944387235853E-31, 40.00000000000000000, 0.000000000000000000 ) ) ;
#207 = SURFACE_SIDE_STYLE ('',( #165 ) ) ;
#208 =( GEOMETRIC_REPRESENTATION_CONTEXT ( 3 ) GLOBAL_UNCERTAINTY_ASSIGNED_CONTEXT ( ( #141 ) ) GLOBAL_UNIT_ASSIGNED_CONTEXT ( ( #74, #164, #252 ) ) REPRESENTATION_CONTEXT ( 'NONE', 'WORKASPACE' ) );
#209 = AXIS2_PLACEMENT_3D ( 'NONE', #138, #121, #95 ) ;
#210 = DIRECTION ( 'NONE',  ( -2.245185798436817151E-17, 1.000000000000000000, -0.000000000000000000 ) ) ;
#211 = PRODUCT_DEFINITION ( 'UNKNOWN', '', #135, #187 ) ;
#212 = ADVANCED_FACE ( 'NONE', ( #246 ), #9, .T. ) ;
#213 = MANIFOLD_SOLID_BREP ( 'Revolve - Cutting Edge', #167 ) ;
#214 = CARTESIAN_POINT ( 'NONE',  ( 0.000000000000000000, 0.000000000000000000, 0.000000000000000000 ) ) ;
#215 = FACE_OUTER_BOUND ( 'NONE', #128, .T. ) ;
#216 = SURFACE_STYLE_USAGE ( .BOTH. , #192 ) ;
#217 = EDGE_CURVE ( 'NONE', #198, #235, #197, .T. ) ;
#218 = ORIENTED_EDGE ( 'NONE', *, *, #23, .T. ) ;
#219 = AXIS2_PLACEMENT_3D ( 'NONE', #21, #15, #190 ) ;
#220 = AXIS2_PLACEMENT_3D ( 'NONE', #230, #201, #253 ) ;
#221 = CARTESIAN_POINT ( 'NONE',  ( 1.224646799147353256E-15, 40.00000000000000000, 10.00000000000000000 ) ) ;
#222 = FILL_AREA_STYLE_COLOUR ( '', #56 ) ;
#223 = CARTESIAN_POINT ( 'NONE',  ( 0.000000000000000000, 40.00000000000000000, 0.000000000000000000 ) ) ;
#224 = LINE ( 'NONE', #71, #123 ) ;
#225 = DIRECTION ( 'NONE',  ( -0.000000000000000000, -1.000000000000000000, -0.000000000000000000 ) ) ;
#226 =( GEOMETRIC_REPRESENTATION_CONTEXT ( 3 ) GLOBAL_UNCERTAINTY_ASSIGNED_CONTEXT ( ( #129 ) ) GLOBAL_UNIT_ASSIGNED_CONTEXT ( ( #193, #113, #267 ) ) REPRESENTATION_CONTEXT ( 'NONE', 'WORKASPACE' ) );
#227 = MECHANICAL_DESIGN_GEOMETRIC_PRESENTATION_REPRESENTATION (  '', ( #275 ), #196 ) ;
#228 = CARTESIAN_POINT ( 'NONE',  ( 0.000000000000000000, 40.00000000000000000, 0.000000000000000000 ) ) ;
#229 = ADVANCED_FACE ( 'NONE', ( #215 ), #103, .T. ) ;
#230 = CARTESIAN_POINT ( 'NONE',  ( -1.347111479062090180E-15, 100.0000000000000000, 0.000000000000000000 ) ) ;
#231 = AXIS2_PLACEMENT_3D ( 'NONE', #228, #140, #184 ) ;
#232 = ADVANCED_FACE ( 'NONE', ( #18 ), #147, .F. ) ;
#233 =( LENGTH_UNIT ( ) NAMED_UNIT ( * ) SI_UNIT ( .MILLI., .METRE. ) );
#234 = ADVANCED_FACE ( 'NONE', ( #284 ), #280, .T. ) ;
#235 = VERTEX_POINT ( 'NONE', #236 ) ;
#236 = CARTESIAN_POINT ( 'NONE',  ( 1.224646799147353256E-15, 0.000000000000000000, 10.00000000000000000 ) ) ;
#237 = SURFACE_STYLE_FILL_AREA ( #261 ) ;
#238 = AXIS2_PLACEMENT_3D ( 'NONE', #206, #162, #97 ) ;
#239 = STYLED_ITEM ( 'NONE', ( #99 ), #213 ) ;
#240 = CARTESIAN_POINT ( 'NONE',  ( -1.347111479062090180E-15, 100.0000000000000000, 0.000000000000000000 ) ) ;
#241 = FACE_OUTER_BOUND ( 'NONE', #279, .T. ) ;
#242 = SHAPE_DEFINITION_REPRESENTATION ( #106, #83 ) ;
#243 =( GEOMETRIC_REPRESENTATION_CONTEXT ( 3 ) GLOBAL_UNCERTAINTY_ASSIGNED_CONTEXT ( ( #30 ) ) GLOBAL_UNIT_ASSIGNED_CONTEXT ( ( #89, #168, #260 ) ) REPRESENTATION_CONTEXT ( 'NONE', 'WORKASPACE' ) );
#244 = DIRECTION ( 'NONE',  ( -2.245185798436817151E-17, 1.000000000000000000, -0.000000000000000000 ) ) ;
#245 = ORIENTED_EDGE ( 'NONE', *, *, #166, .T. ) ;
#246 = FACE_OUTER_BOUND ( 'NONE', #287, .T. ) ;
#247 = CARTESIAN_POINT ( 'NONE',  ( 10.00000000000000178, 100.0000000000000000, 1.224646799147353454E-15 ) ) ;
#248 = CARTESIAN_POINT ( 'NONE',  ( 0.000000000000000000, 40.00000000000000000, 0.000000000000000000 ) ) ;
#249 = SURFACE_STYLE_USAGE ( .BOTH. , #94 ) ;
#250 = CIRCLE ( 'NONE', #220, 10.00000000000000355 ) ;
#251 = DIRECTION ( 'NONE',  ( -0.000000000000000000, -1.000000000000000000, -0.000000000000000000 ) ) ;
#252 =( NAMED_UNIT ( * ) SI_UNIT ( $, .STERADIAN. ) SOLID_ANGLE_UNIT ( ) );
#253 = DIRECTION ( 'NONE',  ( -1.000000000000000000, 0.000000000000000000, 0.000000000000000000 ) ) ;
#254 = SURFACE_SIDE_STYLE ('',( #62 ) ) ;
#255 = AXIS2_PLACEMENT_3D ( 'NONE', #155, #108, #17 ) ;
#256 = PRODUCT ( '59665', '59665', '', ( #178 ) ) ;
#257 = CIRCLE ( 'NONE', #126, 10.00000000000000000 ) ;
#258 =( LENGTH_UNIT ( ) NAMED_UNIT ( * ) SI_UNIT ( .MILLI., .METRE. ) );
#259 = ORIENTED_EDGE ( 'NONE', *, *, #28, .F. ) ;
#260 =( NAMED_UNIT ( * ) SI_UNIT ( $, .STERADIAN. ) SOLID_ANGLE_UNIT ( ) );
#261 = FILL_AREA_STYLE ('',( #41 ) ) ;
#262 = ORIENTED_EDGE ( 'NONE', *, *, #156, .F. ) ;
#263 = MECHANICAL_DESIGN_GEOMETRIC_PRESENTATION_REPRESENTATION (  '', ( #101 ), #208 ) ;
#264 = VERTEX_POINT ( 'NONE', #112 ) ;
#265 =( GEOMETRIC_REPRESENTATION_CONTEXT ( 3 ) GLOBAL_UNCERTAINTY_ASSIGNED_CONTEXT ( ( #76 ) ) GLOBAL_UNIT_ASSIGNED_CONTEXT ( ( #233, #143, #77 ) ) REPRESENTATION_CONTEXT ( 'NONE', 'WORKASPACE' ) );
#266 = FACE_OUTER_BOUND ( 'NONE', #43, .T. ) ;
#267 =( NAMED_UNIT ( * ) SI_UNIT ( $, .STERADIAN. ) SOLID_ANGLE_UNIT ( ) );
#268 = ORIENTED_EDGE ( 'NONE', *, *, #23, .F. ) ;
#269 = STYLED_ITEM ( 'NONE', ( #172 ), #53 ) ;
#270 = ORIENTED_EDGE ( 'NONE', *, *, #28, .T. ) ;
#271 = UNCERTAINTY_MEASURE_WITH_UNIT (LENGTH_MEASURE( 1.000000000000000082E-05 ), #258, 'distance_accuracy_value', 'NONE');
#272 = SURFACE_STYLE_FILL_AREA ( #119 ) ;
#273 = DIRECTION ( 'NONE',  ( 0.000000000000000000, -0.000000000000000000, 1.000000000000000000 ) ) ;
#274 = ORIENTED_EDGE ( 'NONE', *, *, #131, .F. ) ;
#275 = STYLED_ITEM ( 'NONE', ( #281 ), #125 ) ;
#276 = DIRECTION ( 'NONE',  ( 0.000000000000000000, 0.000000000000000000, -1.000000000000000000 ) ) ;
#277 = PRESENTATION_STYLE_ASSIGNMENT (( #148 ) ) ;
#278 = COLOUR_RGB ( '',0.7921568627450980005, 0.8196078431372548767, 0.9333333333333333481 ) ;
#279 = EDGE_LOOP ( 'NONE', ( #268, #85, #66, #180 ) ) ;
#280 = CYLINDRICAL_SURFACE ( 'NONE', #202, 10.00000000000000178 ) ;
#281 = PRESENTATION_STYLE_ASSIGNMENT (( #216 ) ) ;
#282 = FILL_AREA_STYLE ('',( #16 ) ) ;
#283 =( NAMED_UNIT ( * ) PLANE_ANGLE_UNIT ( ) SI_UNIT ( $, .RADIAN. ) );
#284 = FACE_OUTER_BOUND ( 'NONE', #50, .T. ) ;
#285 = SURFACE_SIDE_STYLE ('',( #237 ) ) ;
#286 = AXIS2_PLACEMENT_3D ( 'NONE', #42, #34, #4 ) ;
#287 = EDGE_LOOP ( 'NONE', ( #137, #177 ) ) ;
#288 = MECHANICAL_DESIGN_GEOMETRIC_PRESENTATION_REPRESENTATION (  '', ( #102 ), #98 ) ;
ENDSEC;
END-ISO-10303-21;
