ISO-10303-21;
HEADER;
FILE_DESCRIPTION (( 'STEP AP214' ),
    '1' );
FILE_NAME ('Micro_BMR-016-2.STEP',
    '2021-09-03T13:46:00',
    ( '' ),
    ( '' ),
    'SwSTEP 2.0',
    'SolidWorks 2020',
    '' );
FILE_SCHEMA (( 'AUTOMOTIVE_DESIGN' ));
ENDSEC;

DATA;
#1 = ORIENTED_EDGE ( 'NONE', *, *, #103, .F. ) ;
#2 = PRESENTATION_LAYER_ASSIGNMENT (  '', '', ( #202 ) ) ;
#3 = ORIENTED_EDGE ( 'NONE', *, *, #101, .F. ) ;
#4 = EDGE_CURVE ( 'NONE', #153, #147, #123, .T. ) ;
#5 = AXIS2_PLACEMENT_3D ( 'NONE', #94, #17, #242 ) ;
#6 = CARTESIAN_POINT ( 'NONE',  ( -0.007991999999999995635, 4.316390108274762921E-18, 0.04800000000000000100 ) ) ;
#7 =( CONVERSION_BASED_UNIT ( 'INCH', #163 ) LENGTH_UNIT ( ) NAMED_UNIT ( #254 ) );
#8 = SPHERICAL_SURFACE ( 'NONE', #305, 0.007992000000000000839 ) ;
#9 = CARTESIAN_POINT ( 'NONE',  ( 0.04750000000000064587, 6.735557395310483192E-18, 1.500000000000000222 ) ) ;
#10 = VECTOR ( 'NONE', #309, 39.37007874015748854 ) ;
#11 = CARTESIAN_POINT ( 'NONE',  ( -0.04750000000000064587, 0.0000000000000000000, 1.500000000000000222 ) ) ;
#12 = CARTESIAN_POINT ( 'NONE',  ( 0.04750000000000064587, 5.817072295950006528E-18, 1.500000000000000222 ) ) ;
#13 = EDGE_CURVE ( 'NONE', #93, #223, #156, .T. ) ;
#14 = LINE ( 'NONE', #215, #10 ) ;
#15 = DIRECTION ( 'NONE',  ( -1.224646799147353454E-16, -0.0000000000000000000, -1.000000000000000000 ) ) ;
#16 = AXIS2_PLACEMENT_3D ( 'NONE', #88, #290, #200 ) ;
#17 = DIRECTION ( 'NONE',  ( 0.0000000000000000000, 0.0000000000000000000, 1.000000000000000000 ) ) ;
#18 = ORIENTED_EDGE ( 'NONE', *, *, #129, .F. ) ;
#19 = APPLICATION_PROTOCOL_DEFINITION ( 'draft international standard', 'automotive_design', 1998, #281 ) ;
#20 = ORIENTED_EDGE ( 'NONE', *, *, #129, .T. ) ;
#21 = CIRCLE ( 'NONE', #183, 0.06250000000000002776 ) ;
#22 = SHAPE_DEFINITION_REPRESENTATION ( #159, #319 ) ;
#23 = CARTESIAN_POINT ( 'NONE',  ( 5.878304635907297015E-18, 0.0000000000000000000, 0.04800000000000000100 ) ) ;
#24 = ORIENTED_EDGE ( 'NONE', *, *, #226, .F. ) ;
#25 = ORIENTED_EDGE ( 'NONE', *, *, #13, .T. ) ;
#26 = EDGE_CURVE ( 'NONE', #45, #249, #261, .T. ) ;
#27 = FACE_OUTER_BOUND ( 'NONE', #323, .T. ) ;
#28 = ORIENTED_EDGE ( 'NONE', *, *, #74, .F. ) ;
#29 = CARTESIAN_POINT ( 'NONE',  ( 9.787377218785650228E-19, 0.0000000000000000000, 0.007992000000000000839 ) ) ;
#30 = CARTESIAN_POINT ( 'NONE',  ( 0.0000000000000000000, 0.0000000000000000000, 1.500000000000000222 ) ) ;
#31 = DIRECTION ( 'NONE',  ( -1.000000000000000000, 0.0000000000000000000, 1.335245398554932983E-16 ) ) ;
#32 = COLOUR_RGB ( '',0.7921568627450980005, 0.8196078431372548767, 0.9333333333333333481 ) ;
#33 = DIRECTION ( 'NONE',  ( -1.224646799147353454E-16, -0.0000000000000000000, -1.000000000000000000 ) ) ;
#34 = CARTESIAN_POINT ( 'NONE',  ( 4.373583923425194285E-17, 0.0000000000000000000, 0.3571302294237206354 ) ) ;
#35 = CYLINDRICAL_SURFACE ( 'NONE', #271, 0.06250000000000002776 ) ;
#36 = DIRECTION ( 'NONE',  ( 0.0000000000000000000, 1.000000000000000000, 0.0000000000000000000 ) ) ;
#37 = FACE_OUTER_BOUND ( 'NONE', #278, .T. ) ;
#38 = DIRECTION ( 'NONE',  ( 1.000000000000000000, 0.0000000000000000000, 0.0000000000000000000 ) ) ;
#39 = CARTESIAN_POINT ( 'NONE',  ( 0.007992000000000007778, 0.0000000000000000000, 0.04800000000000000100 ) ) ;
#40 = PRESENTATION_LAYER_ASSIGNMENT (  '', '', ( #224 ) ) ;
#41 = ORIENTED_EDGE ( 'NONE', *, *, #264, .F. ) ;
#42 =( NAMED_UNIT ( * ) SI_UNIT ( $, .STERADIAN. ) SOLID_ANGLE_UNIT ( ) );
#43 = CARTESIAN_POINT ( 'NONE',  ( 0.0000000000000000000, 0.0000000000000000000, 1.500000000000000222 ) ) ;
#44 = ORIENTED_EDGE ( 'NONE', *, *, #148, .F. ) ;
#45 = VERTEX_POINT ( 'NONE', #190 ) ;
#46 =( GEOMETRIC_REPRESENTATION_CONTEXT ( 3 ) GLOBAL_UNCERTAINTY_ASSIGNED_CONTEXT ( ( #310 ) ) GLOBAL_UNIT_ASSIGNED_CONTEXT ( ( #7, #295, #110 ) ) REPRESENTATION_CONTEXT ( 'NONE', 'WORKASPACE' ) );
#47 = ADVANCED_FACE ( 'NONE', ( #76 ), #8, .T. ) ;
#48 = ORIENTED_EDGE ( 'NONE', *, *, #226, .T. ) ;
#49 = ORIENTED_EDGE ( 'NONE', *, *, #264, .T. ) ;
#50 = AXIS2_PLACEMENT_3D ( 'NONE', #34, #307, #236 ) ;
#51 = DIRECTION ( 'NONE',  ( 1.000000000000000000, 0.0000000000000000000, 0.0000000000000000000 ) ) ;
#52 = CIRCLE ( 'NONE', #196, 0.007992000000000000839 ) ;
#53 = AXIS2_PLACEMENT_3D ( 'NONE', #66, #179, #133 ) ;
#54 = CARTESIAN_POINT ( 'NONE',  ( 9.787377218785650228E-19, 0.0000000000000000000, 0.007992000000000000839 ) ) ;
#55 =( NAMED_UNIT ( * ) PLANE_ANGLE_UNIT ( ) SI_UNIT ( $, .RADIAN. ) );
#56 = CARTESIAN_POINT ( 'NONE',  ( 0.007992000000000002574, 9.787377218785648302E-19, -9.787377218785652154E-19 ) ) ;
#57 = CONICAL_SURFACE ( 'NONE', #109, 0.007992000000000002574, 0.1745329251994338637 ) ;
#58 = LINE ( 'NONE', #56, #315 ) ;
#59 = DIRECTION ( 'NONE',  ( -1.000000000000000000, 0.0000000000000000000, 0.0000000000000000000 ) ) ;
#60 =( CONVERSION_BASED_UNIT ( 'INCH', #173 ) LENGTH_UNIT ( ) NAMED_UNIT ( #168 ) );
#61 = LINE ( 'NONE', #111, #131 ) ;
#62 = UNCERTAINTY_MEASURE_WITH_UNIT (LENGTH_MEASURE( 1.000000000000000082E-05 ), #60, 'distance_accuracy_value', 'NONE');
#63 = DIRECTION ( 'NONE',  ( 1.000000000000000000, 0.0000000000000000000, -0.0000000000000000000 ) ) ;
#64 = EDGE_CURVE ( 'NONE', #93, #298, #86, .T. ) ;
#65 = CONICAL_SURFACE ( 'NONE', #314, 0.04750000000000064587, 0.7853981633974466137 ) ;
#66 = CARTESIAN_POINT ( 'NONE',  ( 9.787377218785650228E-19, 0.0000000000000000000, 0.007992000000000000839 ) ) ;
#67 = LENGTH_MEASURE_WITH_UNIT ( LENGTH_MEASURE( 0.02539999999999999897 ), #124 );
#68 = ORIENTED_EDGE ( 'NONE', *, *, #240, .T. ) ;
#69 = EDGE_CURVE ( 'NONE', #100, #302, #252, .T. ) ;
#70 = ORIENTED_EDGE ( 'NONE', *, *, #69, .T. ) ;
#71 = AXIS2_PLACEMENT_3D ( 'NONE', #84, #15, #267 ) ;
#72 = VECTOR ( 'NONE', #210, 39.37007874015748143 ) ;
#73 = EDGE_LOOP ( 'NONE', ( #41, #92, #325, #246 ) ) ;
#74 = EDGE_CURVE ( 'NONE', #177, #147, #58, .T. ) ;
#75 = AXIS2_PLACEMENT_3D ( 'NONE', #176, #195, #239 ) ;
#76 = FACE_OUTER_BOUND ( 'NONE', #248, .T. ) ;
#77 = CYLINDRICAL_SURFACE ( 'NONE', #206, 0.06250000000000002776 ) ;
#78 = CARTESIAN_POINT ( 'NONE',  ( 0.06250000000000006939, 7.654042494670963708E-18, 0.3571302294237206354 ) ) ;
#79 = FACE_OUTER_BOUND ( 'NONE', #227, .T. ) ;
#80 =( GEOMETRIC_REPRESENTATION_CONTEXT ( 3 ) GLOBAL_UNCERTAINTY_ASSIGNED_CONTEXT ( ( #62 ) ) GLOBAL_UNIT_ASSIGNED_CONTEXT ( ( #60, #55, #237 ) ) REPRESENTATION_CONTEXT ( 'NONE', 'WORKASPACE' ) );
#81 = DIRECTION ( 'NONE',  ( -1.224646799147353454E-16, -0.0000000000000000000, -1.000000000000000000 ) ) ;
#82 = AXIS2_PLACEMENT_3D ( 'NONE', #219, #162, #289 ) ;
#83 = DIRECTION ( 'NONE',  ( 1.000000000000000000, 0.0000000000000000000, 0.0000000000000000000 ) ) ;
#84 = CARTESIAN_POINT ( 'NONE',  ( 0.0000000000000000000, 0.0000000000000000000, 0.0000000000000000000 ) ) ;
#85 = SURFACE_STYLE_USAGE ( .BOTH. , #259 ) ;
#86 = LINE ( 'NONE', #160, #107 ) ;
#87 = FACE_OUTER_BOUND ( 'NONE', #228, .T. ) ;
#88 = CARTESIAN_POINT ( 'NONE',  ( 0.0000000000000000000, 0.0000000000000000000, 1.500000000000000222 ) ) ;
#89 = CARTESIAN_POINT ( 'NONE',  ( 0.0000000000000000000, 0.0000000000000000000, 1.500000000000000222 ) ) ;
#90 =( CONVERSION_BASED_UNIT ( 'INCH', #67 ) LENGTH_UNIT ( ) NAMED_UNIT ( #141 ) );
#91 = CIRCLE ( 'NONE', #102, 0.04750000000000064587 ) ;
#92 = ORIENTED_EDGE ( 'NONE', *, *, #69, .F. ) ;
#93 = VERTEX_POINT ( 'NONE', #6 ) ;
#94 = CARTESIAN_POINT ( 'NONE',  ( 0.0000000000000000000, 0.0000000000000000000, 0.0000000000000000000 ) ) ;
#95 = ORIENTED_EDGE ( 'NONE', *, *, #283, .F. ) ;
#96 =( NAMED_UNIT ( * ) PLANE_ANGLE_UNIT ( ) SI_UNIT ( $, .RADIAN. ) );
#97 = ORIENTED_EDGE ( 'NONE', *, *, #74, .T. ) ;
#98 = CIRCLE ( 'NONE', #282, 0.06250000000000002776 ) ;
#99 = CIRCLE ( 'NONE', #146, 0.007992000000000002574 ) ;
#100 = VERTEX_POINT ( 'NONE', #11 ) ;
#101 = EDGE_CURVE ( 'NONE', #45, #204, #238, .T. ) ;
#102 = AXIS2_PLACEMENT_3D ( 'NONE', #198, #192, #38 ) ;
#103 = EDGE_CURVE ( 'NONE', #147, #223, #184, .T. ) ;
#104 = ADVANCED_FACE ( 'NONE', ( #79 ), #77, .T. ) ;
#105 = DIRECTION ( 'NONE',  ( -1.000000000000000000, 0.0000000000000000000, 0.0000000000000000000 ) ) ;
#106 = CARTESIAN_POINT ( 'NONE',  ( -0.007992000000000002574, 0.0000000000000000000, 9.787377218785652154E-19 ) ) ;
#107 = VECTOR ( 'NONE', #188, 39.37007874015747433 ) ;
#108 = DIRECTION ( 'NONE',  ( -0.0000000000000000000, -0.0000000000000000000, -1.000000000000000000 ) ) ;
#109 = AXIS2_PLACEMENT_3D ( 'NONE', #23, #127, #164 ) ;
#110 =( NAMED_UNIT ( * ) SI_UNIT ( $, .STERADIAN. ) SOLID_ANGLE_UNIT ( ) );
#111 = CARTESIAN_POINT ( 'NONE',  ( -0.06250000000000002776, 0.0000000000000000000, 1.500000000000000222 ) ) ;
#112 = FILL_AREA_STYLE ('',( #145 ) ) ;
#113 = DIRECTION ( 'NONE',  ( 0.7071067811865462405, 8.659560562354916834E-17, -0.7071067811865486830 ) ) ;
#114 = FACE_OUTER_BOUND ( 'NONE', #73, .T. ) ;
#115 = CIRCLE ( 'NONE', #301, 0.007992000000000002574 ) ;
#116 = AXIS2_PLACEMENT_3D ( 'NONE', #54, #212, #31 ) ;
#117 = FILL_AREA_STYLE_COLOUR ( '', #32 ) ;
#118 = ORIENTED_EDGE ( 'NONE', *, *, #258, .F. ) ;
#119 = PRODUCT_CONTEXT ( 'NONE', #281, 'mechanical' ) ;
#120 = DIRECTION ( 'NONE',  ( -0.0000000000000000000, -0.0000000000000000000, -1.000000000000000000 ) ) ;
#121 =( GEOMETRIC_REPRESENTATION_CONTEXT ( 3 ) GLOBAL_UNCERTAINTY_ASSIGNED_CONTEXT ( ( #317 ) ) GLOBAL_UNIT_ASSIGNED_CONTEXT ( ( #90, #96, #42 ) ) REPRESENTATION_CONTEXT ( 'NONE', 'WORKASPACE' ) );
#122 = ORIENTED_EDGE ( 'NONE', *, *, #26, .T. ) ;
#123 = CIRCLE ( 'NONE', #53, 0.007992000000000000839 ) ;
#124 =( LENGTH_UNIT ( ) NAMED_UNIT ( * ) SI_UNIT ( $, .METRE. ) );
#125 = ORIENTED_EDGE ( 'NONE', *, *, #306, .F. ) ;
#126 = ADVANCED_FACE ( 'NONE', ( #235 ), #189, .T. ) ;
#127 = DIRECTION ( 'NONE',  ( 1.224646799147353454E-16, 0.0000000000000000000, 1.000000000000000000 ) ) ;
#128 = ORIENTED_EDGE ( 'NONE', *, *, #148, .T. ) ;
#129 = EDGE_CURVE ( 'NONE', #177, #93, #99, .T. ) ;
#130 = EDGE_LOOP ( 'NONE', ( #68, #97, #303, #225 ) ) ;
#131 = VECTOR ( 'NONE', #175, 39.37007874015748143 ) ;
#132 = VECTOR ( 'NONE', #108, 39.37007874015748143 ) ;
#133 = DIRECTION ( 'NONE',  ( 0.0000000000000000000, 0.0000000000000000000, -1.000000000000000000 ) ) ;
#134 = EDGE_CURVE ( 'NONE', #249, #45, #21, .T. ) ;
#135 = CARTESIAN_POINT ( 'NONE',  ( 0.06250000000000002776, 7.654042494670959086E-18, 1.500000000000000222 ) ) ;
#136 = PRODUCT_DEFINITION_CONTEXT ( 'detailed design', #304, 'design' ) ;
#137 = FACE_OUTER_BOUND ( 'NONE', #297, .T. ) ;
#138 = VECTOR ( 'NONE', #113, 39.37007874015748854 ) ;
#139 = CARTESIAN_POINT ( 'NONE',  ( 0.0000000000000000000, 0.0000000000000000000, 1.500000000000000222 ) ) ;
#140 = LINE ( 'NONE', #12, #138 ) ;
#141 = DIMENSIONAL_EXPONENTS ( 1.000000000000000000, 0.0000000000000000000, 0.0000000000000000000, 0.0000000000000000000, 0.0000000000000000000, 0.0000000000000000000, 0.0000000000000000000 ) ;
#142 = DIRECTION ( 'NONE',  ( 0.0000000000000000000, 0.0000000000000000000, -1.000000000000000000 ) ) ;
#143 = CARTESIAN_POINT ( 'NONE',  ( 0.007992000000000007778, 0.0000000000000000000, 0.04800000000000000100 ) ) ;
#144 = DIRECTION ( 'NONE',  ( -1.000000000000000000, 0.0000000000000000000, 0.0000000000000000000 ) ) ;
#145 = FILL_AREA_STYLE_COLOUR ( '', #209 ) ;
#146 = AXIS2_PLACEMENT_3D ( 'NONE', #255, #308, #171 ) ;
#147 = VERTEX_POINT ( 'NONE', #262 ) ;
#148 = EDGE_CURVE ( 'NONE', #153, #223, #52, .T. ) ;
#149 = ORIENTED_EDGE ( 'NONE', *, *, #275, .F. ) ;
#150 = MECHANICAL_DESIGN_GEOMETRIC_PRESENTATION_REPRESENTATION (  '', ( #224 ), #121 ) ;
#151 = ORIENTED_EDGE ( 'NONE', *, *, #101, .T. ) ;
#152 = PRESENTATION_STYLE_ASSIGNMENT (( #178 ) ) ;
#153 = VERTEX_POINT ( 'NONE', #154 ) ;
#154 = CARTESIAN_POINT ( 'NONE',  ( 1.468106582817847438E-18, 0.0000000000000000000, 0.0000000000000000000 ) ) ;
#155 = ORIENTED_EDGE ( 'NONE', *, *, #280, .F. ) ;
#156 = LINE ( 'NONE', #106, #72 ) ;
#157 = CIRCLE ( 'NONE', #232, 0.007992000000000002574 ) ;
#158 = ADVANCED_FACE ( 'NONE', ( #247 ), #57, .T. ) ;
#159 = PRODUCT_DEFINITION_SHAPE ( 'NONE', 'NONE',  #270 ) ;
#160 = CARTESIAN_POINT ( 'NONE',  ( -0.007991999999999995635, 9.787377218785648302E-19, 0.04800000000000000100 ) ) ;
#161 = ADVANCED_FACE ( 'NONE', ( #318 ), #65, .T. ) ;
#162 = DIRECTION ( 'NONE',  ( 0.0000000000000000000, 0.0000000000000000000, 1.000000000000000000 ) ) ;
#163 = LENGTH_MEASURE_WITH_UNIT ( LENGTH_MEASURE( 0.02539999999999999897 ), #263 );
#164 = DIRECTION ( 'NONE',  ( 1.000000000000000000, 0.0000000000000000000, 0.0000000000000000000 ) ) ;
#165 = CARTESIAN_POINT ( 'NONE',  ( -0.06250000000000002776, 0.0000000000000000000, 1.485000000000000764 ) ) ;
#166 = FACE_OUTER_BOUND ( 'NONE', #243, .T. ) ;
#167 = DIRECTION ( 'NONE',  ( 1.000000000000000000, 0.0000000000000000000, 0.0000000000000000000 ) ) ;
#168 = DIMENSIONAL_EXPONENTS ( 1.000000000000000000, 0.0000000000000000000, 0.0000000000000000000, 0.0000000000000000000, 0.0000000000000000000, 0.0000000000000000000, 0.0000000000000000000 ) ;
#169 = CARTESIAN_POINT ( 'NONE',  ( 9.787377218785650228E-19, 0.0000000000000000000, 0.007992000000000000839 ) ) ;
#170 = ADVANCED_FACE ( 'NONE', ( #166 ), #288, .T. ) ;
#171 = DIRECTION ( 'NONE',  ( -1.000000000000000000, 0.0000000000000000000, 0.0000000000000000000 ) ) ;
#172 = CYLINDRICAL_SURFACE ( 'NONE', #71, 0.007992000000000002574 ) ;
#173 = LENGTH_MEASURE_WITH_UNIT ( LENGTH_MEASURE( 0.02539999999999999897 ), #234 );
#174 = ADVANCED_FACE ( 'NONE', ( #87 ), #221, .T. ) ;
#175 = DIRECTION ( 'NONE',  ( -0.0000000000000000000, -0.0000000000000000000, -1.000000000000000000 ) ) ;
#176 = CARTESIAN_POINT ( 'NONE',  ( 5.878304635907297015E-18, 0.0000000000000000000, 0.04800000000000000100 ) ) ;
#177 = VERTEX_POINT ( 'NONE', #39 ) ;
#178 = SURFACE_STYLE_USAGE ( .BOTH. , #244 ) ;
#179 = DIRECTION ( 'NONE',  ( 0.0000000000000000000, -1.000000000000000000, 0.0000000000000000000 ) ) ;
#180 = ADVANCED_FACE ( 'NONE', ( #137 ), #251, .T. ) ;
#181 = EDGE_LOOP ( 'NONE', ( #272, #203, #205, #125 ) ) ;
#182 = APPLICATION_PROTOCOL_DEFINITION ( 'draft international standard', 'automotive_design', 1998, #304 ) ;
#183 = AXIS2_PLACEMENT_3D ( 'NONE', #291, #142, #167 ) ;
#184 = CIRCLE ( 'NONE', #116, 0.007992000000000002574 ) ;
#185 = ORIENTED_EDGE ( 'NONE', *, *, #258, .T. ) ;
#186 = MANIFOLD_SOLID_BREP ( 'Fillet1', #322 ) ;
#187 = ORIENTED_EDGE ( 'NONE', *, *, #275, .T. ) ;
#188 = DIRECTION ( 'NONE',  ( -0.1736481776669311639, 2.126576849575783008E-17, 0.9848077530122080203 ) ) ;
#189 = CYLINDRICAL_SURFACE ( 'NONE', #287, 0.007992000000000002574 ) ;
#190 = CARTESIAN_POINT ( 'NONE',  ( 0.06250000000000002776, 7.654042494670959086E-18, 1.485000000000000764 ) ) ;
#191 = DIRECTION ( 'NONE',  ( 0.0000000000000000000, 0.0000000000000000000, -1.000000000000000000 ) ) ;
#192 = DIRECTION ( 'NONE',  ( 0.0000000000000000000, 0.0000000000000000000, 1.000000000000000000 ) ) ;
#193 = DIRECTION ( 'NONE',  ( -1.000000000000000000, 0.0000000000000000000, 1.224646799147353454E-16 ) ) ;
#194 = DIRECTION ( 'NONE',  ( -1.224646799147353454E-16, -0.0000000000000000000, -1.000000000000000000 ) ) ;
#195 = DIRECTION ( 'NONE',  ( 1.224646799147353454E-16, 0.0000000000000000000, 1.000000000000000000 ) ) ;
#196 = AXIS2_PLACEMENT_3D ( 'NONE', #266, #268, #222 ) ;
#197 = CARTESIAN_POINT ( 'NONE',  ( 0.0000000000000000000, 0.0000000000000000000, 0.0000000000000000000 ) ) ;
#198 = CARTESIAN_POINT ( 'NONE',  ( 0.0000000000000000000, 0.0000000000000000000, 1.500000000000000222 ) ) ;
#199 = SURFACE_STYLE_FILL_AREA ( #112 ) ;
#200 = DIRECTION ( 'NONE',  ( -1.000000000000000000, 0.0000000000000000000, 0.0000000000000000000 ) ) ;
#201 = ADVANCED_FACE ( 'NONE', ( #27 ), #35, .T. ) ;
#202 = STYLED_ITEM ( 'NONE', ( #294 ), #186 ) ;
#203 = ORIENTED_EDGE ( 'NONE', *, *, #64, .T. ) ;
#204 = VERTEX_POINT ( 'NONE', #78 ) ;
#205 = ORIENTED_EDGE ( 'NONE', *, *, #283, .T. ) ;
#206 = AXIS2_PLACEMENT_3D ( 'NONE', #139, #285, #105 ) ;
#207 = EDGE_LOOP ( 'NONE', ( #24, #49, #241, #155 ) ) ;
#208 = ORIENTED_EDGE ( 'NONE', *, *, #231, .T. ) ;
#209 = COLOUR_RGB ( '',0.7921568627450980005, 0.8196078431372548767, 0.9333333333333333481 ) ;
#210 = DIRECTION ( 'NONE',  ( -1.224646799147353454E-16, -0.0000000000000000000, -1.000000000000000000 ) ) ;
#211 = PRODUCT_RELATED_PRODUCT_CATEGORY ( 'part', '', ( #216 ) ) ;
#212 = DIRECTION ( 'NONE',  ( 1.224646799147353454E-16, 0.0000000000000000000, 1.000000000000000000 ) ) ;
#213 = CARTESIAN_POINT ( 'NONE',  ( 0.0000000000000000000, 0.0000000000000000000, 1.485000000000000764 ) ) ;
#214 = DIRECTION ( 'NONE',  ( -1.224646799147353454E-16, -0.0000000000000000000, -1.000000000000000000 ) ) ;
#215 = CARTESIAN_POINT ( 'NONE',  ( -0.04750000000000064587, 0.0000000000000000000, 1.500000000000000222 ) ) ;
#216 = PRODUCT ( 'Micro_BMR-016-2', 'Micro_BMR-016-2', '', ( #119 ) ) ;
#217 = LINE ( 'NONE', #143, #245 ) ;
#218 = CIRCLE ( 'NONE', #50, 0.06250000000000002776 ) ;
#219 = CARTESIAN_POINT ( 'NONE',  ( 0.0000000000000000000, 0.0000000000000000000, 1.500000000000000222 ) ) ;
#220 = CARTESIAN_POINT ( 'NONE',  ( 5.878304635907297015E-18, 0.0000000000000000000, 0.04800000000000000100 ) ) ;
#221 = PLANE ( 'NONE',  #296 ) ;
#222 = DIRECTION ( 'NONE',  ( -1.000000000000000000, 1.224646799147353207E-16, 0.0000000000000000000 ) ) ;
#223 = VERTEX_POINT ( 'NONE', #286 ) ;
#224 = STYLED_ITEM ( 'NONE', ( #152 ), #319 ) ;
#225 = ORIENTED_EDGE ( 'NONE', *, *, #13, .F. ) ;
#226 = EDGE_CURVE ( 'NONE', #302, #100, #91, .T. ) ;
#227 = EDGE_LOOP ( 'NONE', ( #274, #151, #95, #149 ) ) ;
#228 = EDGE_LOOP ( 'NONE', ( #70, #48 ) ) ;
#229 = MECHANICAL_DESIGN_GEOMETRIC_PRESENTATION_REPRESENTATION (  '', ( #202 ), #80 ) ;
#230 = ORIENTED_EDGE ( 'NONE', *, *, #4, .T. ) ;
#231 = EDGE_CURVE ( 'NONE', #204, #298, #218, .T. ) ;
#232 = AXIS2_PLACEMENT_3D ( 'NONE', #220, #81, #59 ) ;
#233 = DIRECTION ( 'NONE',  ( -1.000000000000000000, 0.0000000000000000000, 0.0000000000000000000 ) ) ;
#234 =( LENGTH_UNIT ( ) NAMED_UNIT ( * ) SI_UNIT ( $, .METRE. ) );
#235 = FACE_OUTER_BOUND ( 'NONE', #130, .T. ) ;
#236 = DIRECTION ( 'NONE',  ( 1.000000000000000000, 0.0000000000000000000, 0.0000000000000000000 ) ) ;
#237 =( NAMED_UNIT ( * ) SI_UNIT ( $, .STERADIAN. ) SOLID_ANGLE_UNIT ( ) );
#238 = LINE ( 'NONE', #135, #132 ) ;
#239 = DIRECTION ( 'NONE',  ( 1.000000000000000000, 0.0000000000000000000, 0.0000000000000000000 ) ) ;
#240 = EDGE_CURVE ( 'NONE', #93, #177, #157, .T. ) ;
#241 = ORIENTED_EDGE ( 'NONE', *, *, #134, .F. ) ;
#242 = DIRECTION ( 'NONE',  ( 1.000000000000000000, 0.0000000000000000000, 0.0000000000000000000 ) ) ;
#243 = EDGE_LOOP ( 'NONE', ( #44, #230, #118 ) ) ;
#244 = SURFACE_SIDE_STYLE ('',( #299 ) ) ;
#245 = VECTOR ( 'NONE', #312, 39.37007874015748143 ) ;
#246 = ORIENTED_EDGE ( 'NONE', *, *, #26, .F. ) ;
#247 = FACE_OUTER_BOUND ( 'NONE', #181, .T. ) ;
#248 = EDGE_LOOP ( 'NONE', ( #300, #128, #1 ) ) ;
#249 = VERTEX_POINT ( 'NONE', #165 ) ;
#250 = ADVANCED_FACE ( 'NONE', ( #37 ), #172, .T. ) ;
#251 = CONICAL_SURFACE ( 'NONE', #75, 0.007992000000000002574, 0.1745329251994338637 ) ;
#252 = CIRCLE ( 'NONE', #82, 0.04750000000000064587 ) ;
#253 = AXIS2_PLACEMENT_3D ( 'NONE', #169, #313, #256 ) ;
#254 = DIMENSIONAL_EXPONENTS ( 1.000000000000000000, 0.0000000000000000000, 0.0000000000000000000, 0.0000000000000000000, 0.0000000000000000000, 0.0000000000000000000, 0.0000000000000000000 ) ;
#255 = CARTESIAN_POINT ( 'NONE',  ( 5.878304635907297015E-18, 0.0000000000000000000, 0.04800000000000000100 ) ) ;
#256 = DIRECTION ( 'NONE',  ( 1.000000000000000000, 0.0000000000000000000, 0.0000000000000000000 ) ) ;
#257 = DIRECTION ( 'NONE',  ( 1.224646799147353454E-16, 0.0000000000000000000, 1.000000000000000000 ) ) ;
#258 = EDGE_CURVE ( 'NONE', #223, #147, #115, .T. ) ;
#259 = SURFACE_SIDE_STYLE ('',( #199 ) ) ;
#260 = PRODUCT_DEFINITION_FORMATION_WITH_SPECIFIED_SOURCE ( 'ANY', '', #216, .NOT_KNOWN. ) ;
#261 = CIRCLE ( 'NONE', #277, 0.06250000000000002776 ) ;
#262 = CARTESIAN_POINT ( 'NONE',  ( 0.007992000000000002574, 9.787377218785648302E-19, 0.007992000000000000839 ) ) ;
#263 =( LENGTH_UNIT ( ) NAMED_UNIT ( * ) SI_UNIT ( $, .METRE. ) );
#264 = EDGE_CURVE ( 'NONE', #302, #45, #140, .T. ) ;
#265 = DIRECTION ( 'NONE',  ( 0.0000000000000000000, 0.0000000000000000000, 1.000000000000000000 ) ) ;
#266 = CARTESIAN_POINT ( 'NONE',  ( 9.787377218785650228E-19, 0.0000000000000000000, 0.007992000000000000839 ) ) ;
#267 = DIRECTION ( 'NONE',  ( -1.000000000000000000, 0.0000000000000000000, 1.224646799147353454E-16 ) ) ;
#268 = DIRECTION ( 'NONE',  ( 1.224646799147353207E-16, 1.000000000000000000, -0.0000000000000000000 ) ) ;
#269 = DIRECTION ( 'NONE',  ( 1.000000000000000000, 0.0000000000000000000, 0.0000000000000000000 ) ) ;
#270 = PRODUCT_DEFINITION ( 'UNKNOWN', '', #260, #136 ) ;
#271 = AXIS2_PLACEMENT_3D ( 'NONE', #43, #120, #233 ) ;
#272 = ORIENTED_EDGE ( 'NONE', *, *, #240, .F. ) ;
#273 = FILL_AREA_STYLE ('',( #117 ) ) ;
#274 = ORIENTED_EDGE ( 'NONE', *, *, #134, .T. ) ;
#275 = EDGE_CURVE ( 'NONE', #249, #298, #61, .T. ) ;
#276 = ORIENTED_EDGE ( 'NONE', *, *, #64, .F. ) ;
#277 = AXIS2_PLACEMENT_3D ( 'NONE', #213, #284, #51 ) ;
#278 = EDGE_LOOP ( 'NONE', ( #28, #20, #25, #185 ) ) ;
#279 = ORIENTED_EDGE ( 'NONE', *, *, #231, .F. ) ;
#280 = EDGE_CURVE ( 'NONE', #100, #249, #14, .T. ) ;
#281 = APPLICATION_CONTEXT ( 'automotive_design' ) ;
#282 = AXIS2_PLACEMENT_3D ( 'NONE', #293, #194, #269 ) ;
#283 = EDGE_CURVE ( 'NONE', #298, #204, #98, .T. ) ;
#284 = DIRECTION ( 'NONE',  ( 0.0000000000000000000, 0.0000000000000000000, -1.000000000000000000 ) ) ;
#285 = DIRECTION ( 'NONE',  ( -0.0000000000000000000, -0.0000000000000000000, -1.000000000000000000 ) ) ;
#286 = CARTESIAN_POINT ( 'NONE',  ( -0.007992000000000000839, 0.0000000000000000000, 0.007992000000000002574 ) ) ;
#287 = AXIS2_PLACEMENT_3D ( 'NONE', #197, #214, #193 ) ;
#288 = SPHERICAL_SURFACE ( 'NONE', #253, 0.007992000000000000839 ) ;
#289 = DIRECTION ( 'NONE',  ( 1.000000000000000000, 0.0000000000000000000, 0.0000000000000000000 ) ) ;
#290 = DIRECTION ( 'NONE',  ( 0.0000000000000000000, 0.0000000000000000000, -1.000000000000000000 ) ) ;
#291 = CARTESIAN_POINT ( 'NONE',  ( 0.0000000000000000000, 0.0000000000000000000, 1.485000000000000764 ) ) ;
#292 = CARTESIAN_POINT ( 'NONE',  ( -0.06249999999999997918, 0.0000000000000000000, 0.3571302294237206354 ) ) ;
#293 = CARTESIAN_POINT ( 'NONE',  ( 4.373583923425194285E-17, 0.0000000000000000000, 0.3571302294237206354 ) ) ;
#294 = PRESENTATION_STYLE_ASSIGNMENT (( #85 ) ) ;
#295 =( NAMED_UNIT ( * ) PLANE_ANGLE_UNIT ( ) SI_UNIT ( $, .RADIAN. ) );
#296 = AXIS2_PLACEMENT_3D ( 'NONE', #30, #265, #63 ) ;
#297 = EDGE_LOOP ( 'NONE', ( #276, #18, #320, #208 ) ) ;
#298 = VERTEX_POINT ( 'NONE', #292 ) ;
#299 = SURFACE_STYLE_FILL_AREA ( #273 ) ;
#300 = ORIENTED_EDGE ( 'NONE', *, *, #4, .F. ) ;
#301 = AXIS2_PLACEMENT_3D ( 'NONE', #29, #257, #316 ) ;
#302 = VERTEX_POINT ( 'NONE', #9 ) ;
#303 = ORIENTED_EDGE ( 'NONE', *, *, #103, .T. ) ;
#304 = APPLICATION_CONTEXT ( 'automotive_design' ) ;
#305 = AXIS2_PLACEMENT_3D ( 'NONE', #311, #36, #83 ) ;
#306 = EDGE_CURVE ( 'NONE', #177, #204, #217, .T. ) ;
#307 = DIRECTION ( 'NONE',  ( -1.224646799147353454E-16, -0.0000000000000000000, -1.000000000000000000 ) ) ;
#308 = DIRECTION ( 'NONE',  ( -1.224646799147353454E-16, -0.0000000000000000000, -1.000000000000000000 ) ) ;
#309 = DIRECTION ( 'NONE',  ( -0.7071067811865462405, 0.0000000000000000000, -0.7071067811865486830 ) ) ;
#310 = UNCERTAINTY_MEASURE_WITH_UNIT (LENGTH_MEASURE( 1.000000000000000082E-05 ), #7, 'distance_accuracy_value', 'NONE');
#311 = CARTESIAN_POINT ( 'NONE',  ( 9.787377218785650228E-19, 0.0000000000000000000, 0.007992000000000000839 ) ) ;
#312 = DIRECTION ( 'NONE',  ( 0.1736481776669313581, 0.0000000000000000000, 0.9848077530122077983 ) ) ;
#313 = DIRECTION ( 'NONE',  ( 0.0000000000000000000, 1.000000000000000000, 0.0000000000000000000 ) ) ;
#314 = AXIS2_PLACEMENT_3D ( 'NONE', #89, #191, #144 ) ;
#315 = VECTOR ( 'NONE', #33, 39.37007874015748143 ) ;
#316 = DIRECTION ( 'NONE',  ( -1.000000000000000000, 0.0000000000000000000, 1.335245398554932983E-16 ) ) ;
#317 = UNCERTAINTY_MEASURE_WITH_UNIT (LENGTH_MEASURE( 1.000000000000000082E-05 ), #90, 'distance_accuracy_value', 'NONE');
#318 = FACE_OUTER_BOUND ( 'NONE', #207, .T. ) ;
#319 = ADVANCED_BREP_SHAPE_REPRESENTATION ( 'Micro_BMR-016-2', ( #186, #5 ), #46 ) ;
#320 = ORIENTED_EDGE ( 'NONE', *, *, #306, .T. ) ;
#321 = CONICAL_SURFACE ( 'NONE', #16, 0.04750000000000064587, 0.7853981633974466137 ) ;
#322 = CLOSED_SHELL ( 'NONE', ( #47, #126, #158, #161, #104, #201, #174, #324, #180, #250, #170 ) ) ;
#323 = EDGE_LOOP ( 'NONE', ( #3, #122, #187, #279 ) ) ;
#324 = ADVANCED_FACE ( 'NONE', ( #114 ), #321, .T. ) ;
#325 = ORIENTED_EDGE ( 'NONE', *, *, #280, .T. ) ;
ENDSEC;
END-ISO-10303-21;
