ISO-10303-21;
HEADER;
FILE_DESCRIPTION (( 'STEP AP214' ),
    '1' );
FILE_NAME ('Micro_BEM-031-02.STEP',
    '2021-09-03T12:56:55',
    ( '' ),
    ( '' ),
    'SwSTEP 2.0',
    'SolidWorks 2020',
    '' );
FILE_SCHEMA (( 'AUTOMOTIVE_DESIGN' ));
ENDSEC;

DATA;
#1 = CARTESIAN_POINT ( 'NONE',  ( 9.552245033349369302E-18, 0.0000000000000000000, 0.07800000000000009703 ) ) ;
#2 = CIRCLE ( 'NONE', #190, 0.01563435000000000172 ) ;
#3 = ORIENTED_EDGE ( 'NONE', *, *, #4, .T. ) ;
#4 = EDGE_CURVE ( 'NONE', #41, #163, #157, .T. ) ;
#5 = ORIENTED_EDGE ( 'NONE', *, *, #77, .T. ) ;
#6 = DIMENSIONAL_EXPONENTS ( 1.000000000000000000, 0.0000000000000000000, 0.0000000000000000000, 0.0000000000000000000, 0.0000000000000000000, 0.0000000000000000000, 0.0000000000000000000 ) ;
#7 = AXIS2_PLACEMENT_3D ( 'NONE', #1, #97, #226 ) ;
#8 = ORIENTED_EDGE ( 'NONE', *, *, #174, .F. ) ;
#9 = VECTOR ( 'NONE', #187, 39.37007874015748143 ) ;
#10 = LINE ( 'NONE', #264, #224 ) ;
#11 = EDGE_CURVE ( 'NONE', #318, #87, #10, .T. ) ;
#12 = ORIENTED_EDGE ( 'NONE', *, *, #227, .T. ) ;
#13 = VECTOR ( 'NONE', #249, 39.37007874015748143 ) ;
#14 = VERTEX_POINT ( 'NONE', #17 ) ;
#15 =( NAMED_UNIT ( * ) PLANE_ANGLE_UNIT ( ) SI_UNIT ( $, .RADIAN. ) );
#16 = EDGE_CURVE ( 'NONE', #214, #280, #108, .T. ) ;
#17 = CARTESIAN_POINT ( 'NONE',  ( -0.04750000000000064587, 0.0000000000000000000, 1.500000000000000222 ) ) ;
#18 = FACE_OUTER_BOUND ( 'NONE', #123, .T. ) ;
#19 = DIRECTION ( 'NONE',  ( 1.000000000000000000, 0.0000000000000000000, 0.0000000000000000000 ) ) ;
#20 = DIRECTION ( 'NONE',  ( 0.0000000000000000000, 0.0000000000000000000, 1.000000000000000000 ) ) ;
#21 = CARTESIAN_POINT ( 'NONE',  ( 0.0000000000000000000, 0.0000000000000000000, 0.0000000000000000000 ) ) ;
#22 = CLOSED_SHELL ( 'NONE', ( #173, #70, #260, #154, #124, #238, #200, #201, #132, #113, #287 ) ) ;
#23 = CARTESIAN_POINT ( 'NONE',  ( 0.06250000000000002776, 7.654042494670959086E-18, 1.500000000000000222 ) ) ;
#24 = EDGE_CURVE ( 'NONE', #184, #149, #2, .T. ) ;
#25 = CARTESIAN_POINT ( 'NONE',  ( 4.210192519679162135E-17, 0.0000000000000000000, 0.3437883088095654016 ) ) ;
#26 = CARTESIAN_POINT ( 'NONE',  ( 0.01563435000000001560, 1.914655668424943751E-18, -1.914655668424944522E-18 ) ) ;
#27 = ORIENTED_EDGE ( 'NONE', *, *, #319, .F. ) ;
#28 = VECTOR ( 'NONE', #38, 39.37007874015748143 ) ;
#29 = ORIENTED_EDGE ( 'NONE', *, *, #35, .F. ) ;
#30 = AXIS2_PLACEMENT_3D ( 'NONE', #25, #119, #268 ) ;
#31 = PRESENTATION_LAYER_ASSIGNMENT (  '', '', ( #192 ) ) ;
#32 = ORIENTED_EDGE ( 'NONE', *, *, #16, .T. ) ;
#33 = ORIENTED_EDGE ( 'NONE', *, *, #235, .F. ) ;
#34 = DIRECTION ( 'NONE',  ( 1.224646799147353207E-16, 1.000000000000000000, -0.0000000000000000000 ) ) ;
#35 = EDGE_CURVE ( 'NONE', #214, #133, #289, .T. ) ;
#36 = CARTESIAN_POINT ( 'NONE',  ( 1.914655668424943366E-18, 0.0000000000000000000, 0.01563435000000000172 ) ) ;
#37 =( NAMED_UNIT ( * ) PLANE_ANGLE_UNIT ( ) SI_UNIT ( $, .RADIAN. ) );
#38 = DIRECTION ( 'NONE',  ( -0.0000000000000000000, -0.0000000000000000000, -1.000000000000000000 ) ) ;
#39 = ORIENTED_EDGE ( 'NONE', *, *, #24, .T. ) ;
#40 = AXIS2_PLACEMENT_3D ( 'NONE', #69, #222, #94 ) ;
#41 = VERTEX_POINT ( 'NONE', #239 ) ;
#42 = CARTESIAN_POINT ( 'NONE',  ( 0.04750000000000064587, 6.735557395310483192E-18, 1.500000000000000222 ) ) ;
#43 = ORIENTED_EDGE ( 'NONE', *, *, #131, .T. ) ;
#44 = DIRECTION ( 'NONE',  ( 1.000000000000000000, 0.0000000000000000000, 0.0000000000000000000 ) ) ;
#45 = DIRECTION ( 'NONE',  ( -1.000000000000000000, 0.0000000000000000000, 0.0000000000000000000 ) ) ;
#46 = MANIFOLD_SOLID_BREP ( 'Fillet1', #22 ) ;
#47 = SPHERICAL_SURFACE ( 'NONE', #151, 0.01563435000000000172 ) ;
#48 = DIRECTION ( 'NONE',  ( 0.0000000000000000000, 0.0000000000000000000, -1.000000000000000000 ) ) ;
#49 = AXIS2_PLACEMENT_3D ( 'NONE', #213, #306, #310 ) ;
#50 = EDGE_CURVE ( 'NONE', #149, #163, #311, .T. ) ;
#51 = DIRECTION ( 'NONE',  ( 1.000000000000000000, 0.0000000000000000000, -0.0000000000000000000 ) ) ;
#52 = DIRECTION ( 'NONE',  ( -1.224646799147353700E-16, -0.0000000000000000000, -1.000000000000000000 ) ) ;
#53 = EDGE_CURVE ( 'NONE', #318, #149, #195, .T. ) ;
#54 = CONICAL_SURFACE ( 'NONE', #100, 0.04750000000000064587, 0.7853981633974466137 ) ;
#55 = EDGE_CURVE ( 'NONE', #280, #214, #300, .T. ) ;
#56 = CARTESIAN_POINT ( 'NONE',  ( 0.0000000000000000000, 0.0000000000000000000, 1.485000000000000764 ) ) ;
#57 = CIRCLE ( 'NONE', #103, 0.04750000000000064587 ) ;
#58 = CIRCLE ( 'NONE', #252, 0.01563435000000000866 ) ;
#59 = SURFACE_SIDE_STYLE ('',( #221 ) ) ;
#60 = DIRECTION ( 'NONE',  ( -1.224646799147353700E-16, -0.0000000000000000000, -1.000000000000000000 ) ) ;
#61 = ORIENTED_EDGE ( 'NONE', *, *, #35, .T. ) ;
#62 = ORIENTED_EDGE ( 'NONE', *, *, #234, .T. ) ;
#63 = SURFACE_STYLE_USAGE ( .BOTH. , #288 ) ;
#64 = ORIENTED_EDGE ( 'NONE', *, *, #309, .T. ) ;
#65 = CARTESIAN_POINT ( 'NONE',  ( 0.0000000000000000000, 0.0000000000000000000, 1.500000000000000222 ) ) ;
#66 = CIRCLE ( 'NONE', #162, 0.06250000000000002776 ) ;
#67 = DIRECTION ( 'NONE',  ( 1.000000000000000000, 0.0000000000000000000, 0.0000000000000000000 ) ) ;
#68 = CARTESIAN_POINT ( 'NONE',  ( 0.01563435000000001560, 1.914655668424943751E-18, 0.01563434999999999825 ) ) ;
#69 = CARTESIAN_POINT ( 'NONE',  ( 9.552245033349369302E-18, 0.0000000000000000000, 0.07800000000000009703 ) ) ;
#70 = ADVANCED_FACE ( 'NONE', ( #142 ), #277, .T. ) ;
#71 = CARTESIAN_POINT ( 'NONE',  ( 0.0000000000000000000, 0.0000000000000000000, 1.500000000000000222 ) ) ;
#72 = CARTESIAN_POINT ( 'NONE',  ( 0.0000000000000000000, 0.0000000000000000000, 1.500000000000000222 ) ) ;
#73 = DIRECTION ( 'NONE',  ( 1.224646799147353700E-16, 0.0000000000000000000, 1.000000000000000000 ) ) ;
#74 = AXIS2_PLACEMENT_3D ( 'NONE', #155, #129, #183 ) ;
#75 = DIMENSIONAL_EXPONENTS ( 1.000000000000000000, 0.0000000000000000000, 0.0000000000000000000, 0.0000000000000000000, 0.0000000000000000000, 0.0000000000000000000, 0.0000000000000000000 ) ;
#76 = CARTESIAN_POINT ( 'NONE',  ( 4.210192519679162135E-17, 0.0000000000000000000, 0.3437883088095654016 ) ) ;
#77 = EDGE_CURVE ( 'NONE', #318, #41, #153, .T. ) ;
#78 = APPLICATION_CONTEXT ( 'automotive_design' ) ;
#79 = AXIS2_PLACEMENT_3D ( 'NONE', #21, #147, #230 ) ;
#80 = APPLICATION_PROTOCOL_DEFINITION ( 'draft international standard', 'automotive_design', 1998, #78 ) ;
#81 = EDGE_LOOP ( 'NONE', ( #27, #39, #33 ) ) ;
#82 = DIRECTION ( 'NONE',  ( -1.000000000000000000, 1.224646799147353207E-16, 0.0000000000000000000 ) ) ;
#83 =( CONVERSION_BASED_UNIT ( 'INCH', #308 ) LENGTH_UNIT ( ) NAMED_UNIT ( #6 ) );
#84 = VECTOR ( 'NONE', #111, 39.37007874015747433 ) ;
#85 = DIRECTION ( 'NONE',  ( 0.0000000000000000000, 0.0000000000000000000, -1.000000000000000000 ) ) ;
#86 = PRODUCT_CONTEXT ( 'NONE', #279, 'mechanical' ) ;
#87 = VERTEX_POINT ( 'NONE', #112 ) ;
#88 =( NAMED_UNIT ( * ) SI_UNIT ( $, .STERADIAN. ) SOLID_ANGLE_UNIT ( ) );
#89 = CARTESIAN_POINT ( 'NONE',  ( 1.914655668424943366E-18, 0.0000000000000000000, 0.01563435000000000172 ) ) ;
#90 = DIRECTION ( 'NONE',  ( -1.000000000000000000, 0.0000000000000000000, 1.365107116733476959E-16 ) ) ;
#91 = COLOUR_RGB ( '',0.7921568627450980005, 0.8196078431372548767, 0.9333333333333333481 ) ;
#92 = AXIS2_PLACEMENT_3D ( 'NONE', #240, #34, #82 ) ;
#93 = CYLINDRICAL_SURFACE ( 'NONE', #202, 0.06250000000000002776 ) ;
#94 = DIRECTION ( 'NONE',  ( 1.000000000000000000, 0.0000000000000000000, 0.0000000000000000000 ) ) ;
#95 = DIRECTION ( 'NONE',  ( 1.000000000000000000, 0.0000000000000000000, 0.0000000000000000000 ) ) ;
#96 = DIRECTION ( 'NONE',  ( 0.0000000000000000000, 0.0000000000000000000, 1.000000000000000000 ) ) ;
#97 = DIRECTION ( 'NONE',  ( -1.224646799147353700E-16, -0.0000000000000000000, -1.000000000000000000 ) ) ;
#98 = VECTOR ( 'NONE', #161, 39.37007874015748854 ) ;
#99 = EDGE_LOOP ( 'NONE', ( #32, #212, #233, #29 ) ) ;
#100 = AXIS2_PLACEMENT_3D ( 'NONE', #196, #273, #271 ) ;
#101 = COLOUR_RGB ( '',0.7921568627450980005, 0.8196078431372548767, 0.9333333333333333481 ) ;
#102 = UNCERTAINTY_MEASURE_WITH_UNIT (LENGTH_MEASURE( 1.000000000000000082E-05 ), #179, 'distance_accuracy_value', 'NONE');
#103 = AXIS2_PLACEMENT_3D ( 'NONE', #290, #194, #323 ) ;
#104 = CONICAL_SURFACE ( 'NONE', #135, 0.01563435000000000866, 0.1745329251994338915 ) ;
#105 = ORIENTED_EDGE ( 'NONE', *, *, #210, .F. ) ;
#106 = EDGE_LOOP ( 'NONE', ( #136, #208, #180, #303 ) ) ;
#107 = SURFACE_STYLE_FILL_AREA ( #186 ) ;
#108 = CIRCLE ( 'NONE', #257, 0.06250000000000002776 ) ;
#109 = ORIENTED_EDGE ( 'NONE', *, *, #235, .T. ) ;
#110 = CARTESIAN_POINT ( 'NONE',  ( -0.06250000000000002776, 0.0000000000000000000, 1.500000000000000222 ) ) ;
#111 = DIRECTION ( 'NONE',  ( -0.1736481776669311916, 2.126576849575783316E-17, 0.9848077530122080203 ) ) ;
#112 = CARTESIAN_POINT ( 'NONE',  ( 0.06250000000000006939, 7.654042494670963708E-18, 0.3437883088095654016 ) ) ;
#113 = ADVANCED_FACE ( 'NONE', ( #272 ), #248, .T. ) ;
#114 = DIRECTION ( 'NONE',  ( 1.224646799147353700E-16, 0.0000000000000000000, 1.000000000000000000 ) ) ;
#115 = CIRCLE ( 'NONE', #144, 0.01563435000000001560 ) ;
#116 = PRODUCT_DEFINITION_FORMATION_WITH_SPECIFIED_SOURCE ( 'ANY', '', #270, .NOT_KNOWN. ) ;
#117 = CARTESIAN_POINT ( 'NONE',  ( -0.06250000000000002776, 0.0000000000000000000, 1.485000000000000764 ) ) ;
#118 = DIRECTION ( 'NONE',  ( -1.000000000000000000, 0.0000000000000000000, 1.365107116733476959E-16 ) ) ;
#119 = DIRECTION ( 'NONE',  ( -1.224646799147353700E-16, -0.0000000000000000000, -1.000000000000000000 ) ) ;
#120 = DIRECTION ( 'NONE',  ( 0.0000000000000000000, 0.0000000000000000000, -1.000000000000000000 ) ) ;
#121 = ORIENTED_EDGE ( 'NONE', *, *, #24, .F. ) ;
#122 = DIMENSIONAL_EXPONENTS ( 1.000000000000000000, 0.0000000000000000000, 0.0000000000000000000, 0.0000000000000000000, 0.0000000000000000000, 0.0000000000000000000, 0.0000000000000000000 ) ;
#123 = EDGE_LOOP ( 'NONE', ( #258, #12 ) ) ;
#124 = ADVANCED_FACE ( 'NONE', ( #299 ), #93, .T. ) ;
#125 = EDGE_LOOP ( 'NONE', ( #244, #5, #3, #109 ) ) ;
#126 = LENGTH_MEASURE_WITH_UNIT ( LENGTH_MEASURE( 0.02539999999999999897 ), #265 );
#127 = CONICAL_SURFACE ( 'NONE', #169, 0.04750000000000064587, 0.7853981633974466137 ) ;
#128 =( GEOMETRIC_REPRESENTATION_CONTEXT ( 3 ) GLOBAL_UNCERTAINTY_ASSIGNED_CONTEXT ( ( #102 ) ) GLOBAL_UNIT_ASSIGNED_CONTEXT ( ( #179, #317, #134 ) ) REPRESENTATION_CONTEXT ( 'NONE', 'WORKASPACE' ) );
#129 = DIRECTION ( 'NONE',  ( 0.0000000000000000000, 1.000000000000000000, 0.0000000000000000000 ) ) ;
#130 = ORIENTED_EDGE ( 'NONE', *, *, #50, .F. ) ;
#131 = EDGE_CURVE ( 'NONE', #87, #133, #66, .T. ) ;
#132 = ADVANCED_FACE ( 'NONE', ( #297 ), #104, .T. ) ;
#133 = VERTEX_POINT ( 'NONE', #322 ) ;
#134 =( NAMED_UNIT ( * ) SI_UNIT ( $, .STERADIAN. ) SOLID_ANGLE_UNIT ( ) );
#135 = AXIS2_PLACEMENT_3D ( 'NONE', #167, #320, #274 ) ;
#136 = ORIENTED_EDGE ( 'NONE', *, *, #309, .F. ) ;
#137 = ORIENTED_EDGE ( 'NONE', *, *, #319, .T. ) ;
#138 = LINE ( 'NONE', #296, #98 ) ;
#139 = EDGE_CURVE ( 'NONE', #14, #214, #253, .T. ) ;
#140 = DIRECTION ( 'NONE',  ( -1.224646799147353700E-16, -0.0000000000000000000, -1.000000000000000000 ) ) ;
#141 = CARTESIAN_POINT ( 'NONE',  ( 0.0000000000000000000, 0.0000000000000000000, 1.500000000000000222 ) ) ;
#142 = FACE_OUTER_BOUND ( 'NONE', #175, .T. ) ;
#143 = LINE ( 'NONE', #23, #13 ) ;
#144 = AXIS2_PLACEMENT_3D ( 'NONE', #254, #114, #90 ) ;
#145 = CARTESIAN_POINT ( 'NONE',  ( 0.0000000000000000000, 0.0000000000000000000, 0.0000000000000000000 ) ) ;
#146 = FACE_OUTER_BOUND ( 'NONE', #242, .T. ) ;
#147 = DIRECTION ( 'NONE',  ( -1.224646799147353700E-16, -0.0000000000000000000, -1.000000000000000000 ) ) ;
#148 = PRODUCT_DEFINITION_CONTEXT ( 'detailed design', #78, 'design' ) ;
#149 = VERTEX_POINT ( 'NONE', #68 ) ;
#150 = ORIENTED_EDGE ( 'NONE', *, *, #227, .F. ) ;
#151 = AXIS2_PLACEMENT_3D ( 'NONE', #294, #166, #44 ) ;
#152 = DIRECTION ( 'NONE',  ( 0.0000000000000000000, 0.0000000000000000000, -1.000000000000000000 ) ) ;
#153 = CIRCLE ( 'NONE', #7, 0.01563435000000000866 ) ;
#154 = ADVANCED_FACE ( 'NONE', ( #324 ), #127, .T. ) ;
#155 = CARTESIAN_POINT ( 'NONE',  ( 1.914655668424943366E-18, 0.0000000000000000000, 0.01563435000000000172 ) ) ;
#156 = ORIENTED_EDGE ( 'NONE', *, *, #53, .T. ) ;
#157 = LINE ( 'NONE', #314, #9 ) ;
#158 = PRESENTATION_STYLE_ASSIGNMENT (( #63 ) ) ;
#159 = ORIENTED_EDGE ( 'NONE', *, *, #77, .F. ) ;
#160 = EDGE_LOOP ( 'NONE', ( #304, #159, #284, #43 ) ) ;
#161 = DIRECTION ( 'NONE',  ( 0.7071067811865462405, 8.659560562354916834E-17, -0.7071067811865486830 ) ) ;
#162 = AXIS2_PLACEMENT_3D ( 'NONE', #76, #140, #19 ) ;
#163 = VERTEX_POINT ( 'NONE', #197 ) ;
#164 = FACE_OUTER_BOUND ( 'NONE', #266, .T. ) ;
#165 = CARTESIAN_POINT ( 'NONE',  ( 0.0000000000000000000, 0.0000000000000000000, 1.500000000000000222 ) ) ;
#166 = DIRECTION ( 'NONE',  ( 0.0000000000000000000, 1.000000000000000000, 0.0000000000000000000 ) ) ;
#167 = CARTESIAN_POINT ( 'NONE',  ( 9.552245033349369302E-18, 0.0000000000000000000, 0.07800000000000009703 ) ) ;
#168 = FACE_OUTER_BOUND ( 'NONE', #106, .T. ) ;
#169 = AXIS2_PLACEMENT_3D ( 'NONE', #165, #48, #45 ) ;
#170 = FACE_OUTER_BOUND ( 'NONE', #256, .T. ) ;
#171 = UNCERTAINTY_MEASURE_WITH_UNIT (LENGTH_MEASURE( 1.000000000000000082E-05 ), #83, 'distance_accuracy_value', 'NONE');
#172 = PRODUCT_RELATED_PRODUCT_CATEGORY ( 'part', '', ( #270 ) ) ;
#173 = ADVANCED_FACE ( 'NONE', ( #170 ), #47, .T. ) ;
#174 = EDGE_CURVE ( 'NONE', #14, #204, #57, .T. ) ;
#175 = EDGE_LOOP ( 'NONE', ( #64, #156, #178, #205 ) ) ;
#176 = AXIS2_PLACEMENT_3D ( 'NONE', #36, #73, #118 ) ;
#177 = SHAPE_DEFINITION_REPRESENTATION ( #315, #325 ) ;
#178 = ORIENTED_EDGE ( 'NONE', *, *, #50, .T. ) ;
#179 =( CONVERSION_BASED_UNIT ( 'INCH', #126 ) LENGTH_UNIT ( ) NAMED_UNIT ( #122 ) );
#180 = ORIENTED_EDGE ( 'NONE', *, *, #282, .T. ) ;
#181 = AXIS2_PLACEMENT_3D ( 'NONE', #65, #96, #51 ) ;
#182 = CIRCLE ( 'NONE', #92, 0.01563435000000000172 ) ;
#183 = DIRECTION ( 'NONE',  ( 1.000000000000000000, 0.0000000000000000000, 0.0000000000000000000 ) ) ;
#184 = VERTEX_POINT ( 'NONE', #228 ) ;
#185 = ORIENTED_EDGE ( 'NONE', *, *, #139, .F. ) ;
#186 = FILL_AREA_STYLE ('',( #283 ) ) ;
#187 = DIRECTION ( 'NONE',  ( -1.224646799147353700E-16, -0.0000000000000000000, -1.000000000000000000 ) ) ;
#188 = CYLINDRICAL_SURFACE ( 'NONE', #275, 0.06250000000000002776 ) ;
#189 = SURFACE_STYLE_USAGE ( .BOTH. , #59 ) ;
#190 = AXIS2_PLACEMENT_3D ( 'NONE', #89, #263, #85 ) ;
#191 = FACE_OUTER_BOUND ( 'NONE', #81, .T. ) ;
#192 = STYLED_ITEM ( 'NONE', ( #158 ), #325 ) ;
#193 = CARTESIAN_POINT ( 'NONE',  ( -0.04750000000000064587, 0.0000000000000000000, 1.500000000000000222 ) ) ;
#194 = DIRECTION ( 'NONE',  ( 0.0000000000000000000, 0.0000000000000000000, 1.000000000000000000 ) ) ;
#195 = LINE ( 'NONE', #26, #292 ) ;
#196 = CARTESIAN_POINT ( 'NONE',  ( 0.0000000000000000000, 0.0000000000000000000, 1.500000000000000222 ) ) ;
#197 = CARTESIAN_POINT ( 'NONE',  ( -0.01563435000000001213, 0.0000000000000000000, 0.01563435000000000519 ) ) ;
#198 = STYLED_ITEM ( 'NONE', ( #241 ), #46 ) ;
#199 = DIRECTION ( 'NONE',  ( -0.0000000000000000000, -0.0000000000000000000, -1.000000000000000000 ) ) ;
#200 = ADVANCED_FACE ( 'NONE', ( #18 ), #251, .T. ) ;
#201 = ADVANCED_FACE ( 'NONE', ( #146 ), #54, .T. ) ;
#202 = AXIS2_PLACEMENT_3D ( 'NONE', #71, #199, #301 ) ;
#203 = MECHANICAL_DESIGN_GEOMETRIC_PRESENTATION_REPRESENTATION (  '', ( #192 ), #218 ) ;
#204 = VERTEX_POINT ( 'NONE', #42 ) ;
#205 = ORIENTED_EDGE ( 'NONE', *, *, #4, .F. ) ;
#206 = ORIENTED_EDGE ( 'NONE', *, *, #234, .F. ) ;
#207 = AXIS2_PLACEMENT_3D ( 'NONE', #250, #120, #95 ) ;
#208 = ORIENTED_EDGE ( 'NONE', *, *, #237, .T. ) ;
#209 = ORIENTED_EDGE ( 'NONE', *, *, #55, .T. ) ;
#210 = EDGE_CURVE ( 'NONE', #280, #87, #143, .T. ) ;
#211 =( LENGTH_UNIT ( ) NAMED_UNIT ( * ) SI_UNIT ( $, .METRE. ) );
#212 = ORIENTED_EDGE ( 'NONE', *, *, #210, .T. ) ;
#213 = CARTESIAN_POINT ( 'NONE',  ( 0.0000000000000000000, 0.0000000000000000000, 0.0000000000000000000 ) ) ;
#214 = VERTEX_POINT ( 'NONE', #117 ) ;
#215 = DIRECTION ( 'NONE',  ( 0.1736481776669313859, 0.0000000000000000000, 0.9848077530122077983 ) ) ;
#216 = CONICAL_SURFACE ( 'NONE', #40, 0.01563435000000000866, 0.1745329251994338915 ) ;
#217 = PRODUCT_DEFINITION ( 'UNKNOWN', '', #116, #148 ) ;
#218 =( GEOMETRIC_REPRESENTATION_CONTEXT ( 3 ) GLOBAL_UNCERTAINTY_ASSIGNED_CONTEXT ( ( #316 ) ) GLOBAL_UNIT_ASSIGNED_CONTEXT ( ( #245, #15, #88 ) ) REPRESENTATION_CONTEXT ( 'NONE', 'WORKASPACE' ) );
#219 = FILL_AREA_STYLE_COLOUR ( '', #91 ) ;
#220 = SPHERICAL_SURFACE ( 'NONE', #74, 0.01563435000000000172 ) ;
#221 = SURFACE_STYLE_FILL_AREA ( #286 ) ;
#222 = DIRECTION ( 'NONE',  ( 1.224646799147353700E-16, 0.0000000000000000000, 1.000000000000000000 ) ) ;
#223 = DIRECTION ( 'NONE',  ( -1.224646799147353700E-16, -0.0000000000000000000, -1.000000000000000000 ) ) ;
#224 = VECTOR ( 'NONE', #215, 39.37007874015748143 ) ;
#225 = CARTESIAN_POINT ( 'NONE',  ( -0.01563435000000000172, 1.914655668424943366E-18, 0.07800000000000009703 ) ) ;
#226 = DIRECTION ( 'NONE',  ( -1.000000000000000000, 0.0000000000000000000, 0.0000000000000000000 ) ) ;
#227 = EDGE_CURVE ( 'NONE', #204, #14, #262, .T. ) ;
#228 = CARTESIAN_POINT ( 'NONE',  ( 2.871983502637414086E-18, 0.0000000000000000000, 0.0000000000000000000 ) ) ;
#229 = DIRECTION ( 'NONE',  ( -1.000000000000000000, 0.0000000000000000000, 1.224646799147353454E-16 ) ) ;
#230 = DIRECTION ( 'NONE',  ( -1.000000000000000000, 0.0000000000000000000, 1.224646799147353454E-16 ) ) ;
#231 = CIRCLE ( 'NONE', #30, 0.06250000000000002776 ) ;
#232 = AXIS2_PLACEMENT_3D ( 'NONE', #141, #20, #67 ) ;
#233 = ORIENTED_EDGE ( 'NONE', *, *, #282, .F. ) ;
#234 = EDGE_CURVE ( 'NONE', #204, #280, #138, .T. ) ;
#235 = EDGE_CURVE ( 'NONE', #163, #149, #115, .T. ) ;
#236 = CARTESIAN_POINT ( 'NONE',  ( 0.01563435000000001907, 0.0000000000000000000, 0.07800000000000009703 ) ) ;
#237 = EDGE_CURVE ( 'NONE', #41, #133, #298, .T. ) ;
#238 = ADVANCED_FACE ( 'NONE', ( #164 ), #188, .T. ) ;
#239 = CARTESIAN_POINT ( 'NONE',  ( -0.01563435000000000172, 4.784349081547952189E-18, 0.07800000000000009703 ) ) ;
#240 = CARTESIAN_POINT ( 'NONE',  ( 1.914655668424943366E-18, 0.0000000000000000000, 0.01563435000000000172 ) ) ;
#241 = PRESENTATION_STYLE_ASSIGNMENT (( #189 ) ) ;
#242 = EDGE_LOOP ( 'NONE', ( #206, #8, #259, #307 ) ) ;
#243 = DIRECTION ( 'NONE',  ( -1.000000000000000000, 0.0000000000000000000, 0.0000000000000000000 ) ) ;
#244 = ORIENTED_EDGE ( 'NONE', *, *, #53, .F. ) ;
#245 =( CONVERSION_BASED_UNIT ( 'INCH', #285 ) LENGTH_UNIT ( ) NAMED_UNIT ( #75 ) );
#246 = DIRECTION ( 'NONE',  ( 1.000000000000000000, 0.0000000000000000000, 0.0000000000000000000 ) ) ;
#247 = DIRECTION ( 'NONE',  ( -1.000000000000000000, 0.0000000000000000000, 0.0000000000000000000 ) ) ;
#248 = CYLINDRICAL_SURFACE ( 'NONE', #267, 0.01563435000000001560 ) ;
#249 = DIRECTION ( 'NONE',  ( -0.0000000000000000000, -0.0000000000000000000, -1.000000000000000000 ) ) ;
#250 = CARTESIAN_POINT ( 'NONE',  ( 0.0000000000000000000, 0.0000000000000000000, 1.485000000000000764 ) ) ;
#251 = PLANE ( 'NONE',  #181 ) ;
#252 = AXIS2_PLACEMENT_3D ( 'NONE', #313, #60, #243 ) ;
#253 = LINE ( 'NONE', #193, #293 ) ;
#254 = CARTESIAN_POINT ( 'NONE',  ( 1.914655668424943366E-18, 0.0000000000000000000, 0.01563435000000000172 ) ) ;
#255 =( NAMED_UNIT ( * ) SI_UNIT ( $, .STERADIAN. ) SOLID_ANGLE_UNIT ( ) );
#256 = EDGE_LOOP ( 'NONE', ( #121, #137, #130 ) ) ;
#257 = AXIS2_PLACEMENT_3D ( 'NONE', #56, #152, #246 ) ;
#258 = ORIENTED_EDGE ( 'NONE', *, *, #174, .T. ) ;
#259 = ORIENTED_EDGE ( 'NONE', *, *, #139, .T. ) ;
#260 = ADVANCED_FACE ( 'NONE', ( #168 ), #216, .T. ) ;
#261 = APPLICATION_PROTOCOL_DEFINITION ( 'draft international standard', 'automotive_design', 1998, #279 ) ;
#262 = CIRCLE ( 'NONE', #232, 0.04750000000000064587 ) ;
#263 = DIRECTION ( 'NONE',  ( 0.0000000000000000000, -1.000000000000000000, 0.0000000000000000000 ) ) ;
#264 = CARTESIAN_POINT ( 'NONE',  ( 0.01563435000000001907, 0.0000000000000000000, 0.07800000000000009703 ) ) ;
#265 =( LENGTH_UNIT ( ) NAMED_UNIT ( * ) SI_UNIT ( $, .METRE. ) );
#266 = EDGE_LOOP ( 'NONE', ( #105, #209, #61, #281 ) ) ;
#267 = AXIS2_PLACEMENT_3D ( 'NONE', #145, #52, #229 ) ;
#268 = DIRECTION ( 'NONE',  ( 1.000000000000000000, 0.0000000000000000000, 0.0000000000000000000 ) ) ;
#269 =( LENGTH_UNIT ( ) NAMED_UNIT ( * ) SI_UNIT ( $, .METRE. ) );
#270 = PRODUCT ( 'Micro_BEM-031-02', 'Micro_BEM-031-02', '', ( #86 ) ) ;
#271 = DIRECTION ( 'NONE',  ( -1.000000000000000000, 0.0000000000000000000, 0.0000000000000000000 ) ) ;
#272 = FACE_OUTER_BOUND ( 'NONE', #125, .T. ) ;
#273 = DIRECTION ( 'NONE',  ( 0.0000000000000000000, 0.0000000000000000000, -1.000000000000000000 ) ) ;
#274 = DIRECTION ( 'NONE',  ( 1.000000000000000000, 0.0000000000000000000, 0.0000000000000000000 ) ) ;
#275 = AXIS2_PLACEMENT_3D ( 'NONE', #72, #321, #247 ) ;
#276 = CARTESIAN_POINT ( 'NONE',  ( 0.06250000000000002776, 7.654042494670959086E-18, 1.485000000000000764 ) ) ;
#277 = CYLINDRICAL_SURFACE ( 'NONE', #79, 0.01563435000000001560 ) ;
#278 = MECHANICAL_DESIGN_GEOMETRIC_PRESENTATION_REPRESENTATION (  '', ( #198 ), #305 ) ;
#279 = APPLICATION_CONTEXT ( 'automotive_design' ) ;
#280 = VERTEX_POINT ( 'NONE', #276 ) ;
#281 = ORIENTED_EDGE ( 'NONE', *, *, #131, .F. ) ;
#282 = EDGE_CURVE ( 'NONE', #133, #87, #231, .T. ) ;
#283 = FILL_AREA_STYLE_COLOUR ( '', #101 ) ;
#284 = ORIENTED_EDGE ( 'NONE', *, *, #11, .T. ) ;
#285 = LENGTH_MEASURE_WITH_UNIT ( LENGTH_MEASURE( 0.02539999999999999897 ), #211 );
#286 = FILL_AREA_STYLE ('',( #219 ) ) ;
#287 = ADVANCED_FACE ( 'NONE', ( #191 ), #220, .T. ) ;
#288 = SURFACE_SIDE_STYLE ('',( #107 ) ) ;
#289 = LINE ( 'NONE', #110, #28 ) ;
#290 = CARTESIAN_POINT ( 'NONE',  ( 0.0000000000000000000, 0.0000000000000000000, 1.500000000000000222 ) ) ;
#291 = EDGE_LOOP ( 'NONE', ( #150, #62, #312, #185 ) ) ;
#292 = VECTOR ( 'NONE', #223, 39.37007874015748143 ) ;
#293 = VECTOR ( 'NONE', #295, 39.37007874015748854 ) ;
#294 = CARTESIAN_POINT ( 'NONE',  ( 1.914655668424943366E-18, 0.0000000000000000000, 0.01563435000000000172 ) ) ;
#295 = DIRECTION ( 'NONE',  ( -0.7071067811865462405, 0.0000000000000000000, -0.7071067811865486830 ) ) ;
#296 = CARTESIAN_POINT ( 'NONE',  ( 0.04750000000000064587, 5.817072295950006528E-18, 1.500000000000000222 ) ) ;
#297 = FACE_OUTER_BOUND ( 'NONE', #160, .T. ) ;
#298 = LINE ( 'NONE', #225, #84 ) ;
#299 = FACE_OUTER_BOUND ( 'NONE', #99, .T. ) ;
#300 = CIRCLE ( 'NONE', #207, 0.06250000000000002776 ) ;
#301 = DIRECTION ( 'NONE',  ( -1.000000000000000000, 0.0000000000000000000, 0.0000000000000000000 ) ) ;
#302 = PRESENTATION_LAYER_ASSIGNMENT (  '', '', ( #198 ) ) ;
#303 = ORIENTED_EDGE ( 'NONE', *, *, #11, .F. ) ;
#304 = ORIENTED_EDGE ( 'NONE', *, *, #237, .F. ) ;
#305 =( GEOMETRIC_REPRESENTATION_CONTEXT ( 3 ) GLOBAL_UNCERTAINTY_ASSIGNED_CONTEXT ( ( #171 ) ) GLOBAL_UNIT_ASSIGNED_CONTEXT ( ( #83, #37, #255 ) ) REPRESENTATION_CONTEXT ( 'NONE', 'WORKASPACE' ) );
#306 = DIRECTION ( 'NONE',  ( 0.0000000000000000000, 0.0000000000000000000, 1.000000000000000000 ) ) ;
#307 = ORIENTED_EDGE ( 'NONE', *, *, #55, .F. ) ;
#308 = LENGTH_MEASURE_WITH_UNIT ( LENGTH_MEASURE( 0.02539999999999999897 ), #269 );
#309 = EDGE_CURVE ( 'NONE', #41, #318, #58, .T. ) ;
#310 = DIRECTION ( 'NONE',  ( 1.000000000000000000, 0.0000000000000000000, 0.0000000000000000000 ) ) ;
#311 = CIRCLE ( 'NONE', #176, 0.01563435000000001560 ) ;
#312 = ORIENTED_EDGE ( 'NONE', *, *, #16, .F. ) ;
#313 = CARTESIAN_POINT ( 'NONE',  ( 9.552245033349369302E-18, 0.0000000000000000000, 0.07800000000000009703 ) ) ;
#314 = CARTESIAN_POINT ( 'NONE',  ( -0.01563435000000001560, 0.0000000000000000000, 1.914655668424944522E-18 ) ) ;
#315 = PRODUCT_DEFINITION_SHAPE ( 'NONE', 'NONE',  #217 ) ;
#316 = UNCERTAINTY_MEASURE_WITH_UNIT (LENGTH_MEASURE( 1.000000000000000082E-05 ), #245, 'distance_accuracy_value', 'NONE');
#317 =( NAMED_UNIT ( * ) PLANE_ANGLE_UNIT ( ) SI_UNIT ( $, .RADIAN. ) );
#318 = VERTEX_POINT ( 'NONE', #236 ) ;
#319 = EDGE_CURVE ( 'NONE', #184, #163, #182, .T. ) ;
#320 = DIRECTION ( 'NONE',  ( 1.224646799147353700E-16, 0.0000000000000000000, 1.000000000000000000 ) ) ;
#321 = DIRECTION ( 'NONE',  ( -0.0000000000000000000, -0.0000000000000000000, -1.000000000000000000 ) ) ;
#322 = CARTESIAN_POINT ( 'NONE',  ( -0.06249999999999997918, 0.0000000000000000000, 0.3437883088095654016 ) ) ;
#323 = DIRECTION ( 'NONE',  ( 1.000000000000000000, 0.0000000000000000000, 0.0000000000000000000 ) ) ;
#324 = FACE_OUTER_BOUND ( 'NONE', #291, .T. ) ;
#325 = ADVANCED_BREP_SHAPE_REPRESENTATION ( 'Micro_BEM-031-02', ( #46, #49 ), #128 ) ;
ENDSEC;
END-ISO-10303-21;
