ISO-10303-21;
HEADER;
FILE_DESCRIPTION (( 'STEP AP214' ),
    '1' );
FILE_NAME ('82946.STEP',
    '2023-06-23T07:20:14',
    ( '' ),
    ( '' ),
    'SwSTEP 2.0',
    'SolidWorks 2023',
    '' );
FILE_SCHEMA (( 'AUTOMOTIVE_DESIGN' ));
ENDSEC;

DATA;
#1 = ORIENTED_EDGE ( 'NONE', *, *, #82, .F. ) ;
#2 = EDGE_CURVE ( 'NONE', #111, #285, #223, .T. ) ;
#3 =( NAMED_UNIT ( * ) PLANE_ANGLE_UNIT ( ) SI_UNIT ( $, .RADIAN. ) );
#4 = VERTEX_POINT ( 'NONE', #151 ) ;
#5 = PRESENTATION_STYLE_ASSIGNMENT (( #169 ) ) ;
#6 = ORIENTED_EDGE ( 'NONE', *, *, #213, .T. ) ;
#7 = ADVANCED_FACE ( 'NONE', ( #216 ), #248, .T. ) ;
#8 = ORIENTED_EDGE ( 'NONE', *, *, #165, .T. ) ;
#9 = COLOUR_RGB ( '',1.000000000000000000, 0.000000000000000000, 0.000000000000000000 ) ;
#10 = UNCERTAINTY_MEASURE_WITH_UNIT (LENGTH_MEASURE( 1.000000000000000082E-05 ), #125, 'distance_accuracy_value', 'NONE');
#11 = APPLICATION_PROTOCOL_DEFINITION ( 'draft international standard', 'automotive_design', 1998, #48 ) ;
#12 =( NAMED_UNIT ( * ) SI_UNIT ( $, .STERADIAN. ) SOLID_ANGLE_UNIT ( ) );
#13 = FACE_OUTER_BOUND ( 'NONE', #256, .T. ) ;
#14 = DIMENSIONAL_EXPONENTS ( 1.000000000000000000, 0.000000000000000000, 0.000000000000000000, 0.000000000000000000, 0.000000000000000000, 0.000000000000000000, 0.000000000000000000 ) ;
#15 = AXIS2_PLACEMENT_3D ( 'NONE', #155, #88, #217 ) ;
#16 = FILL_AREA_STYLE ('',( #41 ) ) ;
#17 =( GEOMETRIC_REPRESENTATION_CONTEXT ( 3 ) GLOBAL_UNCERTAINTY_ASSIGNED_CONTEXT ( ( #94 ) ) GLOBAL_UNIT_ASSIGNED_CONTEXT ( ( #50, #287, #49 ) ) REPRESENTATION_CONTEXT ( 'NONE', 'WORKASPACE' ) );
#18 = CARTESIAN_POINT ( 'NONE',  ( 0.2499999999999998890, 6.000000000000000888, 3.061616997868384251E-17 ) ) ;
#19 = CARTESIAN_POINT ( 'NONE',  ( 0.000000000000000000, 0.000000000000000000, -0.2500000000000000000 ) ) ;
#20 = COLOUR_RGB ( '',0.7921568627450980005, 0.8196078431372548767, 0.9333333333333333481 ) ;
#21 = CARTESIAN_POINT ( 'NONE',  ( -2.449293598294707400E-16, 6.000000000000000888, 0.000000000000000000 ) ) ;
#22 = ORIENTED_EDGE ( 'NONE', *, *, #106, .T. ) ;
#23 = PRODUCT_DEFINITION ( 'UNKNOWN', '', #220, #195 ) ;
#24 = FILL_AREA_STYLE_COLOUR ( '', #309 ) ;
#25 = ORIENTED_EDGE ( 'NONE', *, *, #2, .F. ) ;
#26 = CARTESIAN_POINT ( 'NONE',  ( 0.000000000000000000, 1.250000000000000000, 0.000000000000000000 ) ) ;
#27 = AXIS2_PLACEMENT_3D ( 'NONE', #21, #308, #261 ) ;
#28 = VERTEX_POINT ( 'NONE', #171 ) ;
#29 = CARTESIAN_POINT ( 'NONE',  ( 0.000000000000000000, 0.000000000000000000, 0.000000000000000000 ) ) ;
#30 = CYLINDRICAL_SURFACE ( 'NONE', #297, 0.2500000000000000000 ) ;
#31 = STYLED_ITEM ( 'NONE', ( #189 ), #123 ) ;
#32 = DIRECTION ( 'NONE',  ( 0.000000000000000000, 0.000000000000000000, -1.000000000000000000 ) ) ;
#33 = SURFACE_SIDE_STYLE ('',( #294 ) ) ;
#34 =( LENGTH_UNIT ( ) NAMED_UNIT ( * ) SI_UNIT ( $, .METRE. ) );
#35 = PRESENTATION_STYLE_ASSIGNMENT (( #176 ) ) ;
#36 = FACE_OUTER_BOUND ( 'NONE', #148, .T. ) ;
#37 = STYLED_ITEM ( 'NONE', ( #177 ), #76 ) ;
#38 = CIRCLE ( 'NONE', #183, 0.2500000000000000000 ) ;
#39 = CARTESIAN_POINT ( 'NONE',  ( 0.000000000000000000, 0.000000000000000000, 0.000000000000000000 ) ) ;
#40 = DIMENSIONAL_EXPONENTS ( 1.000000000000000000, 0.000000000000000000, 0.000000000000000000, 0.000000000000000000, 0.000000000000000000, 0.000000000000000000, 0.000000000000000000 ) ;
#41 = FILL_AREA_STYLE_COLOUR ( '', #182 ) ;
#42 = SURFACE_STYLE_FILL_AREA ( #16 ) ;
#43 = AXIS2_PLACEMENT_3D ( 'NONE', #145, #167, #264 ) ;
#44 =( CONVERSION_BASED_UNIT ( 'INCH', #181 ) LENGTH_UNIT ( ) NAMED_UNIT ( #40 ) );
#45 = FILL_AREA_STYLE ('',( #24 ) ) ;
#46 = ORIENTED_EDGE ( 'NONE', *, *, #161, .F. ) ;
#47 = CARTESIAN_POINT ( 'NONE',  ( 3.323567385400241672E-34, 1.250000000000000000, 0.000000000000000000 ) ) ;
#48 = APPLICATION_CONTEXT ( 'automotive_design' ) ;
#49 =( NAMED_UNIT ( * ) SI_UNIT ( $, .STERADIAN. ) SOLID_ANGLE_UNIT ( ) );
#50 =( CONVERSION_BASED_UNIT ( 'INCH', #126 ) LENGTH_UNIT ( ) NAMED_UNIT ( #180 ) );
#51 = EDGE_CURVE ( 'NONE', #4, #288, #134, .T. ) ;
#52 = CARTESIAN_POINT ( 'NONE',  ( 0.000000000000000000, 1.250000000000000000, 0.000000000000000000 ) ) ;
#53 = EDGE_LOOP ( 'NONE', ( #103, #188, #207, #46 ) ) ;
#54 = CIRCLE ( 'NONE', #43, 0.2500000000000000000 ) ;
#55 =( GEOMETRIC_REPRESENTATION_CONTEXT ( 3 ) GLOBAL_UNCERTAINTY_ASSIGNED_CONTEXT ( ( #113 ) ) GLOBAL_UNIT_ASSIGNED_CONTEXT ( ( #56, #3, #292 ) ) REPRESENTATION_CONTEXT ( 'NONE', 'WORKASPACE' ) );
#56 =( CONVERSION_BASED_UNIT ( 'INCH', #175 ) LENGTH_UNIT ( ) NAMED_UNIT ( #14 ) );
#57 = ADVANCED_FACE ( 'NONE', ( #36 ), #269, .T. ) ;
#58 = MANIFOLD_SOLID_BREP ( 'Revolve - Cutting Edge', #198 ) ;
#59 = SURFACE_STYLE_USAGE ( .BOTH. , #156 ) ;
#60 =( CONVERSION_BASED_UNIT ( 'INCH', #219 ) LENGTH_UNIT ( ) NAMED_UNIT ( #301 ) );
#61 = CARTESIAN_POINT ( 'NONE',  ( -0.2500000000000004996, 6.000000000000000888, 0.000000000000000000 ) ) ;
#62 =( LENGTH_UNIT ( ) NAMED_UNIT ( * ) SI_UNIT ( $, .METRE. ) );
#63 = PRODUCT_DEFINITION_SHAPE ( 'NONE', 'NONE',  #23 ) ;
#64 = PRESENTATION_LAYER_ASSIGNMENT (  '', '', ( #37 ) ) ;
#65 = CARTESIAN_POINT ( 'NONE',  ( -2.449293598294707400E-16, 6.000000000000000888, 0.000000000000000000 ) ) ;
#66 = CARTESIAN_POINT ( 'NONE',  ( 0.000000000000000000, 0.000000000000000000, 0.000000000000000000 ) ) ;
#67 = PRESENTATION_STYLE_ASSIGNMENT (( #124 ) ) ;
#68 = SURFACE_STYLE_USAGE ( .BOTH. , #122 ) ;
#69 = LENGTH_MEASURE_WITH_UNIT ( LENGTH_MEASURE( 0.02539999999999999897 ), #275 );
#70 = STYLED_ITEM ( 'NONE', ( #5 ), #57 ) ;
#71 = DIRECTION ( 'NONE',  ( -1.000000000000000000, -5.156407575357278381E-17, 0.000000000000000000 ) ) ;
#72 = DIRECTION ( 'NONE',  ( 0.000000000000000000, -0.000000000000000000, 1.000000000000000000 ) ) ;
#73 = LINE ( 'NONE', #19, #186 ) ;
#74 = ORIENTED_EDGE ( 'NONE', *, *, #2, .T. ) ;
#75 = MECHANICAL_DESIGN_GEOMETRIC_PRESENTATION_REPRESENTATION (  '', ( #31 ), #17 ) ;
#76 = ADVANCED_FACE ( 'NONE', ( #13 ), #30, .T. ) ;
#77 = CARTESIAN_POINT ( 'NONE',  ( -2.449293598294707400E-16, 6.000000000000000888, 0.000000000000000000 ) ) ;
#78 = DIRECTION ( 'NONE',  ( 0.000000000000000000, 0.000000000000000000, -1.000000000000000000 ) ) ;
#79 = ORIENTED_EDGE ( 'NONE', *, *, #161, .T. ) ;
#80 = ORIENTED_EDGE ( 'NONE', *, *, #106, .F. ) ;
#81 = VECTOR ( 'NONE', #158, 39.37007874015748143 ) ;
#82 = EDGE_CURVE ( 'NONE', #111, #28, #228, .T. ) ;
#83 = STYLED_ITEM ( 'NONE', ( #132 ), #257 ) ;
#84 =( NAMED_UNIT ( * ) SI_UNIT ( $, .STERADIAN. ) SOLID_ANGLE_UNIT ( ) );
#85 =( LENGTH_UNIT ( ) NAMED_UNIT ( * ) SI_UNIT ( $, .METRE. ) );
#86 = PRODUCT ( '82946', '82946', '', ( #244 ) ) ;
#87 = CARTESIAN_POINT ( 'NONE',  ( 3.061616997868383018E-17, 0.000000000000000000, 0.2500000000000000000 ) ) ;
#88 = DIRECTION ( 'NONE',  ( -5.156407575357278997E-17, 1.000000000000000000, -0.000000000000000000 ) ) ;
#89 = MECHANICAL_DESIGN_GEOMETRIC_PRESENTATION_REPRESENTATION (  '', ( #37 ), #277 ) ;
#90 =( CONVERSION_BASED_UNIT ( 'INCH', #247 ) LENGTH_UNIT ( ) NAMED_UNIT ( #299 ) );
#91 = EDGE_CURVE ( 'NONE', #191, #4, #100, .T. ) ;
#92 = APPLICATION_PROTOCOL_DEFINITION ( 'draft international standard', 'automotive_design', 1998, #150 ) ;
#93 =( NAMED_UNIT ( * ) SI_UNIT ( $, .STERADIAN. ) SOLID_ANGLE_UNIT ( ) );
#94 = UNCERTAINTY_MEASURE_WITH_UNIT (LENGTH_MEASURE( 1.000000000000000082E-05 ), #50, 'distance_accuracy_value', 'NONE');
#95 = CARTESIAN_POINT ( 'NONE',  ( 0.000000000000000000, 0.000000000000000000, 0.000000000000000000 ) ) ;
#96 = FILL_AREA_STYLE ('',( #227 ) ) ;
#97 = UNCERTAINTY_MEASURE_WITH_UNIT (LENGTH_MEASURE( 1.000000000000000082E-05 ), #44, 'distance_accuracy_value', 'NONE');
#98 = AXIS2_PLACEMENT_3D ( 'NONE', #47, #204, #71 ) ;
#99 = DIRECTION ( 'NONE',  ( -0.000000000000000000, -1.000000000000000000, -0.000000000000000000 ) ) ;
#100 = CIRCLE ( 'NONE', #178, 0.2500000000000000000 ) ;
#101 = ADVANCED_FACE ( 'NONE', ( #253 ), #226, .T. ) ;
#102 = CARTESIAN_POINT ( 'NONE',  ( 0.2500000000000000000, 1.250000000000000000, 3.061616997868385483E-17 ) ) ;
#103 = ORIENTED_EDGE ( 'NONE', *, *, #184, .T. ) ;
#104 = LINE ( 'NONE', #239, #138 ) ;
#105 = ORIENTED_EDGE ( 'NONE', *, *, #51, .T. ) ;
#106 = EDGE_CURVE ( 'NONE', #191, #133, #73, .T. ) ;
#107 = DIRECTION ( 'NONE',  ( -1.000000000000000000, 0.000000000000000000, 0.000000000000000000 ) ) ;
#108 = AXIS2_PLACEMENT_3D ( 'NONE', #65, #222, #271 ) ;
#109 = PRESENTATION_LAYER_ASSIGNMENT (  '', '', ( #251 ) ) ;
#110 = DIRECTION ( 'NONE',  ( -1.000000000000000000, 0.000000000000000000, 0.000000000000000000 ) ) ;
#111 = VERTEX_POINT ( 'NONE', #102 ) ;
#112 = ORIENTED_EDGE ( 'NONE', *, *, #200, .F. ) ;
#113 = UNCERTAINTY_MEASURE_WITH_UNIT (LENGTH_MEASURE( 1.000000000000000082E-05 ), #56, 'distance_accuracy_value', 'NONE');
#114 = FILL_AREA_STYLE_COLOUR ( '', #238 ) ;
#115 =( NAMED_UNIT ( * ) SI_UNIT ( $, .STERADIAN. ) SOLID_ANGLE_UNIT ( ) );
#116 =( NAMED_UNIT ( * ) PLANE_ANGLE_UNIT ( ) SI_UNIT ( $, .RADIAN. ) );
#117 = FILL_AREA_STYLE_COLOUR ( '', #229 ) ;
#118 = ADVANCED_FACE ( 'NONE', ( #205 ), #305, .T. ) ;
#119 = CARTESIAN_POINT ( 'NONE',  ( 3.061616997868383018E-17, 0.000000000000000000, 0.2500000000000000000 ) ) ;
#120 = CIRCLE ( 'NONE', #265, 0.2500000000000002220 ) ;
#121 = UNCERTAINTY_MEASURE_WITH_UNIT (LENGTH_MEASURE( 1.000000000000000082E-05 ), #90, 'distance_accuracy_value', 'NONE');
#122 = SURFACE_SIDE_STYLE ('',( #279 ) ) ;
#123 = ADVANCED_FACE ( 'NONE', ( #147 ), #283, .T. ) ;
#124 = SURFACE_STYLE_USAGE ( .BOTH. , #276 ) ;
#125 =( CONVERSION_BASED_UNIT ( 'INCH', #69 ) LENGTH_UNIT ( ) NAMED_UNIT ( #252 ) );
#126 = LENGTH_MEASURE_WITH_UNIT ( LENGTH_MEASURE( 0.02539999999999999897 ), #236 );
#127 = ORIENTED_EDGE ( 'NONE', *, *, #165, .F. ) ;
#128 = EDGE_LOOP ( 'NONE', ( #1, #74, #79, #112 ) ) ;
#129 = ORIENTED_EDGE ( 'NONE', *, *, #213, .F. ) ;
#130 = DIRECTION ( 'NONE',  ( -5.156407575357278997E-17, 1.000000000000000000, -0.000000000000000000 ) ) ;
#131 = AXIS2_PLACEMENT_3D ( 'NONE', #26, #234, #107 ) ;
#132 = PRESENTATION_STYLE_ASSIGNMENT (( #59 ) ) ;
#133 = VERTEX_POINT ( 'NONE', #208 ) ;
#134 = LINE ( 'NONE', #119, #296 ) ;
#135 = FILL_AREA_STYLE_COLOUR ( '', #20 ) ;
#136 = ORIENTED_EDGE ( 'NONE', *, *, #91, .F. ) ;
#137 = ADVANCED_FACE ( 'NONE', ( #258 ), #144, .F. ) ;
#138 = VECTOR ( 'NONE', #185, 39.37007874015748143 ) ;
#139 =( NAMED_UNIT ( * ) PLANE_ANGLE_UNIT ( ) SI_UNIT ( $, .RADIAN. ) );
#140 = DIRECTION ( 'NONE',  ( 0.000000000000000000, 0.000000000000000000, -1.000000000000000000 ) ) ;
#141 = ADVANCED_FACE ( 'NONE', ( #187 ), #289, .F. ) ;
#142 = DIRECTION ( 'NONE',  ( 0.000000000000000000, 1.000000000000000000, 0.000000000000000000 ) ) ;
#143 = ORIENTED_EDGE ( 'NONE', *, *, #306, .T. ) ;
#144 = PLANE ( 'NONE',  #199 ) ;
#145 = CARTESIAN_POINT ( 'NONE',  ( 0.000000000000000000, 0.000000000000000000, 0.000000000000000000 ) ) ;
#146 = DIRECTION ( 'NONE',  ( 0.000000000000000000, -1.000000000000000000, -0.000000000000000000 ) ) ;
#147 = FACE_OUTER_BOUND ( 'NONE', #164, .T. ) ;
#148 = EDGE_LOOP ( 'NONE', ( #173, #6, #22, #290 ) ) ;
#149 = PRESENTATION_LAYER_ASSIGNMENT (  '', '', ( #31 ) ) ;
#150 = APPLICATION_CONTEXT ( 'automotive_design' ) ;
#151 = CARTESIAN_POINT ( 'NONE',  ( 3.061616997868383018E-17, 1.250000000000000000, 0.2500000000000000000 ) ) ;
#152 = DIRECTION ( 'NONE',  ( -5.156407575357278997E-17, 1.000000000000000000, -0.000000000000000000 ) ) ;
#153 = UNCERTAINTY_MEASURE_WITH_UNIT (LENGTH_MEASURE( 1.000000000000000082E-05 ), #60, 'distance_accuracy_value', 'NONE');
#154 = DIRECTION ( 'NONE',  ( 0.000000000000000000, 0.000000000000000000, 1.000000000000000000 ) ) ;
#155 = CARTESIAN_POINT ( 'NONE',  ( 0.000000000000000000, 1.250000000000000000, 0.000000000000000000 ) ) ;
#156 = SURFACE_SIDE_STYLE ('',( #295 ) ) ;
#157 = SURFACE_SIDE_STYLE ('',( #273 ) ) ;
#158 = DIRECTION ( 'NONE',  ( -5.156407575357278381E-17, 1.000000000000000000, -0.000000000000000000 ) ) ;
#159 = AXIS2_PLACEMENT_3D ( 'NONE', #52, #163, #170 ) ;
#160 =( NAMED_UNIT ( * ) SI_UNIT ( $, .STERADIAN. ) SOLID_ANGLE_UNIT ( ) );
#161 = EDGE_CURVE ( 'NONE', #285, #263, #104, .T. ) ;
#162 = STYLED_ITEM ( 'NONE', ( #35 ), #58 ) ;
#163 = DIRECTION ( 'NONE',  ( -0.000000000000000000, -1.000000000000000000, -0.000000000000000000 ) ) ;
#164 = EDGE_LOOP ( 'NONE', ( #136, #129 ) ) ;
#165 = EDGE_CURVE ( 'NONE', #133, #288, #54, .T. ) ;
#166 = SURFACE_STYLE_FILL_AREA ( #45 ) ;
#167 = DIRECTION ( 'NONE',  ( -0.000000000000000000, -1.000000000000000000, -0.000000000000000000 ) ) ;
#168 = PRODUCT_RELATED_PRODUCT_CATEGORY ( 'part', '', ( #86 ) ) ;
#169 = SURFACE_STYLE_USAGE ( .BOTH. , #157 ) ;
#170 = DIRECTION ( 'NONE',  ( 0.000000000000000000, 0.000000000000000000, -1.000000000000000000 ) ) ;
#171 = CARTESIAN_POINT ( 'NONE',  ( 0.2500000000000000000, 6.000000000000000888, 3.061616997868385483E-17 ) ) ;
#172 = DIRECTION ( 'NONE',  ( -0.000000000000000000, -1.000000000000000000, -0.000000000000000000 ) ) ;
#173 = ORIENTED_EDGE ( 'NONE', *, *, #51, .F. ) ;
#174 = AXIS2_PLACEMENT_3D ( 'NONE', #210, #142, #72 ) ;
#175 = LENGTH_MEASURE_WITH_UNIT ( LENGTH_MEASURE( 0.02539999999999999897 ), #293 );
#176 = SURFACE_STYLE_USAGE ( .BOTH. , #33 ) ;
#177 = PRESENTATION_STYLE_ASSIGNMENT (( #68 ) ) ;
#178 = AXIS2_PLACEMENT_3D ( 'NONE', #300, #280, #140 ) ;
#179 =( NAMED_UNIT ( * ) PLANE_ANGLE_UNIT ( ) SI_UNIT ( $, .RADIAN. ) );
#180 = DIMENSIONAL_EXPONENTS ( 1.000000000000000000, 0.000000000000000000, 0.000000000000000000, 0.000000000000000000, 0.000000000000000000, 0.000000000000000000, 0.000000000000000000 ) ;
#181 = LENGTH_MEASURE_WITH_UNIT ( LENGTH_MEASURE( 0.02539999999999999897 ), #250 );
#182 = COLOUR_RGB ( '',1.000000000000000000, 0.000000000000000000, 0.000000000000000000 ) ;
#183 = AXIS2_PLACEMENT_3D ( 'NONE', #29, #194, #32 ) ;
#184 = EDGE_CURVE ( 'NONE', #285, #111, #209, .T. ) ;
#185 = DIRECTION ( 'NONE',  ( -5.156407575357278381E-17, 1.000000000000000000, -0.000000000000000000 ) ) ;
#186 = VECTOR ( 'NONE', #99, 39.37007874015748143 ) ;
#187 = FACE_OUTER_BOUND ( 'NONE', #237, .T. ) ;
#188 = ORIENTED_EDGE ( 'NONE', *, *, #82, .T. ) ;
#189 = PRESENTATION_STYLE_ASSIGNMENT (( #262 ) ) ;
#190 = ORIENTED_EDGE ( 'NONE', *, *, #267, .T. ) ;
#191 = VERTEX_POINT ( 'NONE', #302 ) ;
#192 = AXIS2_PLACEMENT_3D ( 'NONE', #39, #154, #246 ) ;
#193 = DIRECTION ( 'NONE',  ( -0.000000000000000000, -1.000000000000000000, -0.000000000000000000 ) ) ;
#194 = DIRECTION ( 'NONE',  ( -0.000000000000000000, -1.000000000000000000, -0.000000000000000000 ) ) ;
#195 = PRODUCT_DEFINITION_CONTEXT ( 'detailed design', #150, 'design' ) ;
#196 = FILL_AREA_STYLE ('',( #114 ) ) ;
#197 =( NAMED_UNIT ( * ) PLANE_ANGLE_UNIT ( ) SI_UNIT ( $, .RADIAN. ) );
#198 = CLOSED_SHELL ( 'NONE', ( #76, #123, #57, #101 ) ) ;
#199 = AXIS2_PLACEMENT_3D ( 'NONE', #206, #231, #307 ) ;
#200 = EDGE_CURVE ( 'NONE', #28, #263, #120, .T. ) ;
#201 = EDGE_LOOP ( 'NONE', ( #8, #143 ) ) ;
#202 = MECHANICAL_DESIGN_GEOMETRIC_PRESENTATION_REPRESENTATION (  '', ( #70 ), #303 ) ;
#203 = DIRECTION ( 'NONE',  ( 0.000000000000000000, 0.000000000000000000, -1.000000000000000000 ) ) ;
#204 = DIRECTION ( 'NONE',  ( -5.156407575357278381E-17, 1.000000000000000000, 0.000000000000000000 ) ) ;
#205 = FACE_OUTER_BOUND ( 'NONE', #53, .T. ) ;
#206 = CARTESIAN_POINT ( 'NONE',  ( 0.2500000000000000000, 6.000000000000000888, 0.000000000000000000 ) ) ;
#207 = ORIENTED_EDGE ( 'NONE', *, *, #267, .F. ) ;
#208 = CARTESIAN_POINT ( 'NONE',  ( 0.000000000000000000, 0.000000000000000000, -0.2500000000000000000 ) ) ;
#209 = CIRCLE ( 'NONE', #131, 0.2500000000000000000 ) ;
#210 = CARTESIAN_POINT ( 'NONE',  ( 0.000000000000000000, 1.250000000000000000, 0.000000000000000000 ) ) ;
#211 = CARTESIAN_POINT ( 'NONE',  ( -0.2500000000000000000, 1.250000000000000000, 0.000000000000000000 ) ) ;
#212 = ORIENTED_EDGE ( 'NONE', *, *, #184, .F. ) ;
#213 = EDGE_CURVE ( 'NONE', #4, #191, #291, .T. ) ;
#214 = EDGE_LOOP ( 'NONE', ( #190, #235 ) ) ;
#215 = MECHANICAL_DESIGN_GEOMETRIC_PRESENTATION_REPRESENTATION (  '', ( #162 ), #260 ) ;
#216 = FACE_OUTER_BOUND ( 'NONE', #128, .T. ) ;
#217 = DIRECTION ( 'NONE',  ( -1.000000000000000000, 0.000000000000000000, 0.000000000000000000 ) ) ;
#218 = DIRECTION ( 'NONE',  ( -1.000000000000000000, 0.000000000000000000, 0.000000000000000000 ) ) ;
#219 = LENGTH_MEASURE_WITH_UNIT ( LENGTH_MEASURE( 0.02539999999999999897 ), #62 );
#220 = PRODUCT_DEFINITION_FORMATION_WITH_SPECIFIED_SOURCE ( 'ANY', '', #86, .NOT_KNOWN. ) ;
#221 = SHAPE_DEFINITION_REPRESENTATION ( #63, #270 ) ;
#222 = DIRECTION ( 'NONE',  ( -5.156407575357278997E-17, 1.000000000000000000, -0.000000000000000000 ) ) ;
#223 = CIRCLE ( 'NONE', #15, 0.2500000000000000000 ) ;
#224 = AXIS2_PLACEMENT_3D ( 'NONE', #245, #172, #242 ) ;
#225 = DIMENSIONAL_EXPONENTS ( 1.000000000000000000, 0.000000000000000000, 0.000000000000000000, 0.000000000000000000, 0.000000000000000000, 0.000000000000000000, 0.000000000000000000 ) ;
#226 = PLANE ( 'NONE',  #272 ) ;
#227 = FILL_AREA_STYLE_COLOUR ( '', #9 ) ;
#228 = LINE ( 'NONE', #18, #81 ) ;
#229 = COLOUR_RGB ( '',1.000000000000000000, 0.000000000000000000, 0.000000000000000000 ) ;
#230 = CIRCLE ( 'NONE', #286, 0.2500000000000002220 ) ;
#231 = DIRECTION ( 'NONE',  ( 5.156407575357278381E-17, -1.000000000000000000, 0.000000000000000000 ) ) ;
#232 = ORIENTED_EDGE ( 'NONE', *, *, #91, .T. ) ;
#233 =( GEOMETRIC_REPRESENTATION_CONTEXT ( 3 ) GLOBAL_UNCERTAINTY_ASSIGNED_CONTEXT ( ( #97 ) ) GLOBAL_UNIT_ASSIGNED_CONTEXT ( ( #44, #139, #93 ) ) REPRESENTATION_CONTEXT ( 'NONE', 'WORKASPACE' ) );
#234 = DIRECTION ( 'NONE',  ( -5.156407575357278997E-17, 1.000000000000000000, -0.000000000000000000 ) ) ;
#235 = ORIENTED_EDGE ( 'NONE', *, *, #200, .T. ) ;
#236 =( LENGTH_UNIT ( ) NAMED_UNIT ( * ) SI_UNIT ( $, .METRE. ) );
#237 = EDGE_LOOP ( 'NONE', ( #212, #25 ) ) ;
#238 = COLOUR_RGB ( '',0.7921568627450980005, 0.8196078431372548767, 0.9333333333333333481 ) ;
#239 = CARTESIAN_POINT ( 'NONE',  ( -0.2500000000000003886, 6.000000000000000888, 0.000000000000000000 ) ) ;
#240 = MECHANICAL_DESIGN_GEOMETRIC_PRESENTATION_REPRESENTATION (  '', ( #83 ), #304 ) ;
#241 = CARTESIAN_POINT ( 'NONE',  ( -2.449293598294707400E-16, 6.000000000000000888, 0.000000000000000000 ) ) ;
#242 = DIRECTION ( 'NONE',  ( 0.000000000000000000, 0.000000000000000000, -1.000000000000000000 ) ) ;
#243 = FILL_AREA_STYLE ('',( #117 ) ) ;
#244 = PRODUCT_CONTEXT ( 'NONE', #48, 'mechanical' ) ;
#245 = CARTESIAN_POINT ( 'NONE',  ( 0.000000000000000000, 0.000000000000000000, 0.000000000000000000 ) ) ;
#246 = DIRECTION ( 'NONE',  ( 1.000000000000000000, 0.000000000000000000, 0.000000000000000000 ) ) ;
#247 = LENGTH_MEASURE_WITH_UNIT ( LENGTH_MEASURE( 0.02539999999999999897 ), #34 );
#248 = CYLINDRICAL_SURFACE ( 'NONE', #108, 0.2500000000000001110 ) ;
#249 = UNCERTAINTY_MEASURE_WITH_UNIT (LENGTH_MEASURE( 1.000000000000000082E-05 ), #274, 'distance_accuracy_value', 'NONE');
#250 =( LENGTH_UNIT ( ) NAMED_UNIT ( * ) SI_UNIT ( $, .METRE. ) );
#251 = STYLED_ITEM ( 'NONE', ( #67 ), #101 ) ;
#252 = DIMENSIONAL_EXPONENTS ( 1.000000000000000000, 0.000000000000000000, 0.000000000000000000, 0.000000000000000000, 0.000000000000000000, 0.000000000000000000, 0.000000000000000000 ) ;
#253 = FACE_OUTER_BOUND ( 'NONE', #201, .T. ) ;
#254 =( NAMED_UNIT ( * ) PLANE_ANGLE_UNIT ( ) SI_UNIT ( $, .RADIAN. ) );
#255 = MECHANICAL_DESIGN_GEOMETRIC_PRESENTATION_REPRESENTATION (  '', ( #251 ), #233 ) ;
#256 = EDGE_LOOP ( 'NONE', ( #232, #105, #127, #80 ) ) ;
#257 = MANIFOLD_SOLID_BREP ( 'Revolve - Tool Body (Straight Shanked)', #259 ) ;
#258 = FACE_OUTER_BOUND ( 'NONE', #214, .T. ) ;
#259 = CLOSED_SHELL ( 'NONE', ( #118, #141, #7, #137 ) ) ;
#260 =( GEOMETRIC_REPRESENTATION_CONTEXT ( 3 ) GLOBAL_UNCERTAINTY_ASSIGNED_CONTEXT ( ( #249 ) ) GLOBAL_UNIT_ASSIGNED_CONTEXT ( ( #274, #179, #12 ) ) REPRESENTATION_CONTEXT ( 'NONE', 'WORKASPACE' ) );
#261 = DIRECTION ( 'NONE',  ( -1.000000000000000000, 0.000000000000000000, 0.000000000000000000 ) ) ;
#262 = SURFACE_STYLE_USAGE ( .BOTH. , #284 ) ;
#263 = VERTEX_POINT ( 'NONE', #61 ) ;
#264 = DIRECTION ( 'NONE',  ( 0.000000000000000000, 0.000000000000000000, -1.000000000000000000 ) ) ;
#265 = AXIS2_PLACEMENT_3D ( 'NONE', #77, #130, #110 ) ;
#266 = PRESENTATION_LAYER_ASSIGNMENT (  '', '', ( #70 ) ) ;
#267 = EDGE_CURVE ( 'NONE', #263, #28, #230, .T. ) ;
#268 = FILL_AREA_STYLE ('',( #135 ) ) ;
#269 = CYLINDRICAL_SURFACE ( 'NONE', #224, 0.2500000000000000000 ) ;
#270 = ADVANCED_BREP_SHAPE_REPRESENTATION ( '82946', ( #58, #257, #192 ), #55 ) ;
#271 = DIRECTION ( 'NONE',  ( -1.000000000000000000, 0.000000000000000000, 0.000000000000000000 ) ) ;
#272 = AXIS2_PLACEMENT_3D ( 'NONE', #95, #146, #78 ) ;
#273 = SURFACE_STYLE_FILL_AREA ( #243 ) ;
#274 =( CONVERSION_BASED_UNIT ( 'INCH', #298 ) LENGTH_UNIT ( ) NAMED_UNIT ( #225 ) );
#275 =( LENGTH_UNIT ( ) NAMED_UNIT ( * ) SI_UNIT ( $, .METRE. ) );
#276 = SURFACE_SIDE_STYLE ('',( #42 ) ) ;
#277 =( GEOMETRIC_REPRESENTATION_CONTEXT ( 3 ) GLOBAL_UNCERTAINTY_ASSIGNED_CONTEXT ( ( #10 ) ) GLOBAL_UNIT_ASSIGNED_CONTEXT ( ( #125, #254, #160 ) ) REPRESENTATION_CONTEXT ( 'NONE', 'WORKASPACE' ) );
#278 = DIRECTION ( 'NONE',  ( -0.000000000000000000, -1.000000000000000000, -0.000000000000000000 ) ) ;
#279 = SURFACE_STYLE_FILL_AREA ( #96 ) ;
#280 = DIRECTION ( 'NONE',  ( -0.000000000000000000, -1.000000000000000000, -0.000000000000000000 ) ) ;
#281 = PRESENTATION_LAYER_ASSIGNMENT (  '', '', ( #162 ) ) ;
#282 = PRESENTATION_LAYER_ASSIGNMENT (  '', '', ( #83 ) ) ;
#283 = PLANE ( 'NONE',  #174 ) ;
#284 = SURFACE_SIDE_STYLE ('',( #166 ) ) ;
#285 = VERTEX_POINT ( 'NONE', #211 ) ;
#286 = AXIS2_PLACEMENT_3D ( 'NONE', #241, #152, #218 ) ;
#287 =( NAMED_UNIT ( * ) PLANE_ANGLE_UNIT ( ) SI_UNIT ( $, .RADIAN. ) );
#288 = VERTEX_POINT ( 'NONE', #87 ) ;
#289 = PLANE ( 'NONE',  #98 ) ;
#290 = ORIENTED_EDGE ( 'NONE', *, *, #306, .F. ) ;
#291 = CIRCLE ( 'NONE', #159, 0.2500000000000000000 ) ;
#292 =( NAMED_UNIT ( * ) SI_UNIT ( $, .STERADIAN. ) SOLID_ANGLE_UNIT ( ) );
#293 =( LENGTH_UNIT ( ) NAMED_UNIT ( * ) SI_UNIT ( $, .METRE. ) );
#294 = SURFACE_STYLE_FILL_AREA ( #196 ) ;
#295 = SURFACE_STYLE_FILL_AREA ( #268 ) ;
#296 = VECTOR ( 'NONE', #193, 39.37007874015748143 ) ;
#297 = AXIS2_PLACEMENT_3D ( 'NONE', #66, #278, #203 ) ;
#298 = LENGTH_MEASURE_WITH_UNIT ( LENGTH_MEASURE( 0.02539999999999999897 ), #85 );
#299 = DIMENSIONAL_EXPONENTS ( 1.000000000000000000, 0.000000000000000000, 0.000000000000000000, 0.000000000000000000, 0.000000000000000000, 0.000000000000000000, 0.000000000000000000 ) ;
#300 = CARTESIAN_POINT ( 'NONE',  ( 0.000000000000000000, 1.250000000000000000, 0.000000000000000000 ) ) ;
#301 = DIMENSIONAL_EXPONENTS ( 1.000000000000000000, 0.000000000000000000, 0.000000000000000000, 0.000000000000000000, 0.000000000000000000, 0.000000000000000000, 0.000000000000000000 ) ;
#302 = CARTESIAN_POINT ( 'NONE',  ( 0.000000000000000000, 1.250000000000000000, -0.2500000000000000000 ) ) ;
#303 =( GEOMETRIC_REPRESENTATION_CONTEXT ( 3 ) GLOBAL_UNCERTAINTY_ASSIGNED_CONTEXT ( ( #153 ) ) GLOBAL_UNIT_ASSIGNED_CONTEXT ( ( #60, #197, #115 ) ) REPRESENTATION_CONTEXT ( 'NONE', 'WORKASPACE' ) );
#304 =( GEOMETRIC_REPRESENTATION_CONTEXT ( 3 ) GLOBAL_UNCERTAINTY_ASSIGNED_CONTEXT ( ( #121 ) ) GLOBAL_UNIT_ASSIGNED_CONTEXT ( ( #90, #116, #84 ) ) REPRESENTATION_CONTEXT ( 'NONE', 'WORKASPACE' ) );
#305 = CYLINDRICAL_SURFACE ( 'NONE', #27, 0.2500000000000001110 ) ;
#306 = EDGE_CURVE ( 'NONE', #288, #133, #38, .T. ) ;
#307 = DIRECTION ( 'NONE',  ( 1.000000000000000000, 5.156407575357278381E-17, 0.000000000000000000 ) ) ;
#308 = DIRECTION ( 'NONE',  ( -5.156407575357278997E-17, 1.000000000000000000, -0.000000000000000000 ) ) ;
#309 = COLOUR_RGB ( '',1.000000000000000000, 0.000000000000000000, 0.000000000000000000 ) ;
ENDSEC;
END-ISO-10303-21;
