ISO-10303-21;
HEADER;
FILE_DESCRIPTION (( 'STEP AP214' ),
    '1' );
FILE_NAME ('Micro_GEM-750-2.STEP',
    '2021-09-01T21:02:18',
    ( '' ),
    ( '' ),
    'SwSTEP 2.0',
    'SolidWorks 2020',
    '' );
FILE_SCHEMA (( 'AUTOMOTIVE_DESIGN' ));
ENDSEC;

DATA;
#1 = EDGE_LOOP ( 'NONE', ( #24, #147, #153, #182 ) ) ;
#2 = CARTESIAN_POINT ( 'NONE',  ( 1.836970198721030181E-16, 0.0000000000000000000, 1.500000000000000222 ) ) ;
#3 = AXIS2_PLACEMENT_3D ( 'NONE', #274, #92, #88 ) ;
#4 = CARTESIAN_POINT ( 'NONE',  ( 0.3750000000000000555, 4.592425496802575451E-17, 3.984999999999998987 ) ) ;
#5 = CARTESIAN_POINT ( 'NONE',  ( -0.3750000000000000555, 0.0000000000000000000, 4.000000000000000000 ) ) ;
#6 = CARTESIAN_POINT ( 'NONE',  ( 0.0000000000000000000, 0.0000000000000000000, 3.984999999999998987 ) ) ;
#7 = DIRECTION ( 'NONE',  ( 1.000000000000000000, 0.0000000000000000000, -0.0000000000000000000 ) ) ;
#8 = CARTESIAN_POINT ( 'NONE',  ( 1.836970198721030181E-16, 0.0000000000000000000, 1.500000000000000222 ) ) ;
#9 = DIRECTION ( 'NONE',  ( 1.000000000000000000, 0.0000000000000000000, 0.0000000000000000000 ) ) ;
#10 = VECTOR ( 'NONE', #223, 39.37007874015748143 ) ;
#11 = ORIENTED_EDGE ( 'NONE', *, *, #200, .F. ) ;
#12 = ADVANCED_FACE ( 'NONE', ( #254 ), #22, .T. ) ;
#13 =( NAMED_UNIT ( * ) PLANE_ANGLE_UNIT ( ) SI_UNIT ( $, .RADIAN. ) );
#14 = ORIENTED_EDGE ( 'NONE', *, *, #112, .T. ) ;
#15 = LENGTH_MEASURE_WITH_UNIT ( LENGTH_MEASURE( 0.02539999999999999897 ), #151 );
#16 = EDGE_CURVE ( 'NONE', #222, #102, #121, .T. ) ;
#17 = CIRCLE ( 'NONE', #164, 0.3746249999999999858 ) ;
#18 = EDGE_LOOP ( 'NONE', ( #35, #109, #59, #243 ) ) ;
#19 = ORIENTED_EDGE ( 'NONE', *, *, #271, .T. ) ;
#20 = LINE ( 'NONE', #5, #230 ) ;
#21 = VECTOR ( 'NONE', #258, 39.37007874015747433 ) ;
#22 = CYLINDRICAL_SURFACE ( 'NONE', #3, 0.3750000000000000555 ) ;
#23 = ADVANCED_FACE ( 'NONE', ( #188 ), #298, .T. ) ;
#24 = ORIENTED_EDGE ( 'NONE', *, *, #234, .T. ) ;
#25 = PRODUCT_DEFINITION_FORMATION_WITH_SPECIFIED_SOURCE ( 'ANY', '', #240, .NOT_KNOWN. ) ;
#26 = CARTESIAN_POINT ( 'NONE',  ( 0.3746249999999999858, 4.587833071305771192E-17, -4.587833071305771192E-17 ) ) ;
#27 = DIRECTION ( 'NONE',  ( 0.7071067811865426878, 8.659560562354873694E-17, -0.7071067811865523467 ) ) ;
#28 = DIRECTION ( 'NONE',  ( 1.000000000000000000, 0.0000000000000000000, 0.0000000000000000000 ) ) ;
#29 = STYLED_ITEM ( 'NONE', ( #227 ), #86 ) ;
#30 = CARTESIAN_POINT ( 'NONE',  ( 0.0000000000000000000, 0.0000000000000000000, 4.000000000000000000 ) ) ;
#31 = ADVANCED_FACE ( 'NONE', ( #90 ), #250, .T. ) ;
#32 = DIRECTION ( 'NONE',  ( -1.000000000000000000, 0.0000000000000000000, 0.0000000000000000000 ) ) ;
#33 = CIRCLE ( 'NONE', #288, 0.3746250000000000413 ) ;
#34 =( NAMED_UNIT ( * ) SI_UNIT ( $, .STERADIAN. ) SOLID_ANGLE_UNIT ( ) );
#35 = ORIENTED_EDGE ( 'NONE', *, *, #16, .F. ) ;
#36 = EDGE_CURVE ( 'NONE', #107, #264, #39, .T. ) ;
#37 = SURFACE_STYLE_FILL_AREA ( #244 ) ;
#38 = VERTEX_POINT ( 'NONE', #224 ) ;
#39 = CIRCLE ( 'NONE', #79, 0.3746249999999999858 ) ;
#40 = SURFACE_STYLE_FILL_AREA ( #158 ) ;
#41 = DIRECTION ( 'NONE',  ( -1.000000000000000000, 0.0000000000000000000, 0.0000000000000000000 ) ) ;
#42 = EDGE_CURVE ( 'NONE', #178, #82, #115, .T. ) ;
#43 = DIRECTION ( 'NONE',  ( -1.224646799147353207E-16, -0.0000000000000000000, -1.000000000000000000 ) ) ;
#44 = STYLED_ITEM ( 'NONE', ( #126 ), #184 ) ;
#45 = DIRECTION ( 'NONE',  ( -1.000000000000000000, 0.0000000000000000000, 1.224646799147352961E-16 ) ) ;
#46 = ORIENTED_EDGE ( 'NONE', *, *, #225, .F. ) ;
#47 = CARTESIAN_POINT ( 'NONE',  ( 0.3746250000000002633, 0.0000000000000000000, 1.500000000000000222 ) ) ;
#48 = MECHANICAL_DESIGN_GEOMETRIC_PRESENTATION_REPRESENTATION (  '', ( #29 ), #218 ) ;
#49 = LINE ( 'NONE', #140, #83 ) ;
#50 = DIMENSIONAL_EXPONENTS ( 1.000000000000000000, 0.0000000000000000000, 0.0000000000000000000, 0.0000000000000000000, 0.0000000000000000000, 0.0000000000000000000, 0.0000000000000000000 ) ;
#51 = DIRECTION ( 'NONE',  ( -1.000000000000000000, 0.0000000000000000000, 0.0000000000000000000 ) ) ;
#52 = DIRECTION ( 'NONE',  ( 0.1736481776669314137, 0.0000000000000000000, 0.9848077530122077983 ) ) ;
#53 = LINE ( 'NONE', #47, #150 ) ;
#54 = PRODUCT_RELATED_PRODUCT_CATEGORY ( 'part', '', ( #240 ) ) ;
#55 = ORIENTED_EDGE ( 'NONE', *, *, #290, .T. ) ;
#56 = ORIENTED_EDGE ( 'NONE', *, *, #78, .F. ) ;
#57 =( GEOMETRIC_REPRESENTATION_CONTEXT ( 3 ) GLOBAL_UNCERTAINTY_ASSIGNED_CONTEXT ( ( #94 ) ) GLOBAL_UNIT_ASSIGNED_CONTEXT ( ( #60, #13, #34 ) ) REPRESENTATION_CONTEXT ( 'NONE', 'WORKASPACE' ) );
#58 = FILL_AREA_STYLE_COLOUR ( '', #179 ) ;
#59 = ORIENTED_EDGE ( 'NONE', *, *, #234, .F. ) ;
#60 =( CONVERSION_BASED_UNIT ( 'INCH', #15 ) LENGTH_UNIT ( ) NAMED_UNIT ( #50 ) );
#61 = EDGE_LOOP ( 'NONE', ( #156, #55 ) ) ;
#62 = AXIS2_PLACEMENT_3D ( 'NONE', #70, #249, #41 ) ;
#63 = AXIS2_PLACEMENT_3D ( 'NONE', #233, #74, #9 ) ;
#64 = CARTESIAN_POINT ( 'NONE',  ( 0.0000000000000000000, 0.0000000000000000000, 4.000000000000000000 ) ) ;
#65 = CARTESIAN_POINT ( 'NONE',  ( 1.839574692643826673E-16, 0.0000000000000000000, 1.502126730682356914 ) ) ;
#66 = SURFACE_SIDE_STYLE ('',( #40 ) ) ;
#67 =( CONVERSION_BASED_UNIT ( 'INCH', #130 ) LENGTH_UNIT ( ) NAMED_UNIT ( #172 ) );
#68 = AXIS2_PLACEMENT_3D ( 'NONE', #105, #239, #85 ) ;
#69 = ADVANCED_FACE ( 'NONE', ( #208 ), #260, .T. ) ;
#70 = CARTESIAN_POINT ( 'NONE',  ( 1.836970198721030181E-16, 0.0000000000000000000, 1.500000000000000222 ) ) ;
#71 = DIRECTION ( 'NONE',  ( 0.0000000000000000000, 0.0000000000000000000, -1.000000000000000000 ) ) ;
#72 = DIRECTION ( 'NONE',  ( -0.7071067811865426878, 0.0000000000000000000, -0.7071067811865523467 ) ) ;
#73 = CONICAL_SURFACE ( 'NONE', #256, 0.3599999999999994316, 0.7853981633974415066 ) ;
#74 = DIRECTION ( 'NONE',  ( -1.224646799147353207E-16, -0.0000000000000000000, -1.000000000000000000 ) ) ;
#75 = FACE_OUTER_BOUND ( 'NONE', #103, .T. ) ;
#76 = EDGE_CURVE ( 'NONE', #246, #38, #185, .T. ) ;
#77 = DIRECTION ( 'NONE',  ( 1.000000000000000000, 0.0000000000000000000, 0.0000000000000000000 ) ) ;
#78 = EDGE_CURVE ( 'NONE', #246, #107, #159, .T. ) ;
#79 = AXIS2_PLACEMENT_3D ( 'NONE', #186, #43, #277 ) ;
#80 = AXIS2_PLACEMENT_3D ( 'NONE', #209, #232, #28 ) ;
#81 = ORIENTED_EDGE ( 'NONE', *, *, #136, .F. ) ;
#82 = VERTEX_POINT ( 'NONE', #207 ) ;
#83 = VECTOR ( 'NONE', #27, 39.37007874015748143 ) ;
#84 =( LENGTH_UNIT ( ) NAMED_UNIT ( * ) SI_UNIT ( $, .METRE. ) );
#85 = DIRECTION ( 'NONE',  ( 1.000000000000000000, 0.0000000000000000000, 0.0000000000000000000 ) ) ;
#86 = MANIFOLD_SOLID_BREP ( 'Cut-Revolve1', #167 ) ;
#87 = VERTEX_POINT ( 'NONE', #210 ) ;
#88 = DIRECTION ( 'NONE',  ( -1.000000000000000000, 0.0000000000000000000, 0.0000000000000000000 ) ) ;
#89 = AXIS2_PLACEMENT_3D ( 'NONE', #93, #235, #51 ) ;
#90 = FACE_OUTER_BOUND ( 'NONE', #183, .T. ) ;
#91 =( NAMED_UNIT ( * ) PLANE_ANGLE_UNIT ( ) SI_UNIT ( $, .RADIAN. ) );
#92 = DIRECTION ( 'NONE',  ( -0.0000000000000000000, -0.0000000000000000000, -1.000000000000000000 ) ) ;
#93 = CARTESIAN_POINT ( 'NONE',  ( 0.0000000000000000000, 0.0000000000000000000, 4.000000000000000000 ) ) ;
#94 = UNCERTAINTY_MEASURE_WITH_UNIT (LENGTH_MEASURE( 1.000000000000000082E-05 ), #60, 'distance_accuracy_value', 'NONE');
#95 = CARTESIAN_POINT ( 'NONE',  ( 0.3750000000000000555, 4.592425496802575451E-17, 4.000000000000000000 ) ) ;
#96 = CARTESIAN_POINT ( 'NONE',  ( 0.3746249999999999858, 4.587833071305771192E-17, 0.0000000000000000000 ) ) ;
#97 = AXIS2_PLACEMENT_3D ( 'NONE', #6, #285, #77 ) ;
#98 = DIRECTION ( 'NONE',  ( -0.0000000000000000000, -0.0000000000000000000, -1.000000000000000000 ) ) ;
#99 = DIRECTION ( 'NONE',  ( -1.000000000000000000, 0.0000000000000000000, 0.0000000000000000000 ) ) ;
#100 = CARTESIAN_POINT ( 'NONE',  ( 0.0000000000000000000, 0.0000000000000000000, 0.0000000000000000000 ) ) ;
#101 = ORIENTED_EDGE ( 'NONE', *, *, #76, .F. ) ;
#102 = VERTEX_POINT ( 'NONE', #284 ) ;
#103 = EDGE_LOOP ( 'NONE', ( #128, #114, #149, #56 ) ) ;
#104 = AXIS2_PLACEMENT_3D ( 'NONE', #253, #113, #229 ) ;
#105 = CARTESIAN_POINT ( 'NONE',  ( 0.0000000000000000000, 0.0000000000000000000, 3.984999999999998987 ) ) ;
#106 = EDGE_CURVE ( 'NONE', #87, #178, #20, .T. ) ;
#107 = VERTEX_POINT ( 'NONE', #255 ) ;
#108 = ADVANCED_FACE ( 'NONE', ( #237 ), #116, .T. ) ;
#109 = ORIENTED_EDGE ( 'NONE', *, *, #225, .T. ) ;
#110 = CONICAL_SURFACE ( 'NONE', #80, 0.3746250000000000413, 0.1745329251994339192 ) ;
#111 = DIRECTION ( 'NONE',  ( 0.0000000000000000000, 0.0000000000000000000, 1.000000000000000000 ) ) ;
#112 = EDGE_CURVE ( 'NONE', #38, #82, #53, .T. ) ;
#113 = DIRECTION ( 'NONE',  ( 0.0000000000000000000, 0.0000000000000000000, 1.000000000000000000 ) ) ;
#114 = ORIENTED_EDGE ( 'NONE', *, *, #191, .T. ) ;
#115 = CIRCLE ( 'NONE', #231, 0.3750000000000000555 ) ;
#116 = CYLINDRICAL_SURFACE ( 'NONE', #89, 0.3750000000000000555 ) ;
#117 = CYLINDRICAL_SURFACE ( 'NONE', #138, 0.3746249999999999858 ) ;
#118 = PRODUCT_DEFINITION ( 'UNKNOWN', '', #25, #131 ) ;
#119 = DIRECTION ( 'NONE',  ( -0.0000000000000000000, -0.0000000000000000000, -1.000000000000000000 ) ) ;
#120 = DIRECTION ( 'NONE',  ( -1.224646799147353207E-16, -0.0000000000000000000, -1.000000000000000000 ) ) ;
#121 = CIRCLE ( 'NONE', #104, 0.3599999999999994316 ) ;
#122 = VECTOR ( 'NONE', #120, 39.37007874015748143 ) ;
#123 = DIRECTION ( 'NONE',  ( -1.000000000000000000, 0.0000000000000000000, 1.224646799147352961E-16 ) ) ;
#124 = ORIENTED_EDGE ( 'NONE', *, *, #200, .T. ) ;
#125 = ORIENTED_EDGE ( 'NONE', *, *, #276, .F. ) ;
#126 = PRESENTATION_STYLE_ASSIGNMENT (( #269 ) ) ;
#127 =( NAMED_UNIT ( * ) SI_UNIT ( $, .STERADIAN. ) SOLID_ANGLE_UNIT ( ) );
#128 = ORIENTED_EDGE ( 'NONE', *, *, #76, .T. ) ;
#129 = ORIENTED_EDGE ( 'NONE', *, *, #276, .T. ) ;
#130 = LENGTH_MEASURE_WITH_UNIT ( LENGTH_MEASURE( 0.02539999999999999897 ), #278 );
#131 = PRODUCT_DEFINITION_CONTEXT ( 'detailed design', #216, 'design' ) ;
#132 = CARTESIAN_POINT ( 'NONE',  ( -0.3746249999999999858, 0.0000000000000000000, 4.587833071305771192E-17 ) ) ;
#133 = VECTOR ( 'NONE', #72, 39.37007874015748143 ) ;
#134 = DIRECTION ( 'NONE',  ( -1.224646799147353207E-16, -0.0000000000000000000, -1.000000000000000000 ) ) ;
#135 = DIRECTION ( 'NONE',  ( 1.000000000000000000, 0.0000000000000000000, -0.0000000000000000000 ) ) ;
#136 = EDGE_CURVE ( 'NONE', #246, #178, #169, .T. ) ;
#137 =( NAMED_UNIT ( * ) SI_UNIT ( $, .STERADIAN. ) SOLID_ANGLE_UNIT ( ) );
#138 = AXIS2_PLACEMENT_3D ( 'NONE', #261, #193, #123 ) ;
#139 = FACE_OUTER_BOUND ( 'NONE', #247, .T. ) ;
#140 = CARTESIAN_POINT ( 'NONE',  ( 0.3599999999999994316, 4.408728476930464865E-17, 4.000000000000000000 ) ) ;
#141 = CARTESIAN_POINT ( 'NONE',  ( 0.0000000000000000000, 0.0000000000000000000, 4.000000000000000000 ) ) ;
#142 = FACE_OUTER_BOUND ( 'NONE', #18, .T. ) ;
#143 = MECHANICAL_DESIGN_GEOMETRIC_PRESENTATION_REPRESENTATION (  '', ( #44 ), #171 ) ;
#144 = FACE_OUTER_BOUND ( 'NONE', #61, .T. ) ;
#145 = ADVANCED_FACE ( 'NONE', ( #144 ), #168, .F. ) ;
#146 =( NAMED_UNIT ( * ) PLANE_ANGLE_UNIT ( ) SI_UNIT ( $, .RADIAN. ) );
#147 = ORIENTED_EDGE ( 'NONE', *, *, #161, .T. ) ;
#148 = DIRECTION ( 'NONE',  ( 0.0000000000000000000, 0.0000000000000000000, -1.000000000000000000 ) ) ;
#149 = ORIENTED_EDGE ( 'NONE', *, *, #36, .F. ) ;
#150 = VECTOR ( 'NONE', #52, 39.37007874015748143 ) ;
#151 =( LENGTH_UNIT ( ) NAMED_UNIT ( * ) SI_UNIT ( $, .METRE. ) );
#152 = PRODUCT_DEFINITION_SHAPE ( 'NONE', 'NONE',  #118 ) ;
#153 = ORIENTED_EDGE ( 'NONE', *, *, #42, .F. ) ;
#154 = FACE_OUTER_BOUND ( 'NONE', #220, .T. ) ;
#155 = VERTEX_POINT ( 'NONE', #4 ) ;
#156 = ORIENTED_EDGE ( 'NONE', *, *, #36, .T. ) ;
#157 = AXIS2_PLACEMENT_3D ( 'NONE', #100, #198, #291 ) ;
#158 = FILL_AREA_STYLE ('',( #206 ) ) ;
#159 = LINE ( 'NONE', #132, #10 ) ;
#160 = CIRCLE ( 'NONE', #252, 0.3599999999999994316 ) ;
#161 = EDGE_CURVE ( 'NONE', #155, #82, #257, .T. ) ;
#162 = APPLICATION_CONTEXT ( 'automotive_design' ) ;
#163 = EDGE_CURVE ( 'NONE', #102, #222, #160, .T. ) ;
#164 = AXIS2_PLACEMENT_3D ( 'NONE', #217, #241, #293 ) ;
#165 = CARTESIAN_POINT ( 'NONE',  ( 0.3599999999999994316, 4.500576986866520466E-17, 4.000000000000000000 ) ) ;
#166 = CARTESIAN_POINT ( 'NONE',  ( 0.0000000000000000000, 0.0000000000000000000, 0.0000000000000000000 ) ) ;
#167 = CLOSED_SHELL ( 'NONE', ( #195, #69, #187, #108, #12, #31, #281, #177, #23, #145 ) ) ;
#168 = PLANE ( 'NONE',  #295 ) ;
#169 = LINE ( 'NONE', #211, #21 ) ;
#170 = AXIS2_PLACEMENT_3D ( 'NONE', #64, #111, #135 ) ;
#171 =( GEOMETRIC_REPRESENTATION_CONTEXT ( 3 ) GLOBAL_UNCERTAINTY_ASSIGNED_CONTEXT ( ( #286 ) ) GLOBAL_UNIT_ASSIGNED_CONTEXT ( ( #173, #146, #127 ) ) REPRESENTATION_CONTEXT ( 'NONE', 'WORKASPACE' ) );
#172 = DIMENSIONAL_EXPONENTS ( 1.000000000000000000, 0.0000000000000000000, 0.0000000000000000000, 0.0000000000000000000, 0.0000000000000000000, 0.0000000000000000000, 0.0000000000000000000 ) ;
#173 =( CONVERSION_BASED_UNIT ( 'INCH', #267 ) LENGTH_UNIT ( ) NAMED_UNIT ( #212 ) );
#174 = ORIENTED_EDGE ( 'NONE', *, *, #215, .T. ) ;
#175 = SHAPE_DEFINITION_REPRESENTATION ( #152, #184 ) ;
#176 = ORIENTED_EDGE ( 'NONE', *, *, #163, .F. ) ;
#177 = ADVANCED_FACE ( 'NONE', ( #139 ), #110, .T. ) ;
#178 = VERTEX_POINT ( 'NONE', #190 ) ;
#179 = COLOUR_RGB ( '',0.7921568627450980005, 0.8196078431372548767, 0.9333333333333333481 ) ;
#180 = SURFACE_SIDE_STYLE ('',( #37 ) ) ;
#181 = ORIENTED_EDGE ( 'NONE', *, *, #191, .F. ) ;
#182 = ORIENTED_EDGE ( 'NONE', *, *, #106, .F. ) ;
#183 = EDGE_LOOP ( 'NONE', ( #294, #268 ) ) ;
#184 = ADVANCED_BREP_SHAPE_REPRESENTATION ( 'Micro_GEM-750-2', ( #86, #157 ), #57 ) ;
#185 = CIRCLE ( 'NONE', #62, 0.3746250000000000413 ) ;
#186 = CARTESIAN_POINT ( 'NONE',  ( 5.618475085796983064E-33, 0.0000000000000000000, 4.587833071305771192E-17 ) ) ;
#187 = ADVANCED_FACE ( 'NONE', ( #142 ), #73, .T. ) ;
#188 = FACE_OUTER_BOUND ( 'NONE', #199, .T. ) ;
#189 = DIRECTION ( 'NONE',  ( 1.000000000000000000, 0.0000000000000000000, 0.0000000000000000000 ) ) ;
#190 = CARTESIAN_POINT ( 'NONE',  ( -0.3749999999999998335, 0.0000000000000000000, 1.502126730682356914 ) ) ;
#191 = EDGE_CURVE ( 'NONE', #38, #264, #238, .T. ) ;
#192 = DIRECTION ( 'NONE',  ( -1.224646799147353207E-16, -0.0000000000000000000, -1.000000000000000000 ) ) ;
#193 = DIRECTION ( 'NONE',  ( -1.224646799147353207E-16, -0.0000000000000000000, -1.000000000000000000 ) ) ;
#194 = DIRECTION ( 'NONE',  ( 0.0000000000000000000, 0.0000000000000000000, 1.000000000000000000 ) ) ;
#195 = ADVANCED_FACE ( 'NONE', ( #75 ), #117, .T. ) ;
#196 = APPLICATION_PROTOCOL_DEFINITION ( 'draft international standard', 'automotive_design', 1998, #216 ) ;
#197 = AXIS2_PLACEMENT_3D ( 'NONE', #205, #251, #45 ) ;
#198 = DIRECTION ( 'NONE',  ( 0.0000000000000000000, 0.0000000000000000000, 1.000000000000000000 ) ) ;
#199 = EDGE_LOOP ( 'NONE', ( #181, #124, #245, #219 ) ) ;
#200 = EDGE_CURVE ( 'NONE', #38, #246, #33, .T. ) ;
#201 = ORIENTED_EDGE ( 'NONE', *, *, #112, .F. ) ;
#202 = AXIS2_PLACEMENT_3D ( 'NONE', #2, #204, #272 ) ;
#203 = ORIENTED_EDGE ( 'NONE', *, *, #136, .T. ) ;
#204 = DIRECTION ( 'NONE',  ( 1.224646799147353207E-16, 0.0000000000000000000, 1.000000000000000000 ) ) ;
#205 = CARTESIAN_POINT ( 'NONE',  ( 0.0000000000000000000, 0.0000000000000000000, 0.0000000000000000000 ) ) ;
#206 = FILL_AREA_STYLE_COLOUR ( '', #242 ) ;
#207 = CARTESIAN_POINT ( 'NONE',  ( 0.3750000000000001665, 4.592425496802577300E-17, 1.502126730682356914 ) ) ;
#208 = FACE_OUTER_BOUND ( 'NONE', #266, .T. ) ;
#209 = CARTESIAN_POINT ( 'NONE',  ( 1.836970198721030181E-16, 0.0000000000000000000, 1.500000000000000222 ) ) ;
#210 = CARTESIAN_POINT ( 'NONE',  ( -0.3750000000000000555, 0.0000000000000000000, 3.984999999999998987 ) ) ;
#211 = CARTESIAN_POINT ( 'NONE',  ( -0.3746249999999998193, 4.587833071305771808E-17, 1.500000000000000222 ) ) ;
#212 = DIMENSIONAL_EXPONENTS ( 1.000000000000000000, 0.0000000000000000000, 0.0000000000000000000, 0.0000000000000000000, 0.0000000000000000000, 0.0000000000000000000, 0.0000000000000000000 ) ;
#213 = CIRCLE ( 'NONE', #68, 0.3750000000000000555 ) ;
#214 = DIRECTION ( 'NONE',  ( 0.0000000000000000000, 0.0000000000000000000, 1.000000000000000000 ) ) ;
#215 = EDGE_CURVE ( 'NONE', #102, #87, #283, .T. ) ;
#216 = APPLICATION_CONTEXT ( 'automotive_design' ) ;
#217 = CARTESIAN_POINT ( 'NONE',  ( 5.618475085796983064E-33, 0.0000000000000000000, 4.587833071305771192E-17 ) ) ;
#218 =( GEOMETRIC_REPRESENTATION_CONTEXT ( 3 ) GLOBAL_UNCERTAINTY_ASSIGNED_CONTEXT ( ( #275 ) ) GLOBAL_UNIT_ASSIGNED_CONTEXT ( ( #67, #91, #137 ) ) REPRESENTATION_CONTEXT ( 'NONE', 'WORKASPACE' ) );
#219 = ORIENTED_EDGE ( 'NONE', *, *, #290, .F. ) ;
#220 = EDGE_LOOP ( 'NONE', ( #46, #176, #174, #125 ) ) ;
#221 = ORIENTED_EDGE ( 'NONE', *, *, #106, .T. ) ;
#222 = VERTEX_POINT ( 'NONE', #165 ) ;
#223 = DIRECTION ( 'NONE',  ( -1.224646799147353207E-16, -0.0000000000000000000, -1.000000000000000000 ) ) ;
#224 = CARTESIAN_POINT ( 'NONE',  ( 0.3746250000000002633, 0.0000000000000000000, 1.500000000000000222 ) ) ;
#225 = EDGE_CURVE ( 'NONE', #222, #155, #49, .T. ) ;
#226 = PRESENTATION_LAYER_ASSIGNMENT (  '', '', ( #29 ) ) ;
#227 = PRESENTATION_STYLE_ASSIGNMENT (( #280 ) ) ;
#228 = DIRECTION ( 'NONE',  ( 1.000000000000000000, 0.0000000000000000000, 0.0000000000000000000 ) ) ;
#229 = DIRECTION ( 'NONE',  ( 1.000000000000000000, 0.0000000000000000000, 0.0000000000000000000 ) ) ;
#230 = VECTOR ( 'NONE', #119, 39.37007874015748143 ) ;
#231 = AXIS2_PLACEMENT_3D ( 'NONE', #65, #134, #228 ) ;
#232 = DIRECTION ( 'NONE',  ( 1.224646799147353207E-16, 0.0000000000000000000, 1.000000000000000000 ) ) ;
#233 = CARTESIAN_POINT ( 'NONE',  ( 1.839574692643826673E-16, 0.0000000000000000000, 1.502126730682356914 ) ) ;
#234 = EDGE_CURVE ( 'NONE', #87, #155, #265, .T. ) ;
#235 = DIRECTION ( 'NONE',  ( -0.0000000000000000000, -0.0000000000000000000, -1.000000000000000000 ) ) ;
#236 = PRESENTATION_LAYER_ASSIGNMENT (  '', '', ( #44 ) ) ;
#237 = FACE_OUTER_BOUND ( 'NONE', #1, .T. ) ;
#238 = LINE ( 'NONE', #26, #122 ) ;
#239 = DIRECTION ( 'NONE',  ( 0.0000000000000000000, 0.0000000000000000000, -1.000000000000000000 ) ) ;
#240 = PRODUCT ( 'Micro_GEM-750-2', 'Micro_GEM-750-2', '', ( #263 ) ) ;
#241 = DIRECTION ( 'NONE',  ( -1.224646799147353207E-16, -0.0000000000000000000, -1.000000000000000000 ) ) ;
#242 = COLOUR_RGB ( '',0.7921568627450980005, 0.8196078431372548767, 0.9333333333333333481 ) ;
#243 = ORIENTED_EDGE ( 'NONE', *, *, #215, .F. ) ;
#244 = FILL_AREA_STYLE ('',( #58 ) ) ;
#245 = ORIENTED_EDGE ( 'NONE', *, *, #78, .T. ) ;
#246 = VERTEX_POINT ( 'NONE', #259 ) ;
#247 = EDGE_LOOP ( 'NONE', ( #81, #11, #14, #19 ) ) ;
#248 = CIRCLE ( 'NONE', #63, 0.3750000000000000555 ) ;
#249 = DIRECTION ( 'NONE',  ( -1.224646799147353207E-16, -0.0000000000000000000, -1.000000000000000000 ) ) ;
#250 = PLANE ( 'NONE',  #170 ) ;
#251 = DIRECTION ( 'NONE',  ( -1.224646799147353207E-16, -0.0000000000000000000, -1.000000000000000000 ) ) ;
#252 = AXIS2_PLACEMENT_3D ( 'NONE', #141, #194, #189 ) ;
#253 = CARTESIAN_POINT ( 'NONE',  ( 0.0000000000000000000, 0.0000000000000000000, 4.000000000000000000 ) ) ;
#254 = FACE_OUTER_BOUND ( 'NONE', #292, .T. ) ;
#255 = CARTESIAN_POINT ( 'NONE',  ( -0.3746249999999999858, 0.0000000000000000000, 9.175666142611542384E-17 ) ) ;
#256 = AXIS2_PLACEMENT_3D ( 'NONE', #30, #71, #282 ) ;
#257 = LINE ( 'NONE', #95, #273 ) ;
#258 = DIRECTION ( 'NONE',  ( -0.1736481776669312194, 2.126576849575783625E-17, 0.9848077530122080203 ) ) ;
#259 = CARTESIAN_POINT ( 'NONE',  ( -0.3746249999999998193, 4.590129284054174246E-17, 1.500000000000000222 ) ) ;
#260 = CONICAL_SURFACE ( 'NONE', #202, 0.3746250000000000413, 0.1745329251994339192 ) ;
#261 = CARTESIAN_POINT ( 'NONE',  ( 0.0000000000000000000, 0.0000000000000000000, 0.0000000000000000000 ) ) ;
#262 = CARTESIAN_POINT ( 'NONE',  ( 0.0000000000000000000, 0.0000000000000000000, 4.000000000000000000 ) ) ;
#263 = PRODUCT_CONTEXT ( 'NONE', #162, 'mechanical' ) ;
#264 = VERTEX_POINT ( 'NONE', #96 ) ;
#265 = CIRCLE ( 'NONE', #97, 0.3750000000000000555 ) ;
#266 = EDGE_LOOP ( 'NONE', ( #101, #203, #297, #201 ) ) ;
#267 = LENGTH_MEASURE_WITH_UNIT ( LENGTH_MEASURE( 0.02539999999999999897 ), #84 );
#268 = ORIENTED_EDGE ( 'NONE', *, *, #16, .T. ) ;
#269 = SURFACE_STYLE_USAGE ( .BOTH. , #180 ) ;
#270 = ORIENTED_EDGE ( 'NONE', *, *, #271, .F. ) ;
#271 = EDGE_CURVE ( 'NONE', #82, #178, #248, .T. ) ;
#272 = DIRECTION ( 'NONE',  ( 1.000000000000000000, 0.0000000000000000000, 0.0000000000000000000 ) ) ;
#273 = VECTOR ( 'NONE', #98, 39.37007874015748143 ) ;
#274 = CARTESIAN_POINT ( 'NONE',  ( 0.0000000000000000000, 0.0000000000000000000, 4.000000000000000000 ) ) ;
#275 = UNCERTAINTY_MEASURE_WITH_UNIT (LENGTH_MEASURE( 1.000000000000000082E-05 ), #67, 'distance_accuracy_value', 'NONE');
#276 = EDGE_CURVE ( 'NONE', #155, #87, #213, .T. ) ;
#277 = DIRECTION ( 'NONE',  ( -1.000000000000000000, 0.0000000000000000000, 1.224646799147352961E-16 ) ) ;
#278 =( LENGTH_UNIT ( ) NAMED_UNIT ( * ) SI_UNIT ( $, .METRE. ) );
#279 = AXIS2_PLACEMENT_3D ( 'NONE', #262, #148, #32 ) ;
#280 = SURFACE_STYLE_USAGE ( .BOTH. , #66 ) ;
#281 = ADVANCED_FACE ( 'NONE', ( #154 ), #299, .T. ) ;
#282 = DIRECTION ( 'NONE',  ( -1.000000000000000000, 0.0000000000000000000, 0.0000000000000000000 ) ) ;
#283 = LINE ( 'NONE', #287, #133 ) ;
#284 = CARTESIAN_POINT ( 'NONE',  ( -0.3599999999999994316, 0.0000000000000000000, 4.000000000000000000 ) ) ;
#285 = DIRECTION ( 'NONE',  ( 0.0000000000000000000, 0.0000000000000000000, -1.000000000000000000 ) ) ;
#286 = UNCERTAINTY_MEASURE_WITH_UNIT (LENGTH_MEASURE( 1.000000000000000082E-05 ), #173, 'distance_accuracy_value', 'NONE');
#287 = CARTESIAN_POINT ( 'NONE',  ( -0.3599999999999994316, 0.0000000000000000000, 4.000000000000000000 ) ) ;
#288 = AXIS2_PLACEMENT_3D ( 'NONE', #8, #192, #99 ) ;
#289 = APPLICATION_PROTOCOL_DEFINITION ( 'draft international standard', 'automotive_design', 1998, #162 ) ;
#290 = EDGE_CURVE ( 'NONE', #264, #107, #17, .T. ) ;
#291 = DIRECTION ( 'NONE',  ( 1.000000000000000000, 0.0000000000000000000, 0.0000000000000000000 ) ) ;
#292 = EDGE_LOOP ( 'NONE', ( #296, #129, #221, #270 ) ) ;
#293 = DIRECTION ( 'NONE',  ( -1.000000000000000000, 0.0000000000000000000, 1.224646799147352961E-16 ) ) ;
#294 = ORIENTED_EDGE ( 'NONE', *, *, #163, .T. ) ;
#295 = AXIS2_PLACEMENT_3D ( 'NONE', #166, #214, #7 ) ;
#296 = ORIENTED_EDGE ( 'NONE', *, *, #161, .F. ) ;
#297 = ORIENTED_EDGE ( 'NONE', *, *, #42, .T. ) ;
#298 = CYLINDRICAL_SURFACE ( 'NONE', #197, 0.3746249999999999858 ) ;
#299 = CONICAL_SURFACE ( 'NONE', #279, 0.3599999999999994316, 0.7853981633974415066 ) ;
ENDSEC;
END-ISO-10303-21;
