ISO-10303-21;
HEADER;
FILE_DESCRIPTION (( 'STEP AP214' ),
    '1' );
FILE_NAME ('Micro_SFBM-008-8X.STEP',
    '2021-09-03T16:37:36',
    ( '' ),
    ( '' ),
    'SwSTEP 2.0',
    'SolidWorks 2020',
    '' );
FILE_SCHEMA (( 'AUTOMOTIVE_DESIGN' ));
ENDSEC;

DATA;
#1 = CARTESIAN_POINT ( 'NONE',  ( 0.0000000000000000000, 0.0000000000000000000, 0.0000000000000000000 ) ) ;
#2 = DIRECTION ( 'NONE',  ( 0.1736481776669304422, 2.126576849575772839E-17, -0.9848077530122080203 ) ) ;
#3 = DIRECTION ( 'NONE',  ( -1.000000000000000000, 0.0000000000000000000, 0.0000000000000000000 ) ) ;
#4 = CIRCLE ( 'NONE', #23, 0.01574642519999999712 ) ;
#5 = EDGE_CURVE ( 'NONE', #306, #115, #27, .T. ) ;
#6 = ORIENTED_EDGE ( 'NONE', *, *, #54, .F. ) ;
#7 = CARTESIAN_POINT ( 'NONE',  ( 0.0000000000000000000, 0.0000000000000000000, 0.0000000000000000000 ) ) ;
#8 = LINE ( 'NONE', #355, #238 ) ;
#9 = MECHANICAL_DESIGN_GEOMETRIC_PRESENTATION_REPRESENTATION (  '', ( #362 ), #64 ) ;
#10 = VERTEX_POINT ( 'NONE', #333 ) ;
#11 = CYLINDRICAL_SURFACE ( 'NONE', #345, 0.01476400000000002016 ) ;
#12 = AXIS2_PLACEMENT_3D ( 'NONE', #7, #110, #302 ) ;
#13 = EDGE_LOOP ( 'NONE', ( #328, #239, #142, #6 ) ) ;
#14 = ORIENTED_EDGE ( 'NONE', *, *, #270, .F. ) ;
#15 = DIRECTION ( 'NONE',  ( -0.0000000000000000000, -0.0000000000000000000, -1.000000000000000000 ) ) ;
#16 = CIRCLE ( 'NONE', #152, 0.1031100000000002570 ) ;
#17 = CARTESIAN_POINT ( 'NONE',  ( 0.0000000000000000000, 0.0000000000000000000, 0.3149610000000000465 ) ) ;
#18 = SURFACE_STYLE_FILL_AREA ( #310 ) ;
#19 = CARTESIAN_POINT ( 'NONE',  ( 0.0000000000000000000, 0.0000000000000000000, 0.0000000000000000000 ) ) ;
#20 = ORIENTED_EDGE ( 'NONE', *, *, #60, .F. ) ;
#21 = PRESENTATION_STYLE_ASSIGNMENT (( #338 ) ) ;
#22 = COLOUR_RGB ( '',0.7921568627450980005, 0.8196078431372548767, 0.9333333333333333481 ) ;
#23 = AXIS2_PLACEMENT_3D ( 'NONE', #24, #321, #223 ) ;
#24 = CARTESIAN_POINT ( 'NONE',  ( 0.0000000000000000000, 0.0000000000000000000, 0.0000000000000000000 ) ) ;
#25 = SURFACE_SIDE_STYLE ('',( #219 ) ) ;
#26 = CARTESIAN_POINT ( 'NONE',  ( 0.0000000000000000000, 0.0000000000000000000, 0.03149600000000000316 ) ) ;
#27 = CIRCLE ( 'NONE', #335, 0.01476400000000003751 ) ;
#28 = EDGE_CURVE ( 'NONE', #129, #74, #83, .T. ) ;
#29 = DIRECTION ( 'NONE',  ( -1.000000000000000000, 0.0000000000000000000, 0.0000000000000000000 ) ) ;
#30 = DIMENSIONAL_EXPONENTS ( 1.000000000000000000, 0.0000000000000000000, 0.0000000000000000000, 0.0000000000000000000, 0.0000000000000000000, 0.0000000000000000000, 0.0000000000000000000 ) ;
#31 = CONICAL_SURFACE ( 'NONE', #72, 0.1031100000000002570, 0.7853981633974318477 ) ;
#32 = CYLINDRICAL_SURFACE ( 'NONE', #36, 0.01574642519999999712 ) ;
#33 = VERTEX_POINT ( 'NONE', #127 ) ;
#34 = EDGE_CURVE ( 'NONE', #33, #174, #187, .T. ) ;
#35 = LINE ( 'NONE', #285, #230 ) ;
#36 = AXIS2_PLACEMENT_3D ( 'NONE', #1, #62, #317 ) ;
#37 = APPLICATION_CONTEXT ( 'automotive_design' ) ;
#38 = DIRECTION ( 'NONE',  ( -0.0000000000000000000, -0.0000000000000000000, -1.000000000000000000 ) ) ;
#39 = PLANE ( 'NONE',  #114 ) ;
#40 = ORIENTED_EDGE ( 'NONE', *, *, #155, .F. ) ;
#41 = LINE ( 'NONE', #365, #232 ) ;
#42 = MANIFOLD_SOLID_BREP ( 'Cut-Revolve1', #184 ) ;
#43 = ORIENTED_EDGE ( 'NONE', *, *, #336, .T. ) ;
#44 = EDGE_CURVE ( 'NONE', #369, #174, #252, .T. ) ;
#45 = DIRECTION ( 'NONE',  ( -1.000000000000000000, 0.0000000000000000000, 0.0000000000000000000 ) ) ;
#46 = COLOUR_RGB ( '',0.7921568627450980005, 0.8196078431372548767, 0.9333333333333333481 ) ;
#47 = DIRECTION ( 'NONE',  ( -1.000000000000000000, 0.0000000000000000000, 0.0000000000000000000 ) ) ;
#48 = CARTESIAN_POINT ( 'NONE',  ( 0.0000000000000000000, 0.0000000000000000000, 0.3149610000000000465 ) ) ;
#49 = ORIENTED_EDGE ( 'NONE', *, *, #28, .T. ) ;
#50 = CYLINDRICAL_SURFACE ( 'NONE', #186, 0.1181100000000000066 ) ;
#51 = VECTOR ( 'NONE', #175, 39.37007874015748143 ) ;
#52 = VERTEX_POINT ( 'NONE', #249 ) ;
#53 = CARTESIAN_POINT ( 'NONE',  ( 0.0000000000000000000, 0.0000000000000000000, 0.03149600000000000316 ) ) ;
#54 = EDGE_CURVE ( 'NONE', #177, #364, #113, .T. ) ;
#55 = FACE_OUTER_BOUND ( 'NONE', #111, .T. ) ;
#56 = DIRECTION ( 'NONE',  ( -0.0000000000000000000, -0.0000000000000000000, -1.000000000000000000 ) ) ;
#57 = CIRCLE ( 'NONE', #363, 0.01574642519999999712 ) ;
#58 = DIRECTION ( 'NONE',  ( -0.0000000000000000000, -0.0000000000000000000, -1.000000000000000000 ) ) ;
#59 = DIRECTION ( 'NONE',  ( 1.000000000000000000, 0.0000000000000000000, -0.0000000000000000000 ) ) ;
#60 = EDGE_CURVE ( 'NONE', #177, #10, #119, .T. ) ;
#61 = CARTESIAN_POINT ( 'NONE',  ( -0.01574642519999999712, 0.0000000000000000000, 0.0000000000000000000 ) ) ;
#62 = DIRECTION ( 'NONE',  ( -0.0000000000000000000, -0.0000000000000000000, -1.000000000000000000 ) ) ;
#63 = EDGE_LOOP ( 'NONE', ( #379, #273, #322, #164 ) ) ;
#64 =( GEOMETRIC_REPRESENTATION_CONTEXT ( 3 ) GLOBAL_UNCERTAINTY_ASSIGNED_CONTEXT ( ( #151 ) ) GLOBAL_UNIT_ASSIGNED_CONTEXT ( ( #137, #351, #377 ) ) REPRESENTATION_CONTEXT ( 'NONE', 'WORKASPACE' ) );
#65 = VECTOR ( 'NONE', #56, 39.37007874015748143 ) ;
#66 = CARTESIAN_POINT ( 'NONE',  ( 0.1181100000000000066, 1.446430334472939084E-17, 2.229093999999999465 ) ) ;
#67 = ORIENTED_EDGE ( 'NONE', *, *, #68, .T. ) ;
#68 = EDGE_CURVE ( 'NONE', #115, #177, #35, .T. ) ;
#69 = UNCERTAINTY_MEASURE_WITH_UNIT (LENGTH_MEASURE( 1.000000000000000082E-05 ), #344, 'distance_accuracy_value', 'NONE');
#70 = PRESENTATION_LAYER_ASSIGNMENT (  '', '', ( #362 ) ) ;
#71 = ADVANCED_BREP_SHAPE_REPRESENTATION ( 'Micro_SFBM-008-8X', ( #42, #107 ), #266 ) ;
#72 = AXIS2_PLACEMENT_3D ( 'NONE', #93, #191, #29 ) ;
#73 = FACE_BOUND ( 'NONE', #236, .T. ) ;
#74 = VERTEX_POINT ( 'NONE', #66 ) ;
#75 = CYLINDRICAL_SURFACE ( 'NONE', #12, 0.01476400000000002016 ) ;
#76 = VERTEX_POINT ( 'NONE', #226 ) ;
#77 = ADVANCED_FACE ( 'NONE', ( #121 ), #122, .T. ) ;
#78 = ORIENTED_EDGE ( 'NONE', *, *, #305, .F. ) ;
#79 = ORIENTED_EDGE ( 'NONE', *, *, #234, .T. ) ;
#80 = DIRECTION ( 'NONE',  ( -0.0000000000000000000, -0.0000000000000000000, -1.000000000000000000 ) ) ;
#81 = DIRECTION ( 'NONE',  ( 1.000000000000000000, 0.0000000000000000000, 0.0000000000000000000 ) ) ;
#82 = ADVANCED_FACE ( 'NONE', ( #96 ), #31, .T. ) ;
#83 = LINE ( 'NONE', #156, #274 ) ;
#84 = DIRECTION ( 'NONE',  ( -1.000000000000000000, 0.0000000000000000000, 0.0000000000000000000 ) ) ;
#85 = CIRCLE ( 'NONE', #193, 0.1181100000000000066 ) ;
#86 =( LENGTH_UNIT ( ) NAMED_UNIT ( * ) SI_UNIT ( $, .METRE. ) );
#87 = LINE ( 'NONE', #334, #65 ) ;
#88 = EDGE_CURVE ( 'NONE', #76, #124, #4, .T. ) ;
#89 = FACE_OUTER_BOUND ( 'NONE', #332, .T. ) ;
#90 =( LENGTH_UNIT ( ) NAMED_UNIT ( * ) SI_UNIT ( $, .METRE. ) );
#91 = CARTESIAN_POINT ( 'NONE',  ( 0.0000000000000000000, 0.0000000000000000000, 0.03706761017589425139 ) ) ;
#92 = DIRECTION ( 'NONE',  ( -1.000000000000000000, 0.0000000000000000000, 0.0000000000000000000 ) ) ;
#93 = CARTESIAN_POINT ( 'NONE',  ( 0.0000000000000000000, 0.0000000000000000000, 2.244094000000000033 ) ) ;
#94 = ORIENTED_EDGE ( 'NONE', *, *, #170, .T. ) ;
#95 = EDGE_CURVE ( 'NONE', #52, #129, #16, .T. ) ;
#96 = FACE_OUTER_BOUND ( 'NONE', #291, .T. ) ;
#97 = STYLED_ITEM ( 'NONE', ( #21 ), #71 ) ;
#98 = ADVANCED_FACE ( 'NONE', ( #89 ), #207, .T. ) ;
#99 = AXIS2_PLACEMENT_3D ( 'NONE', #331, #80, #294 ) ;
#100 = ORIENTED_EDGE ( 'NONE', *, *, #60, .T. ) ;
#101 = ADVANCED_FACE ( 'NONE', ( #55 ), #32, .T. ) ;
#102 = LINE ( 'NONE', #237, #51 ) ;
#103 = ORIENTED_EDGE ( 'NONE', *, *, #295, .T. ) ;
#104 = CARTESIAN_POINT ( 'NONE',  ( -0.1031100000000002570, 0.0000000000000000000, 2.244094000000000033 ) ) ;
#105 = AXIS2_PLACEMENT_3D ( 'NONE', #91, #287, #323 ) ;
#106 = EDGE_LOOP ( 'NONE', ( #208, #67, #78, #357 ) ) ;
#107 = AXIS2_PLACEMENT_3D ( 'NONE', #19, #280, #81 ) ;
#108 = CARTESIAN_POINT ( 'NONE',  ( -0.1181100000000000066, 0.0000000000000000000, 2.244094000000000033 ) ) ;
#109 = EDGE_CURVE ( 'NONE', #129, #52, #293, .T. ) ;
#110 = DIRECTION ( 'NONE',  ( -0.0000000000000000000, -0.0000000000000000000, -1.000000000000000000 ) ) ;
#111 = EDGE_LOOP ( 'NONE', ( #94, #263, #303, #361 ) ) ;
#112 = FILL_AREA_STYLE_COLOUR ( '', #46 ) ;
#113 = CIRCLE ( 'NONE', #105, 0.01476400000000000629 ) ;
#114 = AXIS2_PLACEMENT_3D ( 'NONE', #245, #318, #92 ) ;
#115 = VERTEX_POINT ( 'NONE', #371 ) ;
#116 = FACE_OUTER_BOUND ( 'NONE', #202, .T. ) ;
#117 = CARTESIAN_POINT ( 'NONE',  ( 0.01574642519999999712, 1.928380921919321933E-18, 0.03149600000000000316 ) ) ;
#118 = AXIS2_PLACEMENT_3D ( 'NONE', #264, #261, #231 ) ;
#119 = LINE ( 'NONE', #117, #324 ) ;
#120 = ORIENTED_EDGE ( 'NONE', *, *, #356, .T. ) ;
#121 = FACE_OUTER_BOUND ( 'NONE', #63, .T. ) ;
#122 = CONICAL_SURFACE ( 'NONE', #161, 0.1031100000000002570, 0.7853981633974318477 ) ;
#123 = CIRCLE ( 'NONE', #282, 0.01574642519999999712 ) ;
#124 = VERTEX_POINT ( 'NONE', #61 ) ;
#125 = CARTESIAN_POINT ( 'NONE',  ( -0.1181100000000000066, 0.0000000000000000000, 0.3149610000000000465 ) ) ;
#126 = ADVANCED_FACE ( 'NONE', ( #283 ), #163, .F. ) ;
#127 = CARTESIAN_POINT ( 'NONE',  ( -0.1181100000000000066, 0.0000000000000000000, 2.229093999999999465 ) ) ;
#128 = DIRECTION ( 'NONE',  ( -1.000000000000000000, 0.0000000000000000000, 0.0000000000000000000 ) ) ;
#129 = VERTEX_POINT ( 'NONE', #343 ) ;
#130 = DIRECTION ( 'NONE',  ( -1.000000000000000000, 0.0000000000000000000, 0.0000000000000000000 ) ) ;
#131 = EDGE_LOOP ( 'NONE', ( #296, #360, #179, #215 ) ) ;
#132 = CYLINDRICAL_SURFACE ( 'NONE', #167, 0.01574642519999999712 ) ;
#133 = SURFACE_SIDE_STYLE ('',( #18 ) ) ;
#134 = MECHANICAL_DESIGN_GEOMETRIC_PRESENTATION_REPRESENTATION (  '', ( #97 ), #259 ) ;
#135 = PRODUCT_CONTEXT ( 'NONE', #211, 'mechanical' ) ;
#136 = CARTESIAN_POINT ( 'NONE',  ( 0.0000000000000000000, 0.0000000000000000000, 0.0000000000000000000 ) ) ;
#137 =( CONVERSION_BASED_UNIT ( 'INCH', #348 ) LENGTH_UNIT ( ) NAMED_UNIT ( #30 ) );
#138 = DIRECTION ( 'NONE',  ( 1.000000000000000000, 0.0000000000000000000, 0.0000000000000000000 ) ) ;
#139 = FACE_OUTER_BOUND ( 'NONE', #131, .T. ) ;
#140 = VERTEX_POINT ( 'NONE', #289 ) ;
#141 = CIRCLE ( 'NONE', #376, 0.1181100000000000066 ) ;
#142 = ORIENTED_EDGE ( 'NONE', *, *, #162, .T. ) ;
#143 = CIRCLE ( 'NONE', #99, 0.01476400000000000629 ) ;
#144 = ADVANCED_FACE ( 'NONE', ( #139 ), #373, .T. ) ;
#145 = ORIENTED_EDGE ( 'NONE', *, *, #34, .T. ) ;
#146 = DIRECTION ( 'NONE',  ( -0.0000000000000000000, -0.0000000000000000000, -1.000000000000000000 ) ) ;
#147 = ORIENTED_EDGE ( 'NONE', *, *, #44, .F. ) ;
#148 = DIRECTION ( 'NONE',  ( -0.1736481776669304422, 0.0000000000000000000, -0.9848077530122080203 ) ) ;
#149 = FACE_OUTER_BOUND ( 'NONE', #13, .T. ) ;
#150 = DIRECTION ( 'NONE',  ( -1.000000000000000000, 0.0000000000000000000, 0.0000000000000000000 ) ) ;
#151 = UNCERTAINTY_MEASURE_WITH_UNIT (LENGTH_MEASURE( 1.000000000000000082E-05 ), #137, 'distance_accuracy_value', 'NONE');
#152 = AXIS2_PLACEMENT_3D ( 'NONE', #196, #340, #346 ) ;
#153 = DIRECTION ( 'NONE',  ( -0.0000000000000000000, -0.0000000000000000000, -1.000000000000000000 ) ) ;
#154 = AXIS2_PLACEMENT_3D ( 'NONE', #173, #262, #200 ) ;
#155 = EDGE_CURVE ( 'NONE', #33, #74, #316, .T. ) ;
#156 = CARTESIAN_POINT ( 'NONE',  ( 0.1031100000000002570, 1.262733314600838667E-17, 2.244094000000000033 ) ) ;
#157 = CARTESIAN_POINT ( 'NONE',  ( 0.0000000000000000000, 0.0000000000000000000, 2.244094000000000033 ) ) ;
#158 = EDGE_CURVE ( 'NONE', #115, #306, #201, .T. ) ;
#159 = ORIENTED_EDGE ( 'NONE', *, *, #54, .T. ) ;
#160 = DIRECTION ( 'NONE',  ( 0.0000000000000000000, 0.0000000000000000000, 1.000000000000000000 ) ) ;
#161 = AXIS2_PLACEMENT_3D ( 'NONE', #255, #257, #227 ) ;
#162 = EDGE_CURVE ( 'NONE', #306, #364, #8, .T. ) ;
#163 = PLANE ( 'NONE',  #217 ) ;
#164 = ORIENTED_EDGE ( 'NONE', *, *, #350, .F. ) ;
#165 = DIRECTION ( 'NONE',  ( 1.000000000000000000, 0.0000000000000000000, 0.0000000000000000000 ) ) ;
#166 = ORIENTED_EDGE ( 'NONE', *, *, #305, .T. ) ;
#167 = AXIS2_PLACEMENT_3D ( 'NONE', #370, #210, #221 ) ;
#168 = DIRECTION ( 'NONE',  ( -1.000000000000000000, 0.0000000000000000000, 0.0000000000000000000 ) ) ;
#169 =( NAMED_UNIT ( * ) PLANE_ANGLE_UNIT ( ) SI_UNIT ( $, .RADIAN. ) );
#170 = EDGE_CURVE ( 'NONE', #140, #10, #123, .T. ) ;
#171 = AXIS2_PLACEMENT_3D ( 'NONE', #157, #311, #59 ) ;
#172 = FACE_OUTER_BOUND ( 'NONE', #220, .T. ) ;
#173 = CARTESIAN_POINT ( 'NONE',  ( 0.0000000000000000000, 0.0000000000000000000, 2.229093999999999465 ) ) ;
#174 = VERTEX_POINT ( 'NONE', #125 ) ;
#175 = DIRECTION ( 'NONE',  ( -0.0000000000000000000, -0.0000000000000000000, -1.000000000000000000 ) ) ;
#176 = DIRECTION ( 'NONE',  ( -1.000000000000000000, 0.0000000000000000000, 0.0000000000000000000 ) ) ;
#177 = VERTEX_POINT ( 'NONE', #180 ) ;
#178 = CONICAL_SURFACE ( 'NONE', #198, 0.01574642519999999712, 0.1745329251994330588 ) ;
#179 = ORIENTED_EDGE ( 'NONE', *, *, #234, .F. ) ;
#180 = CARTESIAN_POINT ( 'NONE',  ( 0.01476400000000000629, 1.868224728090237363E-18, 0.03706761017589425139 ) ) ;
#181 = ORIENTED_EDGE ( 'NONE', *, *, #95, .T. ) ;
#182 = CARTESIAN_POINT ( 'NONE',  ( -0.01476400000000003751, 0.0000000000000000000, 0.3149609999999999910 ) ) ;
#183 = SHAPE_DEFINITION_REPRESENTATION ( #214, #71 ) ;
#184 = CLOSED_SHELL ( 'NONE', ( #101, #213, #367, #82, #144, #320, #378, #77, #347, #98, #204, #353, #126 ) ) ;
#185 = ORIENTED_EDGE ( 'NONE', *, *, #295, .F. ) ;
#186 = AXIS2_PLACEMENT_3D ( 'NONE', #297, #329, #150 ) ;
#187 = LINE ( 'NONE', #108, #258 ) ;
#188 = DIMENSIONAL_EXPONENTS ( 1.000000000000000000, 0.0000000000000000000, 0.0000000000000000000, 0.0000000000000000000, 0.0000000000000000000, 0.0000000000000000000, 0.0000000000000000000 ) ;
#189 = DIRECTION ( 'NONE',  ( -0.0000000000000000000, -0.0000000000000000000, -1.000000000000000000 ) ) ;
#190 = EDGE_CURVE ( 'NONE', #124, #76, #276, .T. ) ;
#191 = DIRECTION ( 'NONE',  ( 0.0000000000000000000, 0.0000000000000000000, -1.000000000000000000 ) ) ;
#192 =( NAMED_UNIT ( * ) PLANE_ANGLE_UNIT ( ) SI_UNIT ( $, .RADIAN. ) );
#193 = AXIS2_PLACEMENT_3D ( 'NONE', #374, #315, #138 ) ;
#194 = DIRECTION ( 'NONE',  ( -0.0000000000000000000, -0.0000000000000000000, -1.000000000000000000 ) ) ;
#195 = ORIENTED_EDGE ( 'NONE', *, *, #190, .T. ) ;
#196 = CARTESIAN_POINT ( 'NONE',  ( 0.0000000000000000000, 0.0000000000000000000, 2.244094000000000033 ) ) ;
#197 = LENGTH_MEASURE_WITH_UNIT ( LENGTH_MEASURE( 0.02539999999999999897 ), #247 );
#198 = AXIS2_PLACEMENT_3D ( 'NONE', #53, #250, #84 ) ;
#199 = PRODUCT_RELATED_PRODUCT_CATEGORY ( 'part', '', ( #267 ) ) ;
#200 = DIRECTION ( 'NONE',  ( 1.000000000000000000, 0.0000000000000000000, 0.0000000000000000000 ) ) ;
#201 = CIRCLE ( 'NONE', #337, 0.01476400000000003751 ) ;
#202 = EDGE_LOOP ( 'NONE', ( #166, #100, #288, #185 ) ) ;
#203 = DIRECTION ( 'NONE',  ( -0.0000000000000000000, -0.0000000000000000000, -1.000000000000000000 ) ) ;
#204 = ADVANCED_FACE ( 'NONE', ( #149 ), #75, .T. ) ;
#205 = ORIENTED_EDGE ( 'NONE', *, *, #44, .T. ) ;
#206 = ORIENTED_EDGE ( 'NONE', *, *, #109, .T. ) ;
#207 = CONICAL_SURFACE ( 'NONE', #307, 0.01574642519999999712, 0.1745329251994330588 ) ;
#208 = ORIENTED_EDGE ( 'NONE', *, *, #5, .T. ) ;
#209 = FACE_OUTER_BOUND ( 'NONE', #106, .T. ) ;
#210 = DIRECTION ( 'NONE',  ( -0.0000000000000000000, -0.0000000000000000000, -1.000000000000000000 ) ) ;
#211 = APPLICATION_CONTEXT ( 'automotive_design' ) ;
#212 = CARTESIAN_POINT ( 'NONE',  ( 0.0000000000000000000, 0.0000000000000000000, 0.03149600000000000316 ) ) ;
#213 = ADVANCED_FACE ( 'NONE', ( #209 ), #11, .T. ) ;
#214 = PRODUCT_DEFINITION_SHAPE ( 'NONE', 'NONE',  #269 ) ;
#215 = ORIENTED_EDGE ( 'NONE', *, *, #34, .F. ) ;
#216 =( NAMED_UNIT ( * ) SI_UNIT ( $, .STERADIAN. ) SOLID_ANGLE_UNIT ( ) );
#217 = AXIS2_PLACEMENT_3D ( 'NONE', #136, #246, #222 ) ;
#218 = ORIENTED_EDGE ( 'NONE', *, *, #5, .F. ) ;
#219 = SURFACE_STYLE_FILL_AREA ( #284 ) ;
#220 = EDGE_LOOP ( 'NONE', ( #79, #205 ) ) ;
#221 = DIRECTION ( 'NONE',  ( -1.000000000000000000, 0.0000000000000000000, 0.0000000000000000000 ) ) ;
#222 = DIRECTION ( 'NONE',  ( 1.000000000000000000, 0.0000000000000000000, -0.0000000000000000000 ) ) ;
#223 = DIRECTION ( 'NONE',  ( -1.000000000000000000, 0.0000000000000000000, 0.0000000000000000000 ) ) ;
#224 =( NAMED_UNIT ( * ) SI_UNIT ( $, .STERADIAN. ) SOLID_ANGLE_UNIT ( ) );
#225 = AXIS2_PLACEMENT_3D ( 'NONE', #251, #229, #176 ) ;
#226 = CARTESIAN_POINT ( 'NONE',  ( 0.01574642519999999712, 1.928380921919321933E-18, 0.0000000000000000000 ) ) ;
#227 = DIRECTION ( 'NONE',  ( -1.000000000000000000, 0.0000000000000000000, 0.0000000000000000000 ) ) ;
#228 = ORIENTED_EDGE ( 'NONE', *, *, #158, .F. ) ;
#229 = DIRECTION ( 'NONE',  ( -0.0000000000000000000, -0.0000000000000000000, -1.000000000000000000 ) ) ;
#230 = VECTOR ( 'NONE', #58, 39.37007874015748143 ) ;
#231 = DIRECTION ( 'NONE',  ( -1.000000000000000000, 0.0000000000000000000, 0.0000000000000000000 ) ) ;
#232 = VECTOR ( 'NONE', #235, 39.37007874015748143 ) ;
#233 = LINE ( 'NONE', #104, #375 ) ;
#234 = EDGE_CURVE ( 'NONE', #174, #369, #141, .T. ) ;
#235 = DIRECTION ( 'NONE',  ( -0.0000000000000000000, -0.0000000000000000000, -1.000000000000000000 ) ) ;
#236 = EDGE_LOOP ( 'NONE', ( #218, #228 ) ) ;
#237 = CARTESIAN_POINT ( 'NONE',  ( 0.1181100000000000066, 1.446430334472939084E-17, 2.244094000000000033 ) ) ;
#238 = VECTOR ( 'NONE', #38, 39.37007874015748143 ) ;
#239 = ORIENTED_EDGE ( 'NONE', *, *, #158, .T. ) ;
#240 = CARTESIAN_POINT ( 'NONE',  ( 0.0000000000000000000, 0.0000000000000000000, 0.03149600000000000316 ) ) ;
#241 = LENGTH_MEASURE_WITH_UNIT ( LENGTH_MEASURE( 0.02539999999999999897 ), #90 );
#242 = SURFACE_STYLE_USAGE ( .BOTH. , #133 ) ;
#243 = APPLICATION_PROTOCOL_DEFINITION ( 'draft international standard', 'automotive_design', 1998, #211 ) ;
#244 = UNCERTAINTY_MEASURE_WITH_UNIT (LENGTH_MEASURE( 1.000000000000000082E-05 ), #354, 'distance_accuracy_value', 'NONE');
#245 = CARTESIAN_POINT ( 'NONE',  ( 0.01476400000000003751, 0.0000000000000000000, 0.3149609999999999910 ) ) ;
#246 = DIRECTION ( 'NONE',  ( 0.0000000000000000000, 0.0000000000000000000, 1.000000000000000000 ) ) ;
#247 =( LENGTH_UNIT ( ) NAMED_UNIT ( * ) SI_UNIT ( $, .METRE. ) );
#248 = DIMENSIONAL_EXPONENTS ( 1.000000000000000000, 0.0000000000000000000, 0.0000000000000000000, 0.0000000000000000000, 0.0000000000000000000, 0.0000000000000000000, 0.0000000000000000000 ) ;
#249 = CARTESIAN_POINT ( 'NONE',  ( -0.1031100000000002570, 0.0000000000000000000, 2.244094000000000033 ) ) ;
#250 = DIRECTION ( 'NONE',  ( -0.0000000000000000000, -0.0000000000000000000, -1.000000000000000000 ) ) ;
#251 = CARTESIAN_POINT ( 'NONE',  ( 0.0000000000000000000, 0.0000000000000000000, 2.244094000000000033 ) ) ;
#252 = CIRCLE ( 'NONE', #265, 0.1181100000000000066 ) ;
#253 = VECTOR ( 'NONE', #148, 39.37007874015748143 ) ;
#254 = EDGE_LOOP ( 'NONE', ( #277, #43, #120, #256 ) ) ;
#255 = CARTESIAN_POINT ( 'NONE',  ( 0.0000000000000000000, 0.0000000000000000000, 2.244094000000000033 ) ) ;
#256 = ORIENTED_EDGE ( 'NONE', *, *, #88, .F. ) ;
#257 = DIRECTION ( 'NONE',  ( 0.0000000000000000000, 0.0000000000000000000, -1.000000000000000000 ) ) ;
#258 = VECTOR ( 'NONE', #153, 39.37007874015748143 ) ;
#259 =( GEOMETRIC_REPRESENTATION_CONTEXT ( 3 ) GLOBAL_UNCERTAINTY_ASSIGNED_CONTEXT ( ( #244 ) ) GLOBAL_UNIT_ASSIGNED_CONTEXT ( ( #354, #169, #224 ) ) REPRESENTATION_CONTEXT ( 'NONE', 'WORKASPACE' ) );
#260 = ORIENTED_EDGE ( 'NONE', *, *, #336, .F. ) ;
#261 = DIRECTION ( 'NONE',  ( -0.0000000000000000000, -0.0000000000000000000, -1.000000000000000000 ) ) ;
#262 = DIRECTION ( 'NONE',  ( 0.0000000000000000000, 0.0000000000000000000, -1.000000000000000000 ) ) ;
#263 = ORIENTED_EDGE ( 'NONE', *, *, #342, .T. ) ;
#264 = CARTESIAN_POINT ( 'NONE',  ( 0.0000000000000000000, 0.0000000000000000000, 0.0000000000000000000 ) ) ;
#265 = AXIS2_PLACEMENT_3D ( 'NONE', #17, #189, #168 ) ;
#266 =( GEOMETRIC_REPRESENTATION_CONTEXT ( 3 ) GLOBAL_UNCERTAINTY_ASSIGNED_CONTEXT ( ( #69 ) ) GLOBAL_UNIT_ASSIGNED_CONTEXT ( ( #344, #192, #216 ) ) REPRESENTATION_CONTEXT ( 'NONE', 'WORKASPACE' ) );
#267 = PRODUCT ( 'Micro_SFBM-008-8X', 'Micro_SFBM-008-8X', '', ( #135 ) ) ;
#268 = LINE ( 'NONE', #327, #253 ) ;
#269 = PRODUCT_DEFINITION ( 'UNKNOWN', '', #308, #339 ) ;
#270 = EDGE_CURVE ( 'NONE', #52, #33, #233, .T. ) ;
#271 = DIRECTION ( 'NONE',  ( 0.7071067811865358044, 8.659560562354788645E-17, -0.7071067811865590080 ) ) ;
#272 = DIRECTION ( 'NONE',  ( -1.000000000000000000, 0.0000000000000000000, 0.0000000000000000000 ) ) ;
#273 = ORIENTED_EDGE ( 'NONE', *, *, #95, .F. ) ;
#274 = VECTOR ( 'NONE', #271, 39.37007874015748854 ) ;
#275 = EDGE_CURVE ( 'NONE', #74, #369, #102, .T. ) ;
#276 = CIRCLE ( 'NONE', #118, 0.01574642519999999712 ) ;
#277 = ORIENTED_EDGE ( 'NONE', *, *, #342, .F. ) ;
#278 = PLANE ( 'NONE',  #171 ) ;
#279 = FILL_AREA_STYLE_COLOUR ( '', #22 ) ;
#280 = DIRECTION ( 'NONE',  ( 0.0000000000000000000, 0.0000000000000000000, 1.000000000000000000 ) ) ;
#281 = ORIENTED_EDGE ( 'NONE', *, *, #88, .T. ) ;
#282 = AXIS2_PLACEMENT_3D ( 'NONE', #212, #299, #128 ) ;
#283 = FACE_OUTER_BOUND ( 'NONE', #366, .T. ) ;
#284 = FILL_AREA_STYLE ('',( #112 ) ) ;
#285 = CARTESIAN_POINT ( 'NONE',  ( 0.01476400000000002016, 1.808068534261154718E-18, 0.0000000000000000000 ) ) ;
#286 = FACE_OUTER_BOUND ( 'NONE', #254, .T. ) ;
#287 = DIRECTION ( 'NONE',  ( -0.0000000000000000000, -0.0000000000000000000, -1.000000000000000000 ) ) ;
#288 = ORIENTED_EDGE ( 'NONE', *, *, #170, .F. ) ;
#289 = CARTESIAN_POINT ( 'NONE',  ( -0.01574642519999999712, 0.0000000000000000000, 0.03149600000000000316 ) ) ;
#290 = ORIENTED_EDGE ( 'NONE', *, *, #350, .T. ) ;
#291 = EDGE_LOOP ( 'NONE', ( #312, #49, #40, #14 ) ) ;
#292 = CARTESIAN_POINT ( 'NONE',  ( 0.0000000000000000000, 0.0000000000000000000, 0.3149609999999999910 ) ) ;
#293 = CIRCLE ( 'NONE', #359, 0.1031100000000002570 ) ;
#294 = DIRECTION ( 'NONE',  ( -1.000000000000000000, 0.0000000000000000000, 0.0000000000000000000 ) ) ;
#295 = EDGE_CURVE ( 'NONE', #364, #140, #268, .T. ) ;
#296 = ORIENTED_EDGE ( 'NONE', *, *, #155, .T. ) ;
#297 = CARTESIAN_POINT ( 'NONE',  ( 0.0000000000000000000, 0.0000000000000000000, 2.244094000000000033 ) ) ;
#298 = EDGE_LOOP ( 'NONE', ( #181, #206 ) ) ;
#299 = DIRECTION ( 'NONE',  ( -0.0000000000000000000, -0.0000000000000000000, -1.000000000000000000 ) ) ;
#300 = PRESENTATION_LAYER_ASSIGNMENT (  '', '', ( #97 ) ) ;
#301 = CARTESIAN_POINT ( 'NONE',  ( 0.0000000000000000000, 0.0000000000000000000, 0.3149609999999999910 ) ) ;
#302 = DIRECTION ( 'NONE',  ( -1.000000000000000000, 0.0000000000000000000, 0.0000000000000000000 ) ) ;
#303 = ORIENTED_EDGE ( 'NONE', *, *, #190, .F. ) ;
#304 = FACE_OUTER_BOUND ( 'NONE', #349, .T. ) ;
#305 = EDGE_CURVE ( 'NONE', #364, #177, #143, .T. ) ;
#306 = VERTEX_POINT ( 'NONE', #182 ) ;
#307 = AXIS2_PLACEMENT_3D ( 'NONE', #26, #194, #314 ) ;
#308 = PRODUCT_DEFINITION_FORMATION_WITH_SPECIFIED_SOURCE ( 'ANY', '', #267, .NOT_KNOWN. ) ;
#309 = APPLICATION_PROTOCOL_DEFINITION ( 'draft international standard', 'automotive_design', 1998, #37 ) ;
#310 = FILL_AREA_STYLE ('',( #279 ) ) ;
#311 = DIRECTION ( 'NONE',  ( 0.0000000000000000000, 0.0000000000000000000, 1.000000000000000000 ) ) ;
#312 = ORIENTED_EDGE ( 'NONE', *, *, #109, .F. ) ;
#313 = CARTESIAN_POINT ( 'NONE',  ( 0.1181100000000000066, 1.446430334472939084E-17, 0.3149610000000000465 ) ) ;
#314 = DIRECTION ( 'NONE',  ( -1.000000000000000000, 0.0000000000000000000, 0.0000000000000000000 ) ) ;
#315 = DIRECTION ( 'NONE',  ( 0.0000000000000000000, 0.0000000000000000000, -1.000000000000000000 ) ) ;
#316 = CIRCLE ( 'NONE', #154, 0.1181100000000000066 ) ;
#317 = DIRECTION ( 'NONE',  ( -1.000000000000000000, 0.0000000000000000000, 0.0000000000000000000 ) ) ;
#318 = DIRECTION ( 'NONE',  ( -0.0000000000000000000, 0.0000000000000000000, -1.000000000000000000 ) ) ;
#319 = CARTESIAN_POINT ( 'NONE',  ( 0.0000000000000000000, 0.0000000000000000000, 2.244094000000000033 ) ) ;
#320 = ADVANCED_FACE ( 'NONE', ( #304 ), #50, .T. ) ;
#321 = DIRECTION ( 'NONE',  ( -0.0000000000000000000, -0.0000000000000000000, -1.000000000000000000 ) ) ;
#322 = ORIENTED_EDGE ( 'NONE', *, *, #270, .T. ) ;
#323 = DIRECTION ( 'NONE',  ( -1.000000000000000000, 0.0000000000000000000, 0.0000000000000000000 ) ) ;
#324 = VECTOR ( 'NONE', #2, 39.37007874015748143 ) ;
#325 = DIRECTION ( 'NONE',  ( -0.0000000000000000000, -0.0000000000000000000, -1.000000000000000000 ) ) ;
#326 = DIRECTION ( 'NONE',  ( -0.7071067811865358044, 0.0000000000000000000, -0.7071067811865590080 ) ) ;
#327 = CARTESIAN_POINT ( 'NONE',  ( -0.01574642519999999712, 0.0000000000000000000, 0.03149600000000000316 ) ) ;
#328 = ORIENTED_EDGE ( 'NONE', *, *, #68, .F. ) ;
#329 = DIRECTION ( 'NONE',  ( -0.0000000000000000000, -0.0000000000000000000, -1.000000000000000000 ) ) ;
#330 = DIRECTION ( 'NONE',  ( -0.0000000000000000000, -0.0000000000000000000, -1.000000000000000000 ) ) ;
#331 = CARTESIAN_POINT ( 'NONE',  ( 0.0000000000000000000, 0.0000000000000000000, 0.03706761017589425139 ) ) ;
#332 = EDGE_LOOP ( 'NONE', ( #20, #159, #103, #260 ) ) ;
#333 = CARTESIAN_POINT ( 'NONE',  ( 0.01574642519999999712, 1.928380921919321933E-18, 0.03149600000000000316 ) ) ;
#334 = CARTESIAN_POINT ( 'NONE',  ( -0.01574642519999999712, 0.0000000000000000000, 0.0000000000000000000 ) ) ;
#335 = AXIS2_PLACEMENT_3D ( 'NONE', #301, #330, #47 ) ;
#336 = EDGE_CURVE ( 'NONE', #10, #140, #57, .T. ) ;
#337 = AXIS2_PLACEMENT_3D ( 'NONE', #292, #325, #3 ) ;
#338 = SURFACE_STYLE_USAGE ( .BOTH. , #25 ) ;
#339 = PRODUCT_DEFINITION_CONTEXT ( 'detailed design', #37, 'design' ) ;
#340 = DIRECTION ( 'NONE',  ( 0.0000000000000000000, 0.0000000000000000000, 1.000000000000000000 ) ) ;
#341 = FACE_OUTER_BOUND ( 'NONE', #298, .T. ) ;
#342 = EDGE_CURVE ( 'NONE', #10, #76, #41, .T. ) ;
#343 = CARTESIAN_POINT ( 'NONE',  ( 0.1031100000000002570, 1.354581824536888722E-17, 2.244094000000000033 ) ) ;
#344 =( CONVERSION_BASED_UNIT ( 'INCH', #241 ) LENGTH_UNIT ( ) NAMED_UNIT ( #248 ) );
#345 = AXIS2_PLACEMENT_3D ( 'NONE', #358, #15, #130 ) ;
#346 = DIRECTION ( 'NONE',  ( 1.000000000000000000, 0.0000000000000000000, 0.0000000000000000000 ) ) ;
#347 = ADVANCED_FACE ( 'NONE', ( #73, #172 ), #39, .T. ) ;
#348 = LENGTH_MEASURE_WITH_UNIT ( LENGTH_MEASURE( 0.02539999999999999897 ), #86 );
#349 = EDGE_LOOP ( 'NONE', ( #352, #290, #145, #147 ) ) ;
#350 = EDGE_CURVE ( 'NONE', #74, #33, #85, .T. ) ;
#351 =( NAMED_UNIT ( * ) PLANE_ANGLE_UNIT ( ) SI_UNIT ( $, .RADIAN. ) );
#352 = ORIENTED_EDGE ( 'NONE', *, *, #275, .F. ) ;
#353 = ADVANCED_FACE ( 'NONE', ( #286 ), #132, .T. ) ;
#354 =( CONVERSION_BASED_UNIT ( 'INCH', #197 ) LENGTH_UNIT ( ) NAMED_UNIT ( #188 ) );
#355 = CARTESIAN_POINT ( 'NONE',  ( -0.01476400000000002016, 0.0000000000000000000, 0.0000000000000000000 ) ) ;
#356 = EDGE_CURVE ( 'NONE', #140, #124, #87, .T. ) ;
#357 = ORIENTED_EDGE ( 'NONE', *, *, #162, .F. ) ;
#358 = CARTESIAN_POINT ( 'NONE',  ( 0.0000000000000000000, 0.0000000000000000000, 0.0000000000000000000 ) ) ;
#359 = AXIS2_PLACEMENT_3D ( 'NONE', #319, #160, #165 ) ;
#360 = ORIENTED_EDGE ( 'NONE', *, *, #275, .T. ) ;
#361 = ORIENTED_EDGE ( 'NONE', *, *, #356, .F. ) ;
#362 = STYLED_ITEM ( 'NONE', ( #368 ), #42 ) ;
#363 = AXIS2_PLACEMENT_3D ( 'NONE', #240, #146, #45 ) ;
#364 = VERTEX_POINT ( 'NONE', #372 ) ;
#365 = CARTESIAN_POINT ( 'NONE',  ( 0.01574642519999999712, 1.928380921919321933E-18, 0.0000000000000000000 ) ) ;
#366 = EDGE_LOOP ( 'NONE', ( #195, #281 ) ) ;
#367 = ADVANCED_FACE ( 'NONE', ( #116 ), #178, .T. ) ;
#368 = PRESENTATION_STYLE_ASSIGNMENT (( #242 ) ) ;
#369 = VERTEX_POINT ( 'NONE', #313 ) ;
#370 = CARTESIAN_POINT ( 'NONE',  ( 0.0000000000000000000, 0.0000000000000000000, 0.0000000000000000000 ) ) ;
#371 = CARTESIAN_POINT ( 'NONE',  ( 0.01476400000000003751, 1.808068534261156644E-18, 0.3149609999999999910 ) ) ;
#372 = CARTESIAN_POINT ( 'NONE',  ( -0.01476400000000000629, 0.0000000000000000000, 0.03706761017589425139 ) ) ;
#373 = CYLINDRICAL_SURFACE ( 'NONE', #225, 0.1181100000000000066 ) ;
#374 = CARTESIAN_POINT ( 'NONE',  ( 0.0000000000000000000, 0.0000000000000000000, 2.229093999999999465 ) ) ;
#375 = VECTOR ( 'NONE', #326, 39.37007874015748854 ) ;
#376 = AXIS2_PLACEMENT_3D ( 'NONE', #48, #203, #272 ) ;
#377 =( NAMED_UNIT ( * ) SI_UNIT ( $, .STERADIAN. ) SOLID_ANGLE_UNIT ( ) );
#378 = ADVANCED_FACE ( 'NONE', ( #341 ), #278, .T. ) ;
#379 = ORIENTED_EDGE ( 'NONE', *, *, #28, .F. ) ;
ENDSEC;
END-ISO-10303-21;
