ISO-10303-21;
HEADER;
FILE_DESCRIPTION (( 'STEP AP214' ),
    '1' );
FILE_NAME ('05247.STEP',
    '2023-06-22T15:59:15',
    ( '' ),
    ( '' ),
    'SwSTEP 2.0',
    'SolidWorks 2023',
    '' );
FILE_SCHEMA (( 'AUTOMOTIVE_DESIGN' ));
ENDSEC;

DATA;
#1 = DIRECTION ( 'NONE',  ( -0.000000000000000000, -1.000000000000000000, -0.000000000000000000 ) ) ;
#2 =( CONVERSION_BASED_UNIT ( 'INCH', #157 ) LENGTH_UNIT ( ) NAMED_UNIT ( #173 ) );
#3 = CARTESIAN_POINT ( 'NONE',  ( -0.1562500000000001388, 3.000000000000000444, 0.000000000000000000 ) ) ;
#4 = AXIS2_PLACEMENT_3D ( 'NONE', #131, #238, #243 ) ;
#5 = SURFACE_STYLE_FILL_AREA ( #207 ) ;
#6 = DIMENSIONAL_EXPONENTS ( 1.000000000000000000, 0.000000000000000000, 0.000000000000000000, 0.000000000000000000, 0.000000000000000000, 0.000000000000000000, 0.000000000000000000 ) ;
#7 = CARTESIAN_POINT ( 'NONE',  ( -6.123233995736772199E-17, 3.000000000000000444, 0.000000000000000000 ) ) ;
#8 = EDGE_LOOP ( 'NONE', ( #112, #242, #88, #42 ) ) ;
#9 = CYLINDRICAL_SURFACE ( 'NONE', #54, 0.1562500000000000278 ) ;
#10 = CARTESIAN_POINT ( 'NONE',  ( 0.000000000000000000, 0.000000000000000000, 0.000000000000000000 ) ) ;
#11 =( NAMED_UNIT ( * ) PLANE_ANGLE_UNIT ( ) SI_UNIT ( $, .RADIAN. ) );
#12 =( NAMED_UNIT ( * ) SI_UNIT ( $, .STERADIAN. ) SOLID_ANGLE_UNIT ( ) );
#13 = DIRECTION ( 'NONE',  ( 0.000000000000000000, 0.000000000000000000, -1.000000000000000000 ) ) ;
#14 = COLOUR_RGB ( '',1.000000000000000000, 0.000000000000000000, 0.000000000000000000 ) ;
#15 = SURFACE_STYLE_USAGE ( .BOTH. , #36 ) ;
#16 = AXIS2_PLACEMENT_3D ( 'NONE', #164, #137, #193 ) ;
#17 =( NAMED_UNIT ( * ) SI_UNIT ( $, .STERADIAN. ) SOLID_ANGLE_UNIT ( ) );
#18 = PLANE ( 'NONE',  #255 ) ;
#19 = DIRECTION ( 'NONE',  ( 0.000000000000000000, 0.000000000000000000, -1.000000000000000000 ) ) ;
#20 =( GEOMETRIC_REPRESENTATION_CONTEXT ( 3 ) GLOBAL_UNCERTAINTY_ASSIGNED_CONTEXT ( ( #44 ) ) GLOBAL_UNIT_ASSIGNED_CONTEXT ( ( #235, #11, #215 ) ) REPRESENTATION_CONTEXT ( 'NONE', 'WORKASPACE' ) );
#21 = MECHANICAL_DESIGN_GEOMETRIC_PRESENTATION_REPRESENTATION (  '', ( #98 ), #256 ) ;
#22 = FILL_AREA_STYLE_COLOUR ( '', #227 ) ;
#23 = EDGE_CURVE ( 'NONE', #269, #50, #97, .T. ) ;
#24 = CARTESIAN_POINT ( 'NONE',  ( 0.000000000000000000, 1.250000000000000000, 0.000000000000000000 ) ) ;
#25 =( CONVERSION_BASED_UNIT ( 'INCH', #202 ) LENGTH_UNIT ( ) NAMED_UNIT ( #6 ) );
#26 = MECHANICAL_DESIGN_GEOMETRIC_PRESENTATION_REPRESENTATION (  '', ( #284 ), #141 ) ;
#27 = MECHANICAL_DESIGN_GEOMETRIC_PRESENTATION_REPRESENTATION (  '', ( #162 ), #41 ) ;
#28 = ORIENTED_EDGE ( 'NONE', *, *, #35, .F. ) ;
#29 = CARTESIAN_POINT ( 'NONE',  ( 0.000000000000000000, 0.000000000000000000, 0.000000000000000000 ) ) ;
#30 = CARTESIAN_POINT ( 'NONE',  ( 0.000000000000000000, 1.250000000000000000, -0.1562500000000000000 ) ) ;
#31 = STYLED_ITEM ( 'NONE', ( #167 ), #105 ) ;
#32 = PRODUCT_DEFINITION ( 'UNKNOWN', '', #291, #165 ) ;
#33 = PRODUCT_CONTEXT ( 'NONE', #127, 'mechanical' ) ;
#34 = EDGE_LOOP ( 'NONE', ( #222, #48 ) ) ;
#35 = EDGE_CURVE ( 'NONE', #250, #248, #224, .T. ) ;
#36 = SURFACE_SIDE_STYLE ('',( #233 ) ) ;
#37 = CARTESIAN_POINT ( 'NONE',  ( 1.913510623667739463E-17, 1.250000000000000000, 0.1562500000000000000 ) ) ;
#38 = AXIS2_PLACEMENT_3D ( 'NONE', #56, #217, #259 ) ;
#39 = ADVANCED_FACE ( 'NONE', ( #85 ), #18, .T. ) ;
#40 = PRESENTATION_STYLE_ASSIGNMENT (( #218 ) ) ;
#41 =( GEOMETRIC_REPRESENTATION_CONTEXT ( 3 ) GLOBAL_UNCERTAINTY_ASSIGNED_CONTEXT ( ( #138 ) ) GLOBAL_UNIT_ASSIGNED_CONTEXT ( ( #159, #106, #17 ) ) REPRESENTATION_CONTEXT ( 'NONE', 'WORKASPACE' ) );
#42 = ORIENTED_EDGE ( 'NONE', *, *, #47, .F. ) ;
#43 = PRESENTATION_STYLE_ASSIGNMENT (( #134 ) ) ;
#44 = UNCERTAINTY_MEASURE_WITH_UNIT (LENGTH_MEASURE( 1.000000000000000082E-05 ), #235, 'distance_accuracy_value', 'NONE');
#45 = DIRECTION ( 'NONE',  ( 0.000000000000000000, -0.000000000000000000, 1.000000000000000000 ) ) ;
#46 = PRESENTATION_LAYER_ASSIGNMENT (  '', '', ( #31 ) ) ;
#47 = EDGE_CURVE ( 'NONE', #248, #250, #109, .T. ) ;
#48 = ORIENTED_EDGE ( 'NONE', *, *, #94, .F. ) ;
#49 = CARTESIAN_POINT ( 'NONE',  ( -6.123233995736772199E-17, 3.000000000000000444, 0.000000000000000000 ) ) ;
#50 = VERTEX_POINT ( 'NONE', #37 ) ;
#51 = APPLICATION_PROTOCOL_DEFINITION ( 'draft international standard', 'automotive_design', 1998, #127 ) ;
#52 = UNCERTAINTY_MEASURE_WITH_UNIT (LENGTH_MEASURE( 1.000000000000000082E-05 ), #73, 'distance_accuracy_value', 'NONE');
#53 = ORIENTED_EDGE ( 'NONE', *, *, #228, .F. ) ;
#54 = AXIS2_PLACEMENT_3D ( 'NONE', #182, #126, #254 ) ;
#55 = FILL_AREA_STYLE_COLOUR ( '', #272 ) ;
#56 = CARTESIAN_POINT ( 'NONE',  ( 0.000000000000000000, 1.250000000000000000, 0.000000000000000000 ) ) ;
#57 = CYLINDRICAL_SURFACE ( 'NONE', #206, 0.1562500000000000000 ) ;
#58 = PRESENTATION_LAYER_ASSIGNMENT (  '', '', ( #263 ) ) ;
#59 = AXIS2_PLACEMENT_3D ( 'NONE', #81, #65, #188 ) ;
#60 = ADVANCED_FACE ( 'NONE', ( #274 ), #9, .T. ) ;
#61 = CIRCLE ( 'NONE', #4, 0.1562500000000000000 ) ;
#62 = SURFACE_STYLE_USAGE ( .BOTH. , #273 ) ;
#63 = FILL_AREA_STYLE_COLOUR ( '', #77 ) ;
#64 = FACE_OUTER_BOUND ( 'NONE', #246, .T. ) ;
#65 = DIRECTION ( 'NONE',  ( 0.000000000000000000, -1.000000000000000000, -0.000000000000000000 ) ) ;
#66 = CARTESIAN_POINT ( 'NONE',  ( 0.000000000000000000, 1.250000000000000000, 0.000000000000000000 ) ) ;
#67 = LINE ( 'NONE', #226, #78 ) ;
#68 = EDGE_CURVE ( 'NONE', #269, #250, #249, .T. ) ;
#69 = ORIENTED_EDGE ( 'NONE', *, *, #103, .F. ) ;
#70 = CARTESIAN_POINT ( 'NONE',  ( 1.913510623667739463E-17, 0.000000000000000000, 0.1562500000000000000 ) ) ;
#71 = DIMENSIONAL_EXPONENTS ( 1.000000000000000000, 0.000000000000000000, 0.000000000000000000, 0.000000000000000000, 0.000000000000000000, 0.000000000000000000, 0.000000000000000000 ) ;
#72 = UNCERTAINTY_MEASURE_WITH_UNIT (LENGTH_MEASURE( 1.000000000000000082E-05 ), #2, 'distance_accuracy_value', 'NONE');
#73 =( CONVERSION_BASED_UNIT ( 'INCH', #195 ) LENGTH_UNIT ( ) NAMED_UNIT ( #71 ) );
#74 = ADVANCED_FACE ( 'NONE', ( #155 ), #128, .F. ) ;
#75 = PRESENTATION_LAYER_ASSIGNMENT (  '', '', ( #284 ) ) ;
#76 = DIRECTION ( 'NONE',  ( -0.000000000000000000, -1.000000000000000000, -0.000000000000000000 ) ) ;
#77 = COLOUR_RGB ( '',1.000000000000000000, 0.000000000000000000, 0.000000000000000000 ) ;
#78 = VECTOR ( 'NONE', #266, 39.37007874015748143 ) ;
#79 = CYLINDRICAL_SURFACE ( 'NONE', #299, 0.1562500000000000278 ) ;
#80 = AXIS2_PLACEMENT_3D ( 'NONE', #66, #107, #184 ) ;
#81 = CARTESIAN_POINT ( 'NONE',  ( 0.000000000000000000, 0.000000000000000000, 0.000000000000000000 ) ) ;
#82 = MANIFOLD_SOLID_BREP ( 'Revolve - Tool Body (Straight Shanked)', #230 ) ;
#83 = SURFACE_STYLE_USAGE ( .BOTH. , #306 ) ;
#84 = UNCERTAINTY_MEASURE_WITH_UNIT (LENGTH_MEASURE( 1.000000000000000082E-05 ), #152, 'distance_accuracy_value', 'NONE');
#85 = FACE_OUTER_BOUND ( 'NONE', #34, .T. ) ;
#86 = PRESENTATION_LAYER_ASSIGNMENT (  '', '', ( #98 ) ) ;
#87 =( LENGTH_UNIT ( ) NAMED_UNIT ( * ) SI_UNIT ( $, .METRE. ) );
#88 = ORIENTED_EDGE ( 'NONE', *, *, #68, .T. ) ;
#89 =( NAMED_UNIT ( * ) PLANE_ANGLE_UNIT ( ) SI_UNIT ( $, .RADIAN. ) );
#90 = MECHANICAL_DESIGN_GEOMETRIC_PRESENTATION_REPRESENTATION (  '', ( #263 ), #20 ) ;
#91 =( NAMED_UNIT ( * ) SI_UNIT ( $, .STERADIAN. ) SOLID_ANGLE_UNIT ( ) );
#92 =( NAMED_UNIT ( * ) PLANE_ANGLE_UNIT ( ) SI_UNIT ( $, .RADIAN. ) );
#93 = CIRCLE ( 'NONE', #38, 0.1562500000000000000 ) ;
#94 = EDGE_CURVE ( 'NONE', #50, #269, #93, .T. ) ;
#95 = FILL_AREA_STYLE_COLOUR ( '', #14 ) ;
#96 =( LENGTH_UNIT ( ) NAMED_UNIT ( * ) SI_UNIT ( $, .METRE. ) );
#97 = CIRCLE ( 'NONE', #80, 0.1562500000000000000 ) ;
#98 = STYLED_ITEM ( 'NONE', ( #43 ), #203 ) ;
#99 = EDGE_CURVE ( 'NONE', #285, #267, #160, .T. ) ;
#100 = FACE_OUTER_BOUND ( 'NONE', #308, .T. ) ;
#101 = UNCERTAINTY_MEASURE_WITH_UNIT (LENGTH_MEASURE( 1.000000000000000082E-05 ), #281, 'distance_accuracy_value', 'NONE');
#102 = EDGE_LOOP ( 'NONE', ( #289, #168 ) ) ;
#103 = EDGE_CURVE ( 'NONE', #208, #143, #118, .T. ) ;
#104 = PRESENTATION_STYLE_ASSIGNMENT (( #83 ) ) ;
#105 = ADVANCED_FACE ( 'NONE', ( #114 ), #201, .T. ) ;
#106 =( NAMED_UNIT ( * ) PLANE_ANGLE_UNIT ( ) SI_UNIT ( $, .RADIAN. ) );
#107 = DIRECTION ( 'NONE',  ( -0.000000000000000000, -1.000000000000000000, -0.000000000000000000 ) ) ;
#108 =( NAMED_UNIT ( * ) SI_UNIT ( $, .STERADIAN. ) SOLID_ANGLE_UNIT ( ) );
#109 = CIRCLE ( 'NONE', #185, 0.1562500000000000000 ) ;
#110 = DIRECTION ( 'NONE',  ( 0.000000000000000000, 1.000000000000000000, 0.000000000000000000 ) ) ;
#111 = CARTESIAN_POINT ( 'NONE',  ( 0.000000000000000000, 1.250000000000000000, 0.000000000000000000 ) ) ;
#112 = ORIENTED_EDGE ( 'NONE', *, *, #275, .F. ) ;
#113 = DIRECTION ( 'NONE',  ( -3.498990854706726443E-17, 1.000000000000000000, -0.000000000000000000 ) ) ;
#114 = FACE_OUTER_BOUND ( 'NONE', #122, .T. ) ;
#115 = ORIENTED_EDGE ( 'NONE', *, *, #304, .F. ) ;
#116 = DIMENSIONAL_EXPONENTS ( 1.000000000000000000, 0.000000000000000000, 0.000000000000000000, 0.000000000000000000, 0.000000000000000000, 0.000000000000000000, 0.000000000000000000 ) ;
#117 = LINE ( 'NONE', #70, #135 ) ;
#118 = CIRCLE ( 'NONE', #301, 0.1562500000000000000 ) ;
#119 =( GEOMETRIC_REPRESENTATION_CONTEXT ( 3 ) GLOBAL_UNCERTAINTY_ASSIGNED_CONTEXT ( ( #52 ) ) GLOBAL_UNIT_ASSIGNED_CONTEXT ( ( #73, #286, #91 ) ) REPRESENTATION_CONTEXT ( 'NONE', 'WORKASPACE' ) );
#120 = CARTESIAN_POINT ( 'NONE',  ( 0.000000000000000000, 0.000000000000000000, 0.000000000000000000 ) ) ;
#121 = DIRECTION ( 'NONE',  ( -1.000000000000000000, 0.000000000000000000, 0.000000000000000000 ) ) ;
#122 = EDGE_LOOP ( 'NONE', ( #204, #199, #28, #151 ) ) ;
#123 = DIRECTION ( 'NONE',  ( 0.000000000000000000, 0.000000000000000000, -1.000000000000000000 ) ) ;
#124 = DIRECTION ( 'NONE',  ( -0.000000000000000000, -1.000000000000000000, -0.000000000000000000 ) ) ;
#125 = VECTOR ( 'NONE', #271, 39.37007874015748143 ) ;
#126 = DIRECTION ( 'NONE',  ( -3.498990854706726443E-17, 1.000000000000000000, -0.000000000000000000 ) ) ;
#127 = APPLICATION_CONTEXT ( 'automotive_design' ) ;
#128 = PLANE ( 'NONE',  #148 ) ;
#129 = ADVANCED_FACE ( 'NONE', ( #180 ), #57, .T. ) ;
#130 = ORIENTED_EDGE ( 'NONE', *, *, #262, .F. ) ;
#131 = CARTESIAN_POINT ( 'NONE',  ( 0.000000000000000000, 1.250000000000000000, 0.000000000000000000 ) ) ;
#132 = ADVANCED_FACE ( 'NONE', ( #64 ), #283, .F. ) ;
#133 = AXIS2_PLACEMENT_3D ( 'NONE', #49, #171, #225 ) ;
#134 = SURFACE_STYLE_USAGE ( .BOTH. , #309 ) ;
#135 = VECTOR ( 'NONE', #229, 39.37007874015748143 ) ;
#136 = APPLICATION_CONTEXT ( 'automotive_design' ) ;
#137 = DIRECTION ( 'NONE',  ( -3.498990854706726443E-17, 1.000000000000000000, 0.000000000000000000 ) ) ;
#138 = UNCERTAINTY_MEASURE_WITH_UNIT (LENGTH_MEASURE( 1.000000000000000082E-05 ), #159, 'distance_accuracy_value', 'NONE');
#139 =( LENGTH_UNIT ( ) NAMED_UNIT ( * ) SI_UNIT ( $, .METRE. ) );
#140 =( NAMED_UNIT ( * ) SI_UNIT ( $, .STERADIAN. ) SOLID_ANGLE_UNIT ( ) );
#141 =( GEOMETRIC_REPRESENTATION_CONTEXT ( 3 ) GLOBAL_UNCERTAINTY_ASSIGNED_CONTEXT ( ( #205 ) ) GLOBAL_UNIT_ASSIGNED_CONTEXT ( ( #25, #92, #287 ) ) REPRESENTATION_CONTEXT ( 'NONE', 'WORKASPACE' ) );
#142 = DIRECTION ( 'NONE',  ( -3.498990854706726443E-17, 1.000000000000000000, -0.000000000000000000 ) ) ;
#143 = VERTEX_POINT ( 'NONE', #244 ) ;
#144 = FILL_AREA_STYLE_COLOUR ( '', #212 ) ;
#145 =( LENGTH_UNIT ( ) NAMED_UNIT ( * ) SI_UNIT ( $, .METRE. ) );
#146 = ORIENTED_EDGE ( 'NONE', *, *, #103, .T. ) ;
#147 = SURFACE_SIDE_STYLE ('',( #5 ) ) ;
#148 = AXIS2_PLACEMENT_3D ( 'NONE', #232, #181, #210 ) ;
#149 = ORIENTED_EDGE ( 'NONE', *, *, #228, .T. ) ;
#150 = LENGTH_MEASURE_WITH_UNIT ( LENGTH_MEASURE( 0.02539999999999999897 ), #293 );
#151 = ORIENTED_EDGE ( 'NONE', *, *, #68, .F. ) ;
#152 =( CONVERSION_BASED_UNIT ( 'INCH', #150 ) LENGTH_UNIT ( ) NAMED_UNIT ( #177 ) );
#153 = EDGE_CURVE ( 'NONE', #143, #285, #67, .T. ) ;
#154 = ORIENTED_EDGE ( 'NONE', *, *, #153, .F. ) ;
#155 = FACE_OUTER_BOUND ( 'NONE', #102, .T. ) ;
#156 = PRESENTATION_STYLE_ASSIGNMENT (( #62 ) ) ;
#157 = LENGTH_MEASURE_WITH_UNIT ( LENGTH_MEASURE( 0.02539999999999999897 ), #87 );
#158 = CARTESIAN_POINT ( 'NONE',  ( 0.1562500000000000000, 1.250000000000000000, 1.913510623667739771E-17 ) ) ;
#159 =( CONVERSION_BASED_UNIT ( 'INCH', #278 ) LENGTH_UNIT ( ) NAMED_UNIT ( #116 ) );
#160 = CIRCLE ( 'NONE', #133, 0.1562500000000000833 ) ;
#161 =( NAMED_UNIT ( * ) PLANE_ANGLE_UNIT ( ) SI_UNIT ( $, .RADIAN. ) );
#162 = STYLED_ITEM ( 'NONE', ( #104 ), #234 ) ;
#163 = CARTESIAN_POINT ( 'NONE',  ( 1.913510623667739463E-17, 0.000000000000000000, 0.1562500000000000000 ) ) ;
#164 = CARTESIAN_POINT ( 'NONE',  ( 9.564794532282272738E-35, 1.250000000000000000, 0.000000000000000000 ) ) ;
#165 = PRODUCT_DEFINITION_CONTEXT ( 'detailed design', #136, 'design' ) ;
#166 = APPLICATION_PROTOCOL_DEFINITION ( 'draft international standard', 'automotive_design', 1998, #136 ) ;
#167 = PRESENTATION_STYLE_ASSIGNMENT (( #197 ) ) ;
#168 = ORIENTED_EDGE ( 'NONE', *, *, #304, .T. ) ;
#169 = DIRECTION ( 'NONE',  ( 0.000000000000000000, 0.000000000000000000, 1.000000000000000000 ) ) ;
#170 = ORIENTED_EDGE ( 'NONE', *, *, #262, .T. ) ;
#171 = DIRECTION ( 'NONE',  ( -3.498990854706726443E-17, 1.000000000000000000, -0.000000000000000000 ) ) ;
#172 = ORIENTED_EDGE ( 'NONE', *, *, #153, .T. ) ;
#173 = DIMENSIONAL_EXPONENTS ( 1.000000000000000000, 0.000000000000000000, 0.000000000000000000, 0.000000000000000000, 0.000000000000000000, 0.000000000000000000, 0.000000000000000000 ) ;
#174 = DIRECTION ( 'NONE',  ( 1.000000000000000000, 0.000000000000000000, 0.000000000000000000 ) ) ;
#175 = PRODUCT ( '05247', '05247', '', ( #33 ) ) ;
#176 = CIRCLE ( 'NONE', #186, 0.1562500000000000833 ) ;
#177 = DIMENSIONAL_EXPONENTS ( 1.000000000000000000, 0.000000000000000000, 0.000000000000000000, 0.000000000000000000, 0.000000000000000000, 0.000000000000000000, 0.000000000000000000 ) ;
#178 = CARTESIAN_POINT ( 'NONE',  ( 0.000000000000000000, 0.000000000000000000, -0.1562500000000000000 ) ) ;
#179 = LENGTH_MEASURE_WITH_UNIT ( LENGTH_MEASURE( 0.02539999999999999897 ), #96 );
#180 = FACE_OUTER_BOUND ( 'NONE', #8, .T. ) ;
#181 = DIRECTION ( 'NONE',  ( 3.498990854706726443E-17, -1.000000000000000000, 0.000000000000000000 ) ) ;
#182 = CARTESIAN_POINT ( 'NONE',  ( -6.123233995736772199E-17, 3.000000000000000444, 0.000000000000000000 ) ) ;
#183 = DIRECTION ( 'NONE',  ( -3.498990854706726443E-17, 1.000000000000000000, -0.000000000000000000 ) ) ;
#184 = DIRECTION ( 'NONE',  ( 0.000000000000000000, 0.000000000000000000, -1.000000000000000000 ) ) ;
#185 = AXIS2_PLACEMENT_3D ( 'NONE', #29, #124, #123 ) ;
#186 = AXIS2_PLACEMENT_3D ( 'NONE', #7, #113, #270 ) ;
#187 = FILL_AREA_STYLE ('',( #22 ) ) ;
#188 = DIRECTION ( 'NONE',  ( 0.000000000000000000, 0.000000000000000000, -1.000000000000000000 ) ) ;
#189 =( LENGTH_UNIT ( ) NAMED_UNIT ( * ) SI_UNIT ( $, .METRE. ) );
#190 = CARTESIAN_POINT ( 'NONE',  ( 0.000000000000000000, 0.000000000000000000, 0.000000000000000000 ) ) ;
#191 = CLOSED_SHELL ( 'NONE', ( #105, #39, #129, #234 ) ) ;
#192 = EDGE_LOOP ( 'NONE', ( #149, #170, #295, #154 ) ) ;
#193 = DIRECTION ( 'NONE',  ( -1.000000000000000000, -3.498990854706726443E-17, 0.000000000000000000 ) ) ;
#194 = VECTOR ( 'NONE', #268, 39.37007874015748143 ) ;
#195 = LENGTH_MEASURE_WITH_UNIT ( LENGTH_MEASURE( 0.02539999999999999897 ), #139 );
#196 = DIMENSIONAL_EXPONENTS ( 1.000000000000000000, 0.000000000000000000, 0.000000000000000000, 0.000000000000000000, 0.000000000000000000, 0.000000000000000000, 0.000000000000000000 ) ;
#197 = SURFACE_STYLE_USAGE ( .BOTH. , #147 ) ;
#198 = CARTESIAN_POINT ( 'NONE',  ( 0.000000000000000000, 0.000000000000000000, 0.000000000000000000 ) ) ;
#199 = ORIENTED_EDGE ( 'NONE', *, *, #275, .T. ) ;
#200 = SHAPE_DEFINITION_REPRESENTATION ( #296, #251 ) ;
#201 = CYLINDRICAL_SURFACE ( 'NONE', #277, 0.1562500000000000000 ) ;
#202 = LENGTH_MEASURE_WITH_UNIT ( LENGTH_MEASURE( 0.02539999999999999897 ), #145 );
#203 = MANIFOLD_SOLID_BREP ( 'Revolve - Cutting Edge', #191 ) ;
#204 = ORIENTED_EDGE ( 'NONE', *, *, #23, .T. ) ;
#205 = UNCERTAINTY_MEASURE_WITH_UNIT (LENGTH_MEASURE( 1.000000000000000082E-05 ), #25, 'distance_accuracy_value', 'NONE');
#206 = AXIS2_PLACEMENT_3D ( 'NONE', #198, #279, #19 ) ;
#207 = FILL_AREA_STYLE ('',( #144 ) ) ;
#208 = VERTEX_POINT ( 'NONE', #158 ) ;
#209 =( LENGTH_UNIT ( ) NAMED_UNIT ( * ) SI_UNIT ( $, .METRE. ) );
#210 = DIRECTION ( 'NONE',  ( 1.000000000000000000, 3.498990854706726443E-17, 0.000000000000000000 ) ) ;
#211 = DIMENSIONAL_EXPONENTS ( 1.000000000000000000, 0.000000000000000000, 0.000000000000000000, 0.000000000000000000, 0.000000000000000000, 0.000000000000000000, 0.000000000000000000 ) ;
#212 = COLOUR_RGB ( '',1.000000000000000000, 0.000000000000000000, 0.000000000000000000 ) ;
#213 = ORIENTED_EDGE ( 'NONE', *, *, #35, .T. ) ;
#214 = FILL_AREA_STYLE ('',( #95 ) ) ;
#215 =( NAMED_UNIT ( * ) SI_UNIT ( $, .STERADIAN. ) SOLID_ANGLE_UNIT ( ) );
#216 = MECHANICAL_DESIGN_GEOMETRIC_PRESENTATION_REPRESENTATION (  '', ( #31 ), #290 ) ;
#217 = DIRECTION ( 'NONE',  ( -0.000000000000000000, -1.000000000000000000, -0.000000000000000000 ) ) ;
#218 = SURFACE_STYLE_USAGE ( .BOTH. , #282 ) ;
#219 =( NAMED_UNIT ( * ) PLANE_ANGLE_UNIT ( ) SI_UNIT ( $, .RADIAN. ) );
#220 = STYLED_ITEM ( 'NONE', ( #156 ), #129 ) ;
#221 = COLOUR_RGB ( '',0.7921568627450980005, 0.8196078431372548767, 0.9333333333333333481 ) ;
#222 = ORIENTED_EDGE ( 'NONE', *, *, #23, .F. ) ;
#223 = FILL_AREA_STYLE ('',( #261 ) ) ;
#224 = CIRCLE ( 'NONE', #240, 0.1562500000000000000 ) ;
#225 = DIRECTION ( 'NONE',  ( -1.000000000000000000, 0.000000000000000000, 0.000000000000000000 ) ) ;
#226 = CARTESIAN_POINT ( 'NONE',  ( -0.1562500000000001110, 3.000000000000000444, 0.000000000000000000 ) ) ;
#227 = COLOUR_RGB ( '',1.000000000000000000, 0.000000000000000000, 0.000000000000000000 ) ;
#228 = EDGE_CURVE ( 'NONE', #143, #208, #61, .T. ) ;
#229 = DIRECTION ( 'NONE',  ( -0.000000000000000000, -1.000000000000000000, -0.000000000000000000 ) ) ;
#230 = CLOSED_SHELL ( 'NONE', ( #252, #132, #60, #74 ) ) ;
#231 = ORIENTED_EDGE ( 'NONE', *, *, #47, .T. ) ;
#232 = CARTESIAN_POINT ( 'NONE',  ( 0.1562500000000000000, 3.000000000000000444, 0.000000000000000000 ) ) ;
#233 = SURFACE_STYLE_FILL_AREA ( #298 ) ;
#234 = ADVANCED_FACE ( 'NONE', ( #100 ), #307, .T. ) ;
#235 =( CONVERSION_BASED_UNIT ( 'INCH', #179 ) LENGTH_UNIT ( ) NAMED_UNIT ( #211 ) );
#236 = MECHANICAL_DESIGN_GEOMETRIC_PRESENTATION_REPRESENTATION (  '', ( #220 ), #237 ) ;
#237 =( GEOMETRIC_REPRESENTATION_CONTEXT ( 3 ) GLOBAL_UNCERTAINTY_ASSIGNED_CONTEXT ( ( #101 ) ) GLOBAL_UNIT_ASSIGNED_CONTEXT ( ( #281, #161, #108 ) ) REPRESENTATION_CONTEXT ( 'NONE', 'WORKASPACE' ) );
#238 = DIRECTION ( 'NONE',  ( -3.498990854706726443E-17, 1.000000000000000000, -0.000000000000000000 ) ) ;
#239 = SURFACE_STYLE_FILL_AREA ( #187 ) ;
#240 = AXIS2_PLACEMENT_3D ( 'NONE', #190, #1, #265 ) ;
#241 = AXIS2_PLACEMENT_3D ( 'NONE', #120, #169, #174 ) ;
#242 = ORIENTED_EDGE ( 'NONE', *, *, #94, .T. ) ;
#243 = DIRECTION ( 'NONE',  ( -1.000000000000000000, 0.000000000000000000, 0.000000000000000000 ) ) ;
#244 = CARTESIAN_POINT ( 'NONE',  ( -0.1562500000000000000, 1.250000000000000000, 0.000000000000000000 ) ) ;
#245 = LENGTH_MEASURE_WITH_UNIT ( LENGTH_MEASURE( 0.02539999999999999897 ), #189 );
#246 = EDGE_LOOP ( 'NONE', ( #53, #69 ) ) ;
#247 = EDGE_LOOP ( 'NONE', ( #130, #146, #172, #115 ) ) ;
#248 = VERTEX_POINT ( 'NONE', #163 ) ;
#249 = LINE ( 'NONE', #178, #125 ) ;
#250 = VERTEX_POINT ( 'NONE', #302 ) ;
#251 = ADVANCED_BREP_SHAPE_REPRESENTATION ( '05247', ( #203, #82, #241 ), #119 ) ;
#252 = ADVANCED_FACE ( 'NONE', ( #280 ), #79, .T. ) ;
#253 = PRESENTATION_STYLE_ASSIGNMENT (( #15 ) ) ;
#254 = DIRECTION ( 'NONE',  ( -1.000000000000000000, 0.000000000000000000, 0.000000000000000000 ) ) ;
#255 = AXIS2_PLACEMENT_3D ( 'NONE', #111, #110, #45 ) ;
#256 =( GEOMETRIC_REPRESENTATION_CONTEXT ( 3 ) GLOBAL_UNCERTAINTY_ASSIGNED_CONTEXT ( ( #72 ) ) GLOBAL_UNIT_ASSIGNED_CONTEXT ( ( #2, #219, #140 ) ) REPRESENTATION_CONTEXT ( 'NONE', 'WORKASPACE' ) );
#257 = FILL_AREA_STYLE ('',( #63 ) ) ;
#258 = SURFACE_STYLE_FILL_AREA ( #223 ) ;
#259 = DIRECTION ( 'NONE',  ( 0.000000000000000000, 0.000000000000000000, -1.000000000000000000 ) ) ;
#260 = CARTESIAN_POINT ( 'NONE',  ( -6.123233995736772199E-17, 3.000000000000000444, 0.000000000000000000 ) ) ;
#261 = FILL_AREA_STYLE_COLOUR ( '', #221 ) ;
#262 = EDGE_CURVE ( 'NONE', #208, #267, #303, .T. ) ;
#263 = STYLED_ITEM ( 'NONE', ( #253 ), #82 ) ;
#264 = SURFACE_STYLE_FILL_AREA ( #257 ) ;
#265 = DIRECTION ( 'NONE',  ( 0.000000000000000000, 0.000000000000000000, -1.000000000000000000 ) ) ;
#266 = DIRECTION ( 'NONE',  ( -3.498990854706726443E-17, 1.000000000000000000, -0.000000000000000000 ) ) ;
#267 = VERTEX_POINT ( 'NONE', #292 ) ;
#268 = DIRECTION ( 'NONE',  ( -3.498990854706726443E-17, 1.000000000000000000, -0.000000000000000000 ) ) ;
#269 = VERTEX_POINT ( 'NONE', #30 ) ;
#270 = DIRECTION ( 'NONE',  ( -1.000000000000000000, 0.000000000000000000, 0.000000000000000000 ) ) ;
#271 = DIRECTION ( 'NONE',  ( -0.000000000000000000, -1.000000000000000000, -0.000000000000000000 ) ) ;
#272 = COLOUR_RGB ( '',0.7921568627450980005, 0.8196078431372548767, 0.9333333333333333481 ) ;
#273 = SURFACE_SIDE_STYLE ('',( #300 ) ) ;
#274 = FACE_OUTER_BOUND ( 'NONE', #247, .T. ) ;
#275 = EDGE_CURVE ( 'NONE', #50, #248, #117, .T. ) ;
#276 = DIRECTION ( 'NONE',  ( -1.000000000000000000, 0.000000000000000000, 0.000000000000000000 ) ) ;
#277 = AXIS2_PLACEMENT_3D ( 'NONE', #10, #76, #13 ) ;
#278 = LENGTH_MEASURE_WITH_UNIT ( LENGTH_MEASURE( 0.02539999999999999897 ), #209 );
#279 = DIRECTION ( 'NONE',  ( -0.000000000000000000, -1.000000000000000000, -0.000000000000000000 ) ) ;
#280 = FACE_OUTER_BOUND ( 'NONE', #192, .T. ) ;
#281 =( CONVERSION_BASED_UNIT ( 'INCH', #245 ) LENGTH_UNIT ( ) NAMED_UNIT ( #196 ) );
#282 = SURFACE_SIDE_STYLE ('',( #264 ) ) ;
#283 = PLANE ( 'NONE',  #16 ) ;
#284 = STYLED_ITEM ( 'NONE', ( #40 ), #39 ) ;
#285 = VERTEX_POINT ( 'NONE', #3 ) ;
#286 =( NAMED_UNIT ( * ) PLANE_ANGLE_UNIT ( ) SI_UNIT ( $, .RADIAN. ) );
#287 =( NAMED_UNIT ( * ) SI_UNIT ( $, .STERADIAN. ) SOLID_ANGLE_UNIT ( ) );
#288 = PRODUCT_RELATED_PRODUCT_CATEGORY ( 'part', '', ( #175 ) ) ;
#289 = ORIENTED_EDGE ( 'NONE', *, *, #99, .T. ) ;
#290 =( GEOMETRIC_REPRESENTATION_CONTEXT ( 3 ) GLOBAL_UNCERTAINTY_ASSIGNED_CONTEXT ( ( #84 ) ) GLOBAL_UNIT_ASSIGNED_CONTEXT ( ( #152, #89, #12 ) ) REPRESENTATION_CONTEXT ( 'NONE', 'WORKASPACE' ) );
#291 = PRODUCT_DEFINITION_FORMATION_WITH_SPECIFIED_SOURCE ( 'ANY', '', #175, .NOT_KNOWN. ) ;
#292 = CARTESIAN_POINT ( 'NONE',  ( 0.1562500000000000000, 3.000000000000000444, 1.913510623667739771E-17 ) ) ;
#293 =( LENGTH_UNIT ( ) NAMED_UNIT ( * ) SI_UNIT ( $, .METRE. ) );
#294 = CARTESIAN_POINT ( 'NONE',  ( 0.1562499999999999722, 3.000000000000000444, 1.913510623667739771E-17 ) ) ;
#295 = ORIENTED_EDGE ( 'NONE', *, *, #99, .F. ) ;
#296 = PRODUCT_DEFINITION_SHAPE ( 'NONE', 'NONE',  #32 ) ;
#297 = PRESENTATION_LAYER_ASSIGNMENT (  '', '', ( #220 ) ) ;
#298 = FILL_AREA_STYLE ('',( #55 ) ) ;
#299 = AXIS2_PLACEMENT_3D ( 'NONE', #260, #183, #276 ) ;
#300 = SURFACE_STYLE_FILL_AREA ( #214 ) ;
#301 = AXIS2_PLACEMENT_3D ( 'NONE', #24, #142, #121 ) ;
#302 = CARTESIAN_POINT ( 'NONE',  ( 0.000000000000000000, 0.000000000000000000, -0.1562500000000000000 ) ) ;
#303 = LINE ( 'NONE', #294, #194 ) ;
#304 = EDGE_CURVE ( 'NONE', #267, #285, #176, .T. ) ;
#305 = PRESENTATION_LAYER_ASSIGNMENT (  '', '', ( #162 ) ) ;
#306 = SURFACE_SIDE_STYLE ('',( #239 ) ) ;
#307 = PLANE ( 'NONE',  #59 ) ;
#308 = EDGE_LOOP ( 'NONE', ( #213, #231 ) ) ;
#309 = SURFACE_SIDE_STYLE ('',( #258 ) ) ;
ENDSEC;
END-ISO-10303-21;
