ISO-10303-21;
HEADER;
FILE_DESCRIPTION (( 'STEP AP214' ),
    '1' );
FILE_NAME ('84418.STEP',
    '2023-06-23T13:06:43',
    ( '' ),
    ( '' ),
    'SwSTEP 2.0',
    'SolidWorks 2023',
    '' );
FILE_SCHEMA (( 'AUTOMOTIVE_DESIGN' ));
ENDSEC;

DATA;
#1 = FACE_OUTER_BOUND ( 'NONE', #108, .T. ) ;
#2 = AXIS2_PLACEMENT_3D ( 'NONE', #281, #301, #167 ) ;
#3 = UNCERTAINTY_MEASURE_WITH_UNIT (LENGTH_MEASURE( 1.000000000000000082E-05 ), #138, 'distance_accuracy_value', 'NONE');
#4 = FILL_AREA_STYLE ('',( #236 ) ) ;
#5 = ORIENTED_EDGE ( 'NONE', *, *, #35, .F. ) ;
#6 = ORIENTED_EDGE ( 'NONE', *, *, #123, .F. ) ;
#7 = AXIS2_PLACEMENT_3D ( 'NONE', #112, #14, #297 ) ;
#8 = DIRECTION ( 'NONE',  ( -0.000000000000000000, -1.000000000000000000, -0.000000000000000000 ) ) ;
#9 = VERTEX_POINT ( 'NONE', #296 ) ;
#10 = ORIENTED_EDGE ( 'NONE', *, *, #238, .T. ) ;
#11 = CIRCLE ( 'NONE', #278, 0.09375000000000001388 ) ;
#12 = APPLICATION_PROTOCOL_DEFINITION ( 'draft international standard', 'automotive_design', 1998, #264 ) ;
#13 = CARTESIAN_POINT ( 'NONE',  ( 0.000000000000000000, 0.3125000000000000000, 0.000000000000000000 ) ) ;
#14 = DIRECTION ( 'NONE',  ( -0.000000000000000000, -1.000000000000000000, -0.000000000000000000 ) ) ;
#15 = EDGE_CURVE ( 'NONE', #9, #173, #272, .T. ) ;
#16 = FILL_AREA_STYLE_COLOUR ( '', #181 ) ;
#17 =( CONVERSION_BASED_UNIT ( 'INCH', #205 ) LENGTH_UNIT ( ) NAMED_UNIT ( #69 ) );
#18 = STYLED_ITEM ( 'NONE', ( #243 ), #226 ) ;
#19 = DIRECTION ( 'NONE',  ( -1.000000000000000000, 0.000000000000000000, 0.000000000000000000 ) ) ;
#20 = SURFACE_STYLE_USAGE ( .BOTH. , #67 ) ;
#21 = DIMENSIONAL_EXPONENTS ( 1.000000000000000000, 0.000000000000000000, 0.000000000000000000, 0.000000000000000000, 0.000000000000000000, 0.000000000000000000, 0.000000000000000000 ) ;
#22 = PRODUCT ( '84418', '84418', '', ( #114 ) ) ;
#23 = LENGTH_MEASURE_WITH_UNIT ( LENGTH_MEASURE( 0.02539999999999999897 ), #308 );
#24 = DIRECTION ( 'NONE',  ( 3.628583108584750472E-17, 1.000000000000000000, -0.000000000000000000 ) ) ;
#25 = LINE ( 'NONE', #121, #195 ) ;
#26 = COLOUR_RGB ( '',1.000000000000000000, 0.000000000000000000, 0.000000000000000000 ) ;
#27 = DIRECTION ( 'NONE',  ( 0.000000000000000000, 0.000000000000000000, -1.000000000000000000 ) ) ;
#28 = FACE_OUTER_BOUND ( 'NONE', #102, .T. ) ;
#29 = PRODUCT_DEFINITION_CONTEXT ( 'detailed design', #270, 'design' ) ;
#30 = PLANE ( 'NONE',  #157 ) ;
#31 = MANIFOLD_SOLID_BREP ( 'Revolve - Cutting Edge', #146 ) ;
#32 = ORIENTED_EDGE ( 'NONE', *, *, #128, .F. ) ;
#33 = ORIENTED_EDGE ( 'NONE', *, *, #290, .F. ) ;
#34 = PRESENTATION_STYLE_ASSIGNMENT (( #151 ) ) ;
#35 = EDGE_CURVE ( 'NONE', #156, #294, #139, .T. ) ;
#36 = ORIENTED_EDGE ( 'NONE', *, *, #158, .T. ) ;
#37 =( GEOMETRIC_REPRESENTATION_CONTEXT ( 3 ) GLOBAL_UNCERTAINTY_ASSIGNED_CONTEXT ( ( #120 ) ) GLOBAL_UNIT_ASSIGNED_CONTEXT ( ( #117, #202, #235 ) ) REPRESENTATION_CONTEXT ( 'NONE', 'WORKASPACE' ) );
#38 = EDGE_LOOP ( 'NONE', ( #149, #175, #268, #201 ) ) ;
#39 = CARTESIAN_POINT ( 'NONE',  ( 0.000000000000000000, 0.000000000000000000, 0.000000000000000000 ) ) ;
#40 = SURFACE_SIDE_STYLE ('',( #89 ) ) ;
#41 = EDGE_CURVE ( 'NONE', #58, #294, #210, .T. ) ;
#42 = COLOUR_RGB ( '',1.000000000000000000, 0.000000000000000000, 0.000000000000000000 ) ;
#43 = CARTESIAN_POINT ( 'NONE',  ( 0.000000000000000000, 0.000000000000000000, 0.000000000000000000 ) ) ;
#44 = LENGTH_MEASURE_WITH_UNIT ( LENGTH_MEASURE( 0.02539999999999999897 ), #252 );
#45 = CARTESIAN_POINT ( 'NONE',  ( -0.09375000000000001388, 0.3125000000000000000, 0.000000000000000000 ) ) ;
#46 = DIRECTION ( 'NONE',  ( -1.000000000000000000, 0.000000000000000000, 0.000000000000000000 ) ) ;
#47 = AXIS2_PLACEMENT_3D ( 'NONE', #63, #24, #309 ) ;
#48 = DIMENSIONAL_EXPONENTS ( 1.000000000000000000, 0.000000000000000000, 0.000000000000000000, 0.000000000000000000, 0.000000000000000000, 0.000000000000000000, 0.000000000000000000 ) ;
#49 = PLANE ( 'NONE',  #136 ) ;
#50 =( LENGTH_UNIT ( ) NAMED_UNIT ( * ) SI_UNIT ( $, .METRE. ) );
#51 =( NAMED_UNIT ( * ) PLANE_ANGLE_UNIT ( ) SI_UNIT ( $, .RADIAN. ) );
#52 = SURFACE_SIDE_STYLE ('',( #68 ) ) ;
#53 = PRESENTATION_STYLE_ASSIGNMENT (( #216 ) ) ;
#54 = LENGTH_MEASURE_WITH_UNIT ( LENGTH_MEASURE( 0.02539999999999999897 ), #212 );
#55 = CARTESIAN_POINT ( 'NONE',  ( 0.09375000000000001388, 0.3125000000000000000, 1.148106374200643401E-17 ) ) ;
#56 =( LENGTH_UNIT ( ) NAMED_UNIT ( * ) SI_UNIT ( $, .METRE. ) );
#57 = AXIS2_PLACEMENT_3D ( 'NONE', #159, #282, #141 ) ;
#58 = VERTEX_POINT ( 'NONE', #55 ) ;
#59 = EDGE_LOOP ( 'NONE', ( #79, #106 ) ) ;
#60 = ORIENTED_EDGE ( 'NONE', *, *, #15, .F. ) ;
#61 = PRESENTATION_LAYER_ASSIGNMENT (  '', '', ( #188 ) ) ;
#62 = CARTESIAN_POINT ( 'NONE',  ( -0.09374999999999990286, 2.000000000000000000, 0.000000000000000000 ) ) ;
#63 = CARTESIAN_POINT ( 'NONE',  ( 6.123233995736766036E-17, 2.000000000000000000, 0.000000000000000000 ) ) ;
#64 =( NAMED_UNIT ( * ) SI_UNIT ( $, .STERADIAN. ) SOLID_ANGLE_UNIT ( ) );
#65 = VECTOR ( 'NONE', #8, 39.37007874015748143 ) ;
#66 = DIRECTION ( 'NONE',  ( 3.628583108584750472E-17, 1.000000000000000000, -0.000000000000000000 ) ) ;
#67 = SURFACE_SIDE_STYLE ('',( #298 ) ) ;
#68 = SURFACE_STYLE_FILL_AREA ( #215 ) ;
#69 = DIMENSIONAL_EXPONENTS ( 1.000000000000000000, 0.000000000000000000, 0.000000000000000000, 0.000000000000000000, 0.000000000000000000, 0.000000000000000000, 0.000000000000000000 ) ;
#70 = CARTESIAN_POINT ( 'NONE',  ( 0.000000000000000000, 0.3125000000000000000, 0.000000000000000000 ) ) ;
#71 = DIRECTION ( 'NONE',  ( -1.000000000000000000, 0.000000000000000000, 0.000000000000000000 ) ) ;
#72 = ADVANCED_FACE ( 'NONE', ( #261 ), #99, .T. ) ;
#73 =( CONVERSION_BASED_UNIT ( 'INCH', #54 ) LENGTH_UNIT ( ) NAMED_UNIT ( #21 ) );
#74 = CARTESIAN_POINT ( 'NONE',  ( 0.000000000000000000, 0.000000000000000000, 0.000000000000000000 ) ) ;
#75 = CARTESIAN_POINT ( 'NONE',  ( 6.123233995736766036E-17, 2.000000000000000000, 0.000000000000000000 ) ) ;
#76 =( CONVERSION_BASED_UNIT ( 'INCH', #286 ) LENGTH_UNIT ( ) NAMED_UNIT ( #160 ) );
#77 = AXIS2_PLACEMENT_3D ( 'NONE', #70, #305, #19 ) ;
#78 = FILL_AREA_STYLE_COLOUR ( '', #295 ) ;
#79 = ORIENTED_EDGE ( 'NONE', *, *, #35, .T. ) ;
#80 = ORIENTED_EDGE ( 'NONE', *, *, #41, .T. ) ;
#81 = FILL_AREA_STYLE ('',( #166 ) ) ;
#82 = PRESENTATION_LAYER_ASSIGNMENT (  '', '', ( #223 ) ) ;
#83 =( NAMED_UNIT ( * ) SI_UNIT ( $, .STERADIAN. ) SOLID_ANGLE_UNIT ( ) );
#84 = FACE_OUTER_BOUND ( 'NONE', #38, .T. ) ;
#85 = AXIS2_PLACEMENT_3D ( 'NONE', #262, #127, #214 ) ;
#86 = CARTESIAN_POINT ( 'NONE',  ( 6.123233995736766036E-17, 2.000000000000000000, 0.000000000000000000 ) ) ;
#87 =( CONVERSION_BASED_UNIT ( 'INCH', #229 ) LENGTH_UNIT ( ) NAMED_UNIT ( #179 ) );
#88 = CARTESIAN_POINT ( 'NONE',  ( 0.09375000000000001388, 2.000000000000000000, 1.148106374200643401E-17 ) ) ;
#89 = SURFACE_STYLE_FILL_AREA ( #211 ) ;
#90 = DIMENSIONAL_EXPONENTS ( 1.000000000000000000, 0.000000000000000000, 0.000000000000000000, 0.000000000000000000, 0.000000000000000000, 0.000000000000000000, 0.000000000000000000 ) ;
#91 = DIRECTION ( 'NONE',  ( 1.000000000000000000, -3.628583108584750472E-17, 0.000000000000000000 ) ) ;
#92 = STYLED_ITEM ( 'NONE', ( #185 ), #31 ) ;
#93 = CIRCLE ( 'NONE', #143, 0.09375000000000001388 ) ;
#94 = DIRECTION ( 'NONE',  ( 3.628583108584750472E-17, 1.000000000000000000, -0.000000000000000000 ) ) ;
#95 = PRODUCT_DEFINITION_FORMATION_WITH_SPECIFIED_SOURCE ( 'ANY', '', #22, .NOT_KNOWN. ) ;
#96 = CARTESIAN_POINT ( 'NONE',  ( 6.171850957456205586E-35, 0.3125000000000000000, 0.000000000000000000 ) ) ;
#97 = DIRECTION ( 'NONE',  ( 0.000000000000000000, 0.000000000000000000, -1.000000000000000000 ) ) ;
#98 = EDGE_CURVE ( 'NONE', #9, #130, #11, .T. ) ;
#99 = CYLINDRICAL_SURFACE ( 'NONE', #267, 0.09374999999999997224 ) ;
#100 = MECHANICAL_DESIGN_GEOMETRIC_PRESENTATION_REPRESENTATION (  '', ( #188 ), #274 ) ;
#101 = CYLINDRICAL_SURFACE ( 'NONE', #85, 0.09375000000000001388 ) ;
#102 = EDGE_LOOP ( 'NONE', ( #10, #275 ) ) ;
#103 = VECTOR ( 'NONE', #118, 39.37007874015748143 ) ;
#104 = ORIENTED_EDGE ( 'NONE', *, *, #158, .F. ) ;
#105 = UNCERTAINTY_MEASURE_WITH_UNIT (LENGTH_MEASURE( 1.000000000000000082E-05 ), #87, 'distance_accuracy_value', 'NONE');
#106 = ORIENTED_EDGE ( 'NONE', *, *, #220, .T. ) ;
#107 =( LENGTH_UNIT ( ) NAMED_UNIT ( * ) SI_UNIT ( $, .METRE. ) );
#108 = EDGE_LOOP ( 'NONE', ( #60, #132, #152, #109 ) ) ;
#109 = ORIENTED_EDGE ( 'NONE', *, *, #161, .F. ) ;
#110 = DIRECTION ( 'NONE',  ( 0.000000000000000000, 0.000000000000000000, -1.000000000000000000 ) ) ;
#111 = ADVANCED_FACE ( 'NONE', ( #28 ), #122, .T. ) ;
#112 = CARTESIAN_POINT ( 'NONE',  ( 0.000000000000000000, 0.000000000000000000, 0.000000000000000000 ) ) ;
#113 = CIRCLE ( 'NONE', #154, 0.09375000000000001388 ) ;
#114 = PRODUCT_CONTEXT ( 'NONE', #264, 'mechanical' ) ;
#115 = CARTESIAN_POINT ( 'NONE',  ( 0.000000000000000000, 0.3125000000000000000, -0.09375000000000001388 ) ) ;
#116 = FILL_AREA_STYLE ('',( #255 ) ) ;
#117 =( CONVERSION_BASED_UNIT ( 'INCH', #23 ) LENGTH_UNIT ( ) NAMED_UNIT ( #302 ) );
#118 = DIRECTION ( 'NONE',  ( 3.628583108584750472E-17, 1.000000000000000000, -0.000000000000000000 ) ) ;
#119 =( GEOMETRIC_REPRESENTATION_CONTEXT ( 3 ) GLOBAL_UNCERTAINTY_ASSIGNED_CONTEXT ( ( #105 ) ) GLOBAL_UNIT_ASSIGNED_CONTEXT ( ( #87, #177, #134 ) ) REPRESENTATION_CONTEXT ( 'NONE', 'WORKASPACE' ) );
#120 = UNCERTAINTY_MEASURE_WITH_UNIT (LENGTH_MEASURE( 1.000000000000000082E-05 ), #117, 'distance_accuracy_value', 'NONE');
#121 = CARTESIAN_POINT ( 'NONE',  ( 0.000000000000000000, 0.000000000000000000, -0.09375000000000001388 ) ) ;
#122 = PLANE ( 'NONE',  #147 ) ;
#123 = EDGE_CURVE ( 'NONE', #225, #156, #300, .T. ) ;
#124 = SURFACE_STYLE_USAGE ( .BOTH. , #40 ) ;
#125 = COLOUR_RGB ( '',0.7921568627450980005, 0.8196078431372548767, 0.9333333333333333481 ) ;
#126 = AXIS2_PLACEMENT_3D ( 'NONE', #178, #280, #204 ) ;
#127 = DIRECTION ( 'NONE',  ( -0.000000000000000000, -1.000000000000000000, -0.000000000000000000 ) ) ;
#128 = EDGE_CURVE ( 'NONE', #58, #225, #254, .T. ) ;
#129 = ORIENTED_EDGE ( 'NONE', *, *, #98, .F. ) ;
#130 = VERTEX_POINT ( 'NONE', #115 ) ;
#131 = ORIENTED_EDGE ( 'NONE', *, *, #213, .F. ) ;
#132 = ORIENTED_EDGE ( 'NONE', *, *, #98, .T. ) ;
#133 = LENGTH_MEASURE_WITH_UNIT ( LENGTH_MEASURE( 0.02539999999999999897 ), #107 );
#134 =( NAMED_UNIT ( * ) SI_UNIT ( $, .STERADIAN. ) SOLID_ANGLE_UNIT ( ) );
#135 = MECHANICAL_DESIGN_GEOMETRIC_PRESENTATION_REPRESENTATION (  '', ( #92 ), #248 ) ;
#136 = AXIS2_PLACEMENT_3D ( 'NONE', #307, #180, #91 ) ;
#137 = DIRECTION ( 'NONE',  ( 1.000000000000000000, 0.000000000000000000, 0.000000000000000000 ) ) ;
#138 =( CONVERSION_BASED_UNIT ( 'INCH', #44 ) LENGTH_UNIT ( ) NAMED_UNIT ( #90 ) );
#139 = CIRCLE ( 'NONE', #47, 0.09374999999999994449 ) ;
#140 = SURFACE_STYLE_FILL_AREA ( #116 ) ;
#141 = DIRECTION ( 'NONE',  ( -1.000000000000000000, 0.000000000000000000, 0.000000000000000000 ) ) ;
#142 = CIRCLE ( 'NONE', #57, 0.09374999999999994449 ) ;
#143 = AXIS2_PLACEMENT_3D ( 'NONE', #74, #237, #27 ) ;
#144 = UNCERTAINTY_MEASURE_WITH_UNIT (LENGTH_MEASURE( 1.000000000000000082E-05 ), #76, 'distance_accuracy_value', 'NONE');
#145 = SURFACE_STYLE_USAGE ( .BOTH. , #52 ) ;
#146 = CLOSED_SHELL ( 'NONE', ( #277, #221, #226, #111 ) ) ;
#147 = AXIS2_PLACEMENT_3D ( 'NONE', #43, #199, #110 ) ;
#148 = AXIS2_PLACEMENT_3D ( 'NONE', #86, #66, #46 ) ;
#149 = ORIENTED_EDGE ( 'NONE', *, *, #41, .F. ) ;
#150 = DIRECTION ( 'NONE',  ( 0.000000000000000000, 0.000000000000000000, -1.000000000000000000 ) ) ;
#151 = SURFACE_STYLE_USAGE ( .BOTH. , #191 ) ;
#152 = ORIENTED_EDGE ( 'NONE', *, *, #213, .T. ) ;
#153 = FACE_OUTER_BOUND ( 'NONE', #292, .T. ) ;
#154 = AXIS2_PLACEMENT_3D ( 'NONE', #306, #293, #150 ) ;
#155 = DIRECTION ( 'NONE',  ( 3.628583108584750472E-17, 1.000000000000000000, -0.000000000000000000 ) ) ;
#156 = VERTEX_POINT ( 'NONE', #209 ) ;
#157 = AXIS2_PLACEMENT_3D ( 'NONE', #13, #187, #263 ) ;
#158 = EDGE_CURVE ( 'NONE', #225, #58, #219, .T. ) ;
#159 = CARTESIAN_POINT ( 'NONE',  ( 6.123233995736766036E-17, 2.000000000000000000, 0.000000000000000000 ) ) ;
#160 = DIMENSIONAL_EXPONENTS ( 1.000000000000000000, 0.000000000000000000, 0.000000000000000000, 0.000000000000000000, 0.000000000000000000, 0.000000000000000000, 0.000000000000000000 ) ;
#161 = EDGE_CURVE ( 'NONE', #173, #174, #93, .T. ) ;
#162 = PLANE ( 'NONE',  #304 ) ;
#163 = CARTESIAN_POINT ( 'NONE',  ( 0.09375000000000004163, 2.000000000000000000, 1.148106374200643247E-17 ) ) ;
#164 = ADVANCED_FACE ( 'NONE', ( #186 ), #49, .F. ) ;
#165 = DIRECTION ( 'NONE',  ( 3.628583108584750472E-17, 1.000000000000000000, -0.000000000000000000 ) ) ;
#166 = FILL_AREA_STYLE_COLOUR ( '', #125 ) ;
#167 = DIRECTION ( 'NONE',  ( -1.000000000000000000, 0.000000000000000000, 0.000000000000000000 ) ) ;
#168 = COLOUR_RGB ( '',1.000000000000000000, 0.000000000000000000, 0.000000000000000000 ) ;
#169 = PRODUCT_DEFINITION_SHAPE ( 'NONE', 'NONE',  #291 ) ;
#170 = UNCERTAINTY_MEASURE_WITH_UNIT (LENGTH_MEASURE( 1.000000000000000082E-05 ), #17, 'distance_accuracy_value', 'NONE');
#171 =( NAMED_UNIT ( * ) PLANE_ANGLE_UNIT ( ) SI_UNIT ( $, .RADIAN. ) );
#172 = STYLED_ITEM ( 'NONE', ( #242 ), #221 ) ;
#173 = VERTEX_POINT ( 'NONE', #183 ) ;
#174 = VERTEX_POINT ( 'NONE', #284 ) ;
#175 = ORIENTED_EDGE ( 'NONE', *, *, #128, .T. ) ;
#176 = ADVANCED_FACE ( 'NONE', ( #285 ), #162, .F. ) ;
#177 =( NAMED_UNIT ( * ) PLANE_ANGLE_UNIT ( ) SI_UNIT ( $, .RADIAN. ) );
#178 = CARTESIAN_POINT ( 'NONE',  ( 0.000000000000000000, 0.3125000000000000000, 0.000000000000000000 ) ) ;
#179 = DIMENSIONAL_EXPONENTS ( 1.000000000000000000, 0.000000000000000000, 0.000000000000000000, 0.000000000000000000, 0.000000000000000000, 0.000000000000000000, 0.000000000000000000 ) ;
#180 = DIRECTION ( 'NONE',  ( -3.628583108584750472E-17, -1.000000000000000000, 0.000000000000000000 ) ) ;
#181 = COLOUR_RGB ( '',0.7921568627450980005, 0.8196078431372548767, 0.9333333333333333481 ) ;
#182 = VECTOR ( 'NONE', #155, 39.37007874015748143 ) ;
#183 = CARTESIAN_POINT ( 'NONE',  ( 1.148106374200643863E-17, 0.000000000000000000, 0.09375000000000001388 ) ) ;
#184 = DIRECTION ( 'NONE',  ( -0.000000000000000000, -1.000000000000000000, -0.000000000000000000 ) ) ;
#185 = PRESENTATION_STYLE_ASSIGNMENT (( #124 ) ) ;
#186 = FACE_OUTER_BOUND ( 'NONE', #59, .T. ) ;
#187 = DIRECTION ( 'NONE',  ( 0.000000000000000000, 1.000000000000000000, 0.000000000000000000 ) ) ;
#188 = STYLED_ITEM ( 'NONE', ( #208 ), #277 ) ;
#189 =( GEOMETRIC_REPRESENTATION_CONTEXT ( 3 ) GLOBAL_UNCERTAINTY_ASSIGNED_CONTEXT ( ( #3 ) ) GLOBAL_UNIT_ASSIGNED_CONTEXT ( ( #138, #231, #83 ) ) REPRESENTATION_CONTEXT ( 'NONE', 'WORKASPACE' ) );
#190 = CARTESIAN_POINT ( 'NONE',  ( 0.000000000000000000, 0.3125000000000000000, 0.000000000000000000 ) ) ;
#191 = SURFACE_SIDE_STYLE ('',( #192 ) ) ;
#192 = SURFACE_STYLE_FILL_AREA ( #81 ) ;
#193 = CYLINDRICAL_SURFACE ( 'NONE', #7, 0.09375000000000001388 ) ;
#194 = CLOSED_SHELL ( 'NONE', ( #72, #176, #287, #164 ) ) ;
#195 = VECTOR ( 'NONE', #184, 39.37007874015748143 ) ;
#196 = ORIENTED_EDGE ( 'NONE', *, *, #15, .T. ) ;
#197 =( NAMED_UNIT ( * ) PLANE_ANGLE_UNIT ( ) SI_UNIT ( $, .RADIAN. ) );
#198 = ORIENTED_EDGE ( 'NONE', *, *, #238, .F. ) ;
#199 = DIRECTION ( 'NONE',  ( 0.000000000000000000, -1.000000000000000000, -0.000000000000000000 ) ) ;
#200 = STYLED_ITEM ( 'NONE', ( #53 ), #111 ) ;
#201 = ORIENTED_EDGE ( 'NONE', *, *, #220, .F. ) ;
#202 =( NAMED_UNIT ( * ) PLANE_ANGLE_UNIT ( ) SI_UNIT ( $, .RADIAN. ) );
#203 = SURFACE_STYLE_FILL_AREA ( #4 ) ;
#204 = DIRECTION ( 'NONE',  ( 0.000000000000000000, 0.000000000000000000, -1.000000000000000000 ) ) ;
#205 = LENGTH_MEASURE_WITH_UNIT ( LENGTH_MEASURE( 0.02539999999999999897 ), #303 );
#206 = CYLINDRICAL_SURFACE ( 'NONE', #148, 0.09374999999999997224 ) ;
#207 = APPLICATION_PROTOCOL_DEFINITION ( 'draft international standard', 'automotive_design', 1998, #270 ) ;
#208 = PRESENTATION_STYLE_ASSIGNMENT (( #20 ) ) ;
#209 = CARTESIAN_POINT ( 'NONE',  ( -0.09374999999999987510, 2.000000000000000000, 0.000000000000000000 ) ) ;
#210 = LINE ( 'NONE', #163, #103 ) ;
#211 = FILL_AREA_STYLE ('',( #16 ) ) ;
#212 =( LENGTH_UNIT ( ) NAMED_UNIT ( * ) SI_UNIT ( $, .METRE. ) );
#213 = EDGE_CURVE ( 'NONE', #130, #174, #25, .T. ) ;
#214 = DIRECTION ( 'NONE',  ( 0.000000000000000000, 0.000000000000000000, -1.000000000000000000 ) ) ;
#215 = FILL_AREA_STYLE ('',( #260 ) ) ;
#216 = SURFACE_STYLE_USAGE ( .BOTH. , #239 ) ;
#217 = SURFACE_STYLE_USAGE ( .BOTH. , #288 ) ;
#218 =( NAMED_UNIT ( * ) SI_UNIT ( $, .STERADIAN. ) SOLID_ANGLE_UNIT ( ) );
#219 = CIRCLE ( 'NONE', #2, 0.09375000000000001388 ) ;
#220 = EDGE_CURVE ( 'NONE', #294, #156, #142, .T. ) ;
#221 = ADVANCED_FACE ( 'NONE', ( #241 ), #30, .T. ) ;
#222 = EDGE_LOOP ( 'NONE', ( #104, #32 ) ) ;
#223 = STYLED_ITEM ( 'NONE', ( #34 ), #233 ) ;
#224 = CARTESIAN_POINT ( 'NONE',  ( 1.148106374200643863E-17, 0.000000000000000000, 0.09375000000000001388 ) ) ;
#225 = VERTEX_POINT ( 'NONE', #45 ) ;
#226 = ADVANCED_FACE ( 'NONE', ( #1 ), #101, .T. ) ;
#227 =( GEOMETRIC_REPRESENTATION_CONTEXT ( 3 ) GLOBAL_UNCERTAINTY_ASSIGNED_CONTEXT ( ( #245 ) ) GLOBAL_UNIT_ASSIGNED_CONTEXT ( ( #73, #244, #218 ) ) REPRESENTATION_CONTEXT ( 'NONE', 'WORKASPACE' ) );
#228 = CIRCLE ( 'NONE', #126, 0.09375000000000001388 ) ;
#229 = LENGTH_MEASURE_WITH_UNIT ( LENGTH_MEASURE( 0.02539999999999999897 ), #56 );
#230 = ADVANCED_BREP_SHAPE_REPRESENTATION ( '84418', ( #31, #233, #279 ), #189 ) ;
#231 =( NAMED_UNIT ( * ) PLANE_ANGLE_UNIT ( ) SI_UNIT ( $, .RADIAN. ) );
#232 = PRESENTATION_LAYER_ASSIGNMENT (  '', '', ( #18 ) ) ;
#233 = MANIFOLD_SOLID_BREP ( 'Revolve - Tool Body (Straight Shanked)', #194 ) ;
#234 = DIRECTION ( 'NONE',  ( -0.000000000000000000, -1.000000000000000000, -0.000000000000000000 ) ) ;
#235 =( NAMED_UNIT ( * ) SI_UNIT ( $, .STERADIAN. ) SOLID_ANGLE_UNIT ( ) );
#236 = FILL_AREA_STYLE_COLOUR ( '', #26 ) ;
#237 = DIRECTION ( 'NONE',  ( -0.000000000000000000, -1.000000000000000000, -0.000000000000000000 ) ) ;
#238 = EDGE_CURVE ( 'NONE', #174, #173, #113, .T. ) ;
#239 = SURFACE_SIDE_STYLE ('',( #140 ) ) ;
#240 = PRESENTATION_LAYER_ASSIGNMENT (  '', '', ( #172 ) ) ;
#241 = FACE_OUTER_BOUND ( 'NONE', #250, .T. ) ;
#242 = PRESENTATION_STYLE_ASSIGNMENT (( #145 ) ) ;
#243 = PRESENTATION_STYLE_ASSIGNMENT (( #217 ) ) ;
#244 =( NAMED_UNIT ( * ) PLANE_ANGLE_UNIT ( ) SI_UNIT ( $, .RADIAN. ) );
#245 = UNCERTAINTY_MEASURE_WITH_UNIT (LENGTH_MEASURE( 1.000000000000000082E-05 ), #73, 'distance_accuracy_value', 'NONE');
#246 = ORIENTED_EDGE ( 'NONE', *, *, #290, .T. ) ;
#247 =( CONVERSION_BASED_UNIT ( 'INCH', #133 ) LENGTH_UNIT ( ) NAMED_UNIT ( #48 ) );
#248 =( GEOMETRIC_REPRESENTATION_CONTEXT ( 3 ) GLOBAL_UNCERTAINTY_ASSIGNED_CONTEXT ( ( #144 ) ) GLOBAL_UNIT_ASSIGNED_CONTEXT ( ( #76, #171, #64 ) ) REPRESENTATION_CONTEXT ( 'NONE', 'WORKASPACE' ) );
#249 =( GEOMETRIC_REPRESENTATION_CONTEXT ( 3 ) GLOBAL_UNCERTAINTY_ASSIGNED_CONTEXT ( ( #259 ) ) GLOBAL_UNIT_ASSIGNED_CONTEXT ( ( #247, #197, #257 ) ) REPRESENTATION_CONTEXT ( 'NONE', 'WORKASPACE' ) );
#250 = EDGE_LOOP ( 'NONE', ( #33, #129 ) ) ;
#251 = MECHANICAL_DESIGN_GEOMETRIC_PRESENTATION_REPRESENTATION (  '', ( #172 ), #37 ) ;
#252 =( LENGTH_UNIT ( ) NAMED_UNIT ( * ) SI_UNIT ( $, .METRE. ) );
#253 = DIRECTION ( 'NONE',  ( -1.000000000000000000, 3.628583108584750472E-17, 0.000000000000000000 ) ) ;
#254 = CIRCLE ( 'NONE', #77, 0.09375000000000001388 ) ;
#255 = FILL_AREA_STYLE_COLOUR ( '', #42 ) ;
#256 = PRODUCT_RELATED_PRODUCT_CATEGORY ( 'part', '', ( #22 ) ) ;
#257 =( NAMED_UNIT ( * ) SI_UNIT ( $, .STERADIAN. ) SOLID_ANGLE_UNIT ( ) );
#258 = MECHANICAL_DESIGN_GEOMETRIC_PRESENTATION_REPRESENTATION (  '', ( #223 ), #249 ) ;
#259 = UNCERTAINTY_MEASURE_WITH_UNIT (LENGTH_MEASURE( 1.000000000000000082E-05 ), #247, 'distance_accuracy_value', 'NONE');
#260 = FILL_AREA_STYLE_COLOUR ( '', #168 ) ;
#261 = FACE_OUTER_BOUND ( 'NONE', #271, .T. ) ;
#262 = CARTESIAN_POINT ( 'NONE',  ( 0.000000000000000000, 0.000000000000000000, 0.000000000000000000 ) ) ;
#263 = DIRECTION ( 'NONE',  ( 0.000000000000000000, -0.000000000000000000, 1.000000000000000000 ) ) ;
#264 = APPLICATION_CONTEXT ( 'automotive_design' ) ;
#265 = PRESENTATION_LAYER_ASSIGNMENT (  '', '', ( #92 ) ) ;
#266 = SHAPE_DEFINITION_REPRESENTATION ( #169, #230 ) ;
#267 = AXIS2_PLACEMENT_3D ( 'NONE', #75, #94, #71 ) ;
#268 = ORIENTED_EDGE ( 'NONE', *, *, #123, .T. ) ;
#269 = FILL_AREA_STYLE ('',( #78 ) ) ;
#270 = APPLICATION_CONTEXT ( 'automotive_design' ) ;
#271 = EDGE_LOOP ( 'NONE', ( #36, #80, #5, #6 ) ) ;
#272 = LINE ( 'NONE', #224, #65 ) ;
#273 = MECHANICAL_DESIGN_GEOMETRIC_PRESENTATION_REPRESENTATION (  '', ( #18 ), #227 ) ;
#274 =( GEOMETRIC_REPRESENTATION_CONTEXT ( 3 ) GLOBAL_UNCERTAINTY_ASSIGNED_CONTEXT ( ( #170 ) ) GLOBAL_UNIT_ASSIGNED_CONTEXT ( ( #17, #51, #276 ) ) REPRESENTATION_CONTEXT ( 'NONE', 'WORKASPACE' ) );
#275 = ORIENTED_EDGE ( 'NONE', *, *, #161, .T. ) ;
#276 =( NAMED_UNIT ( * ) SI_UNIT ( $, .STERADIAN. ) SOLID_ANGLE_UNIT ( ) );
#277 = ADVANCED_FACE ( 'NONE', ( #153 ), #193, .T. ) ;
#278 = AXIS2_PLACEMENT_3D ( 'NONE', #190, #234, #97 ) ;
#279 = AXIS2_PLACEMENT_3D ( 'NONE', #39, #299, #137 ) ;
#280 = DIRECTION ( 'NONE',  ( -0.000000000000000000, -1.000000000000000000, -0.000000000000000000 ) ) ;
#281 = CARTESIAN_POINT ( 'NONE',  ( 0.000000000000000000, 0.3125000000000000000, 0.000000000000000000 ) ) ;
#282 = DIRECTION ( 'NONE',  ( 3.628583108584750472E-17, 1.000000000000000000, -0.000000000000000000 ) ) ;
#283 = MECHANICAL_DESIGN_GEOMETRIC_PRESENTATION_REPRESENTATION (  '', ( #200 ), #119 ) ;
#284 = CARTESIAN_POINT ( 'NONE',  ( 0.000000000000000000, 0.000000000000000000, -0.09375000000000001388 ) ) ;
#285 = FACE_OUTER_BOUND ( 'NONE', #222, .T. ) ;
#286 = LENGTH_MEASURE_WITH_UNIT ( LENGTH_MEASURE( 0.02539999999999999897 ), #50 );
#287 = ADVANCED_FACE ( 'NONE', ( #84 ), #206, .T. ) ;
#288 = SURFACE_SIDE_STYLE ('',( #203 ) ) ;
#289 = PRESENTATION_LAYER_ASSIGNMENT (  '', '', ( #200 ) ) ;
#290 = EDGE_CURVE ( 'NONE', #130, #9, #228, .T. ) ;
#291 = PRODUCT_DEFINITION ( 'UNKNOWN', '', #95, #29 ) ;
#292 = EDGE_LOOP ( 'NONE', ( #246, #196, #198, #131 ) ) ;
#293 = DIRECTION ( 'NONE',  ( -0.000000000000000000, -1.000000000000000000, -0.000000000000000000 ) ) ;
#294 = VERTEX_POINT ( 'NONE', #88 ) ;
#295 = COLOUR_RGB ( '',1.000000000000000000, 0.000000000000000000, 0.000000000000000000 ) ;
#296 = CARTESIAN_POINT ( 'NONE',  ( 1.148106374200643863E-17, 0.3125000000000000000, 0.09375000000000001388 ) ) ;
#297 = DIRECTION ( 'NONE',  ( 0.000000000000000000, 0.000000000000000000, -1.000000000000000000 ) ) ;
#298 = SURFACE_STYLE_FILL_AREA ( #269 ) ;
#299 = DIRECTION ( 'NONE',  ( 0.000000000000000000, 0.000000000000000000, 1.000000000000000000 ) ) ;
#300 = LINE ( 'NONE', #62, #182 ) ;
#301 = DIRECTION ( 'NONE',  ( 3.628583108584750472E-17, 1.000000000000000000, -0.000000000000000000 ) ) ;
#302 = DIMENSIONAL_EXPONENTS ( 1.000000000000000000, 0.000000000000000000, 0.000000000000000000, 0.000000000000000000, 0.000000000000000000, 0.000000000000000000, 0.000000000000000000 ) ;
#303 =( LENGTH_UNIT ( ) NAMED_UNIT ( * ) SI_UNIT ( $, .METRE. ) );
#304 = AXIS2_PLACEMENT_3D ( 'NONE', #96, #165, #253 ) ;
#305 = DIRECTION ( 'NONE',  ( 3.628583108584750472E-17, 1.000000000000000000, -0.000000000000000000 ) ) ;
#306 = CARTESIAN_POINT ( 'NONE',  ( 0.000000000000000000, 0.000000000000000000, 0.000000000000000000 ) ) ;
#307 = CARTESIAN_POINT ( 'NONE',  ( 0.09375000000000001388, 2.000000000000000000, 0.000000000000000000 ) ) ;
#308 =( LENGTH_UNIT ( ) NAMED_UNIT ( * ) SI_UNIT ( $, .METRE. ) );
#309 = DIRECTION ( 'NONE',  ( -1.000000000000000000, 0.000000000000000000, 0.000000000000000000 ) ) ;
ENDSEC;
END-ISO-10303-21;
