ISO-10303-21;
HEADER;
FILE_DESCRIPTION (( 'STEP AP214' ),
    '1' );
FILE_NAME ('Micro_AEMM-060-4.STEP',
    '2022-03-15T14:27:56',
    ( '' ),
    ( '' ),
    'SwSTEP 2.0',
    'SolidWorks 2022',
    '' );
FILE_SCHEMA (( 'AUTOMOTIVE_DESIGN' ));
ENDSEC;

DATA;
#1 = DIRECTION ( 'NONE',  ( -0.7071067811865358044, 0.000000000000000000, -0.7071067811865590080 ) ) ;
#2 = FACE_OUTER_BOUND ( 'NONE', #114, .T. ) ;
#3 = AXIS2_PLACEMENT_3D ( 'NONE', #285, #80, #59 ) ;
#4 = DIRECTION ( 'NONE',  ( 1.000000000000000000, 0.000000000000000000, 0.000000000000000000 ) ) ;
#5 = CYLINDRICAL_SURFACE ( 'NONE', #3, 0.1179918899999999882 ) ;
#6 = ORIENTED_EDGE ( 'NONE', *, *, #52, .T. ) ;
#7 = DIRECTION ( 'NONE',  ( -1.224646799147353207E-16, -0.000000000000000000, -1.000000000000000000 ) ) ;
#8 = DIRECTION ( 'NONE',  ( 0.000000000000000000, 0.000000000000000000, 1.000000000000000000 ) ) ;
#9 = EDGE_CURVE ( 'NONE', #237, #65, #55, .T. ) ;
#10 = SURFACE_SIDE_STYLE ('',( #203 ) ) ;
#11 = CARTESIAN_POINT ( 'NONE',  ( 7.714307363656999460E-17, 0.000000000000000000, 0.6299209999999999532 ) ) ;
#12 = CARTESIAN_POINT ( 'NONE',  ( 0.000000000000000000, 0.000000000000000000, 2.244094000000000033 ) ) ;
#13 = AXIS2_PLACEMENT_3D ( 'NONE', #176, #17, #204 ) ;
#14 = AXIS2_PLACEMENT_3D ( 'NONE', #241, #174, #239 ) ;
#15 = ADVANCED_FACE ( 'NONE', ( #254 ), #29, .T. ) ;
#16 = DIRECTION ( 'NONE',  ( -1.224646799147353207E-16, -0.000000000000000000, -1.000000000000000000 ) ) ;
#17 = DIRECTION ( 'NONE',  ( -1.224646799147353207E-16, -0.000000000000000000, -1.000000000000000000 ) ) ;
#18 = ORIENTED_EDGE ( 'NONE', *, *, #9, .F. ) ;
#19 = EDGE_CURVE ( 'NONE', #40, #237, #210, .T. ) ;
#20 = STYLED_ITEM ( 'NONE', ( #147 ), #47 ) ;
#21 = CIRCLE ( 'NONE', #14, 0.1179918899999999882 ) ;
#22 = CARTESIAN_POINT ( 'NONE',  ( 0.000000000000000000, 0.000000000000000000, 0.000000000000000000 ) ) ;
#23 = DIRECTION ( 'NONE',  ( -1.000000000000000000, 0.000000000000000000, 0.000000000000000000 ) ) ;
#24 = UNCERTAINTY_MEASURE_WITH_UNIT (LENGTH_MEASURE( 1.000000000000000082E-05 ), #196, 'distance_accuracy_value', 'NONE');
#25 = ORIENTED_EDGE ( 'NONE', *, *, #78, .T. ) ;
#26 = DIRECTION ( 'NONE',  ( 1.000000000000000000, 0.000000000000000000, -0.000000000000000000 ) ) ;
#27 = ORIENTED_EDGE ( 'NONE', *, *, #159, .T. ) ;
#28 = DIMENSIONAL_EXPONENTS ( 1.000000000000000000, 0.000000000000000000, 0.000000000000000000, 0.000000000000000000, 0.000000000000000000, 0.000000000000000000, 0.000000000000000000 ) ;
#29 = CYLINDRICAL_SURFACE ( 'NONE', #45, 0.1181100000000000066 ) ;
#30 = EDGE_LOOP ( 'NONE', ( #77, #280 ) ) ;
#31 = DIRECTION ( 'NONE',  ( -1.224646799147353207E-16, -0.000000000000000000, -1.000000000000000000 ) ) ;
#32 = AXIS2_PLACEMENT_3D ( 'NONE', #182, #41, #35 ) ;
#33 = SURFACE_STYLE_FILL_AREA ( #144 ) ;
#34 = AXIS2_PLACEMENT_3D ( 'NONE', #275, #70, #116 ) ;
#35 = DIRECTION ( 'NONE',  ( 1.000000000000000000, 0.000000000000000000, 0.000000000000000000 ) ) ;
#36 = CARTESIAN_POINT ( 'NONE',  ( -0.1181100000000000066, 0.000000000000000000, 2.229093999999999465 ) ) ;
#37 = EDGE_CURVE ( 'NONE', #155, #99, #95, .T. ) ;
#38 = VECTOR ( 'NONE', #202, 39.37007874015748143 ) ;
#39 = DIRECTION ( 'NONE',  ( 1.224646799147353207E-16, 0.000000000000000000, 1.000000000000000000 ) ) ;
#40 = VERTEX_POINT ( 'NONE', #187 ) ;
#41 = DIRECTION ( 'NONE',  ( 0.000000000000000000, 0.000000000000000000, -1.000000000000000000 ) ) ;
#42 = ORIENTED_EDGE ( 'NONE', *, *, #78, .F. ) ;
#43 = ORIENTED_EDGE ( 'NONE', *, *, #9, .T. ) ;
#44 = DIRECTION ( 'NONE',  ( 1.000000000000000000, 0.000000000000000000, 0.000000000000000000 ) ) ;
#45 = AXIS2_PLACEMENT_3D ( 'NONE', #69, #252, #23 ) ;
#46 = AXIS2_PLACEMENT_3D ( 'NONE', #258, #31, #82 ) ;
#47 = ADVANCED_BREP_SHAPE_REPRESENTATION ( 'Micro_AEMM-060-4', ( #179, #107 ), #84 ) ;
#48 = LENGTH_MEASURE_WITH_UNIT ( LENGTH_MEASURE( 0.02539999999999999897 ), #292 );
#49 = CARTESIAN_POINT ( 'NONE',  ( -0.1031100000000002570, 0.000000000000000000, 2.244094000000000033 ) ) ;
#50 = FACE_OUTER_BOUND ( 'NONE', #30, .T. ) ;
#51 = ORIENTED_EDGE ( 'NONE', *, *, #183, .F. ) ;
#52 = EDGE_CURVE ( 'NONE', #136, #155, #295, .T. ) ;
#53 = DIRECTION ( 'NONE',  ( 0.000000000000000000, 0.000000000000000000, 1.000000000000000000 ) ) ;
#54 = EDGE_LOOP ( 'NONE', ( #122, #56, #25, #229 ) ) ;
#55 = CIRCLE ( 'NONE', #129, 0.1181100000000000066 ) ;
#56 = ORIENTED_EDGE ( 'NONE', *, *, #148, .T. ) ;
#57 = EDGE_CURVE ( 'NONE', #99, #166, #253, .T. ) ;
#58 = DIRECTION ( 'NONE',  ( 0.7071067811865358044, 8.659560562354788645E-17, -0.7071067811865590080 ) ) ;
#59 = DIRECTION ( 'NONE',  ( -1.000000000000000000, 0.000000000000000000, 1.224646799147353454E-16 ) ) ;
#60 = VECTOR ( 'NONE', #66, 39.37007874015747433 ) ;
#61 = AXIS2_PLACEMENT_3D ( 'NONE', #72, #111, #160 ) ;
#62 = LENGTH_MEASURE_WITH_UNIT ( LENGTH_MEASURE( 0.02539999999999999897 ), #218 );
#63 = ORIENTED_EDGE ( 'NONE', *, *, #153, .F. ) ;
#64 = PRESENTATION_STYLE_ASSIGNMENT (( #266 ) ) ;
#65 = VERTEX_POINT ( 'NONE', #191 ) ;
#66 = DIRECTION ( 'NONE',  ( -0.1736481776669312194, 2.126576849575783625E-17, 0.9848077530122080203 ) ) ;
#67 = EDGE_CURVE ( 'NONE', #99, #65, #217, .T. ) ;
#68 = LINE ( 'NONE', #245, #60 ) ;
#69 = CARTESIAN_POINT ( 'NONE',  ( 0.000000000000000000, 0.000000000000000000, 2.244094000000000033 ) ) ;
#70 = DIRECTION ( 'NONE',  ( 0.000000000000000000, 0.000000000000000000, 1.000000000000000000 ) ) ;
#71 = AXIS2_PLACEMENT_3D ( 'NONE', #22, #53, #26 ) ;
#72 = CARTESIAN_POINT ( 'NONE',  ( 0.000000000000000000, 0.000000000000000000, 2.244094000000000033 ) ) ;
#73 = ORIENTED_EDGE ( 'NONE', *, *, #101, .T. ) ;
#74 = EDGE_CURVE ( 'NONE', #76, #40, #88, .T. ) ;
#75 = FACE_OUTER_BOUND ( 'NONE', #211, .T. ) ;
#76 = VERTEX_POINT ( 'NONE', #271 ) ;
#77 = ORIENTED_EDGE ( 'NONE', *, *, #263, .T. ) ;
#78 = EDGE_CURVE ( 'NONE', #76, #273, #268, .T. ) ;
#79 = CIRCLE ( 'NONE', #150, 0.1031100000000002570 ) ;
#80 = DIRECTION ( 'NONE',  ( -1.224646799147353207E-16, -0.000000000000000000, -1.000000000000000000 ) ) ;
#81 = LENGTH_MEASURE_WITH_UNIT ( LENGTH_MEASURE( 0.02539999999999999897 ), #105 );
#82 = DIRECTION ( 'NONE',  ( -1.000000000000000000, 0.000000000000000000, 1.224646799147353454E-16 ) ) ;
#83 = COLOUR_RGB ( '',0.7921568627450980005, 0.8196078431372548767, 0.9333333333333333481 ) ;
#84 =( GEOMETRIC_REPRESENTATION_CONTEXT ( 3 ) GLOBAL_UNCERTAINTY_ASSIGNED_CONTEXT ( ( #24 ) ) GLOBAL_UNIT_ASSIGNED_CONTEXT ( ( #196, #175, #193 ) ) REPRESENTATION_CONTEXT ( 'NONE', 'WORKASPACE' ) );
#85 = LINE ( 'NONE', #281, #214 ) ;
#86 = DIRECTION ( 'NONE',  ( 1.000000000000000000, 0.000000000000000000, 0.000000000000000000 ) ) ;
#87 = CARTESIAN_POINT ( 'NONE',  ( -0.1031100000000002570, 0.000000000000000000, 2.244094000000000033 ) ) ;
#88 = CIRCLE ( 'NONE', #290, 0.1179918899999999882 ) ;
#89 = FILL_AREA_STYLE_COLOUR ( '', #83 ) ;
#90 = DIRECTION ( 'NONE',  ( 1.000000000000000000, 0.000000000000000000, -0.000000000000000000 ) ) ;
#91 = ORIENTED_EDGE ( 'NONE', *, *, #67, .T. ) ;
#92 = ORIENTED_EDGE ( 'NONE', *, *, #52, .F. ) ;
#93 = CIRCLE ( 'NONE', #106, 0.1181100000000000066 ) ;
#94 = DIRECTION ( 'NONE',  ( 0.000000000000000000, 0.000000000000000000, 1.000000000000000000 ) ) ;
#95 = LINE ( 'NONE', #49, #102 ) ;
#96 = CARTESIAN_POINT ( 'NONE',  ( 7.722510477716240475E-17, 0.000000000000000000, 0.6305908350957151187 ) ) ;
#97 = CONICAL_SURFACE ( 'NONE', #61, 0.1031100000000002570, 0.7853981633974318477 ) ;
#98 = CARTESIAN_POINT ( 'NONE',  ( 0.000000000000000000, 0.000000000000000000, 2.244094000000000033 ) ) ;
#99 = VERTEX_POINT ( 'NONE', #36 ) ;
#100 = ORIENTED_EDGE ( 'NONE', *, *, #57, .F. ) ;
#101 = EDGE_CURVE ( 'NONE', #76, #65, #68, .T. ) ;
#102 = VECTOR ( 'NONE', #1, 39.37007874015748854 ) ;
#103 = CARTESIAN_POINT ( 'NONE',  ( -0.1179918899999999882, 0.000000000000000000, 2.889967808276931875E-17 ) ) ;
#104 =( NAMED_UNIT ( * ) SI_UNIT ( $, .STERADIAN. ) SOLID_ANGLE_UNIT ( ) );
#105 =( LENGTH_UNIT ( ) NAMED_UNIT ( * ) SI_UNIT ( $, .METRE. ) );
#106 = AXIS2_PLACEMENT_3D ( 'NONE', #127, #289, #294 ) ;
#107 = AXIS2_PLACEMENT_3D ( 'NONE', #260, #8, #44 ) ;
#108 = DIRECTION ( 'NONE',  ( 0.000000000000000000, 0.000000000000000000, 1.000000000000000000 ) ) ;
#109 = AXIS2_PLACEMENT_3D ( 'NONE', #11, #39, #86 ) ;
#110 = ORIENTED_EDGE ( 'NONE', *, *, #263, .F. ) ;
#111 = DIRECTION ( 'NONE',  ( 0.000000000000000000, 0.000000000000000000, -1.000000000000000000 ) ) ;
#112 = ORIENTED_EDGE ( 'NONE', *, *, #57, .T. ) ;
#113 =( GEOMETRIC_REPRESENTATION_CONTEXT ( 3 ) GLOBAL_UNCERTAINTY_ASSIGNED_CONTEXT ( ( #139 ) ) GLOBAL_UNIT_ASSIGNED_CONTEXT ( ( #138, #209, #215 ) ) REPRESENTATION_CONTEXT ( 'NONE', 'WORKASPACE' ) );
#114 = EDGE_LOOP ( 'NONE', ( #112, #143, #63, #257 ) ) ;
#115 = PRODUCT_RELATED_PRODUCT_CATEGORY ( 'part', '', ( #206 ) ) ;
#116 = DIRECTION ( 'NONE',  ( 1.000000000000000000, 0.000000000000000000, 0.000000000000000000 ) ) ;
#117 = EDGE_LOOP ( 'NONE', ( #293, #168, #91, #18 ) ) ;
#118 = MECHANICAL_DESIGN_GEOMETRIC_PRESENTATION_REPRESENTATION (  '', ( #270 ), #113 ) ;
#119 = PRODUCT_DEFINITION_FORMATION_WITH_SPECIFIED_SOURCE ( 'ANY', '', #206, .NOT_KNOWN. ) ;
#120 = DIRECTION ( 'NONE',  ( 0.1736481776669314137, 0.000000000000000000, 0.9848077530122077983 ) ) ;
#121 = SURFACE_STYLE_USAGE ( .BOTH. , #126 ) ;
#122 = ORIENTED_EDGE ( 'NONE', *, *, #159, .F. ) ;
#123 = VECTOR ( 'NONE', #120, 39.37007874015748143 ) ;
#124 = ADVANCED_FACE ( 'NONE', ( #248 ), #242, .T. ) ;
#125 = EDGE_CURVE ( 'NONE', #166, #99, #282, .T. ) ;
#126 = SURFACE_SIDE_STYLE ('',( #33 ) ) ;
#127 = CARTESIAN_POINT ( 'NONE',  ( 7.722510477716240475E-17, 0.000000000000000000, 0.6305908350957151187 ) ) ;
#128 = LINE ( 'NONE', #228, #38 ) ;
#129 = AXIS2_PLACEMENT_3D ( 'NONE', #96, #141, #233 ) ;
#130 = ORIENTED_EDGE ( 'NONE', *, *, #274, .F. ) ;
#131 = VECTOR ( 'NONE', #212, 39.37007874015748143 ) ;
#132 = APPLICATION_CONTEXT ( 'automotive_design' ) ;
#133 = PRODUCT_DEFINITION_CONTEXT ( 'detailed design', #169, 'design' ) ;
#134 = CARTESIAN_POINT ( 'NONE',  ( 0.1181100000000000066, 1.446430334472939084E-17, 2.229093999999999465 ) ) ;
#135 = ADVANCED_FACE ( 'NONE', ( #201 ), #238, .T. ) ;
#136 = VERTEX_POINT ( 'NONE', #200 ) ;
#137 = PRODUCT_CONTEXT ( 'NONE', #132, 'mechanical' ) ;
#138 =( CONVERSION_BASED_UNIT ( 'INCH', #48 ) LENGTH_UNIT ( ) NAMED_UNIT ( #284 ) );
#139 = UNCERTAINTY_MEASURE_WITH_UNIT (LENGTH_MEASURE( 1.000000000000000082E-05 ), #138, 'distance_accuracy_value', 'NONE');
#140 = DIRECTION ( 'NONE',  ( 1.000000000000000000, 0.000000000000000000, 0.000000000000000000 ) ) ;
#141 = DIRECTION ( 'NONE',  ( -1.224646799147353207E-16, -0.000000000000000000, -1.000000000000000000 ) ) ;
#142 = CYLINDRICAL_SURFACE ( 'NONE', #283, 0.1181100000000000066 ) ;
#143 = ORIENTED_EDGE ( 'NONE', *, *, #220, .T. ) ;
#144 = FILL_AREA_STYLE ('',( #172 ) ) ;
#145 = EDGE_LOOP ( 'NONE', ( #234, #73, #162, #152 ) ) ;
#146 = DIMENSIONAL_EXPONENTS ( 1.000000000000000000, 0.000000000000000000, 0.000000000000000000, 0.000000000000000000, 0.000000000000000000, 0.000000000000000000, 0.000000000000000000 ) ;
#147 = PRESENTATION_STYLE_ASSIGNMENT (( #121 ) ) ;
#148 = EDGE_CURVE ( 'NONE', #40, #76, #276, .T. ) ;
#149 = SHAPE_DEFINITION_REPRESENTATION ( #184, #47 ) ;
#150 = AXIS2_PLACEMENT_3D ( 'NONE', #291, #94, #188 ) ;
#151 = DIRECTION ( 'NONE',  ( 0.000000000000000000, 0.000000000000000000, -1.000000000000000000 ) ) ;
#152 = ORIENTED_EDGE ( 'NONE', *, *, #19, .F. ) ;
#153 = EDGE_CURVE ( 'NONE', #65, #237, #93, .T. ) ;
#154 = DIRECTION ( 'NONE',  ( -1.000000000000000000, 0.000000000000000000, 0.000000000000000000 ) ) ;
#155 = VERTEX_POINT ( 'NONE', #87 ) ;
#156 =( GEOMETRIC_REPRESENTATION_CONTEXT ( 3 ) GLOBAL_UNCERTAINTY_ASSIGNED_CONTEXT ( ( #231 ) ) GLOBAL_UNIT_ASSIGNED_CONTEXT ( ( #197, #240, #104 ) ) REPRESENTATION_CONTEXT ( 'NONE', 'WORKASPACE' ) );
#157 = ADVANCED_FACE ( 'NONE', ( #181 ), #178, .T. ) ;
#158 = ORIENTED_EDGE ( 'NONE', *, *, #274, .T. ) ;
#159 = EDGE_CURVE ( 'NONE', #40, #161, #128, .T. ) ;
#160 = DIRECTION ( 'NONE',  ( -1.000000000000000000, 0.000000000000000000, 0.000000000000000000 ) ) ;
#161 = VERTEX_POINT ( 'NONE', #246 ) ;
#162 = ORIENTED_EDGE ( 'NONE', *, *, #153, .T. ) ;
#163 = VECTOR ( 'NONE', #226, 39.37007874015748143 ) ;
#164 = AXIS2_PLACEMENT_3D ( 'NONE', #236, #7, #262 ) ;
#165 = FACE_OUTER_BOUND ( 'NONE', #249, .T. ) ;
#166 = VERTEX_POINT ( 'NONE', #134 ) ;
#167 = DIRECTION ( 'NONE',  ( -1.000000000000000000, 0.000000000000000000, 0.000000000000000000 ) ) ;
#168 = ORIENTED_EDGE ( 'NONE', *, *, #125, .T. ) ;
#169 = APPLICATION_CONTEXT ( 'automotive_design' ) ;
#170 = ORIENTED_EDGE ( 'NONE', *, *, #19, .T. ) ;
#171 = CONICAL_SURFACE ( 'NONE', #208, 0.1179918899999999882, 0.1745329251994339192 ) ;
#172 = FILL_AREA_STYLE_COLOUR ( '', #177 ) ;
#173 = PRODUCT_DEFINITION ( 'UNKNOWN', '', #119, #133 ) ;
#174 = DIRECTION ( 'NONE',  ( -1.224646799147353207E-16, -0.000000000000000000, -1.000000000000000000 ) ) ;
#175 =( NAMED_UNIT ( * ) PLANE_ANGLE_UNIT ( ) SI_UNIT ( $, .RADIAN. ) );
#176 = CARTESIAN_POINT ( 'NONE',  ( 7.714307363656999460E-17, 0.000000000000000000, 0.6299209999999999532 ) ) ;
#177 = COLOUR_RGB ( '',0.7921568627450980005, 0.8196078431372548767, 0.9333333333333333481 ) ;
#178 = PLANE ( 'NONE',  #227 ) ;
#179 = MANIFOLD_SOLID_BREP ( 'Cut-Revolve1', #198 ) ;
#180 = FILL_AREA_STYLE ('',( #89 ) ) ;
#181 = FACE_OUTER_BOUND ( 'NONE', #267, .T. ) ;
#182 = CARTESIAN_POINT ( 'NONE',  ( 0.000000000000000000, 0.000000000000000000, 2.229093999999999465 ) ) ;
#183 = EDGE_CURVE ( 'NONE', #155, #136, #79, .T. ) ;
#184 = PRODUCT_DEFINITION_SHAPE ( 'NONE', 'NONE',  #173 ) ;
#185 = ORIENTED_EDGE ( 'NONE', *, *, #125, .F. ) ;
#186 = CARTESIAN_POINT ( 'NONE',  ( 0.1181100000000000066, 1.446430334472939084E-17, 2.244094000000000033 ) ) ;
#187 = CARTESIAN_POINT ( 'NONE',  ( 0.1179918900000000853, 0.000000000000000000, 0.6299209999999999532 ) ) ;
#188 = DIRECTION ( 'NONE',  ( 1.000000000000000000, 0.000000000000000000, 0.000000000000000000 ) ) ;
#189 = CARTESIAN_POINT ( 'NONE',  ( 0.000000000000000000, 0.000000000000000000, 2.229093999999999465 ) ) ;
#190 = DIRECTION ( 'NONE',  ( -0.000000000000000000, -0.000000000000000000, -1.000000000000000000 ) ) ;
#191 = CARTESIAN_POINT ( 'NONE',  ( -0.1181099999999999234, 0.000000000000000000, 0.6305908350957151187 ) ) ;
#192 = ORIENTED_EDGE ( 'NONE', *, *, #148, .F. ) ;
#193 =( NAMED_UNIT ( * ) SI_UNIT ( $, .STERADIAN. ) SOLID_ANGLE_UNIT ( ) );
#194 = VECTOR ( 'NONE', #223, 39.37007874015748143 ) ;
#195 = ADVANCED_FACE ( 'NONE', ( #272 ), #97, .T. ) ;
#196 =( CONVERSION_BASED_UNIT ( 'INCH', #81 ) LENGTH_UNIT ( ) NAMED_UNIT ( #28 ) );
#197 =( CONVERSION_BASED_UNIT ( 'INCH', #62 ) LENGTH_UNIT ( ) NAMED_UNIT ( #146 ) );
#198 = CLOSED_SHELL ( 'NONE', ( #261, #135, #195, #225, #15, #157, #124, #205, #286, #216 ) ) ;
#199 = FACE_OUTER_BOUND ( 'NONE', #54, .T. ) ;
#200 = CARTESIAN_POINT ( 'NONE',  ( 0.1031100000000002570, 1.354581824536888722E-17, 2.244094000000000033 ) ) ;
#201 = FACE_OUTER_BOUND ( 'NONE', #145, .T. ) ;
#202 = DIRECTION ( 'NONE',  ( -1.224646799147353207E-16, -0.000000000000000000, -1.000000000000000000 ) ) ;
#203 = SURFACE_STYLE_FILL_AREA ( #180 ) ;
#204 = DIRECTION ( 'NONE',  ( -1.000000000000000000, 0.000000000000000000, 0.000000000000000000 ) ) ;
#205 = ADVANCED_FACE ( 'NONE', ( #165 ), #171, .T. ) ;
#206 = PRODUCT ( 'Micro_AEMM-060-4', 'Micro_AEMM-060-4', '', ( #137 ) ) ;
#207 = CARTESIAN_POINT ( 'NONE',  ( 7.714307363656999460E-17, 0.000000000000000000, 0.6299209999999999532 ) ) ;
#208 = AXIS2_PLACEMENT_3D ( 'NONE', #207, #251, #140 ) ;
#209 =( NAMED_UNIT ( * ) PLANE_ANGLE_UNIT ( ) SI_UNIT ( $, .RADIAN. ) );
#210 = LINE ( 'NONE', #299, #123 ) ;
#211 = EDGE_LOOP ( 'NONE', ( #277, #27, #110, #42 ) ) ;
#212 = DIRECTION ( 'NONE',  ( -0.000000000000000000, -0.000000000000000000, -1.000000000000000000 ) ) ;
#213 = ORIENTED_EDGE ( 'NONE', *, *, #37, .F. ) ;
#214 = VECTOR ( 'NONE', #58, 39.37007874015748854 ) ;
#215 =( NAMED_UNIT ( * ) SI_UNIT ( $, .STERADIAN. ) SOLID_ANGLE_UNIT ( ) );
#216 = ADVANCED_FACE ( 'NONE', ( #50 ), #232, .F. ) ;
#217 = LINE ( 'NONE', #221, #194 ) ;
#218 =( LENGTH_UNIT ( ) NAMED_UNIT ( * ) SI_UNIT ( $, .METRE. ) );
#219 = EDGE_LOOP ( 'NONE', ( #92, #158, #100, #213 ) ) ;
#220 = EDGE_CURVE ( 'NONE', #166, #237, #298, .T. ) ;
#221 = CARTESIAN_POINT ( 'NONE',  ( -0.1181100000000000066, 0.000000000000000000, 2.244094000000000033 ) ) ;
#222 = AXIS2_PLACEMENT_3D ( 'NONE', #189, #235, #4 ) ;
#223 = DIRECTION ( 'NONE',  ( -0.000000000000000000, -0.000000000000000000, -1.000000000000000000 ) ) ;
#224 = AXIS2_PLACEMENT_3D ( 'NONE', #250, #151, #154 ) ;
#225 = ADVANCED_FACE ( 'NONE', ( #2 ), #142, .T. ) ;
#226 = DIRECTION ( 'NONE',  ( -1.224646799147353207E-16, -0.000000000000000000, -1.000000000000000000 ) ) ;
#227 = AXIS2_PLACEMENT_3D ( 'NONE', #12, #108, #90 ) ;
#228 = CARTESIAN_POINT ( 'NONE',  ( 0.1179918899999999882, 1.444983904138465938E-17, -1.444983904138465938E-17 ) ) ;
#229 = ORIENTED_EDGE ( 'NONE', *, *, #264, .F. ) ;
#230 = APPLICATION_PROTOCOL_DEFINITION ( 'draft international standard', 'automotive_design', 1998, #169 ) ;
#231 = UNCERTAINTY_MEASURE_WITH_UNIT (LENGTH_MEASURE( 1.000000000000000082E-05 ), #197, 'distance_accuracy_value', 'NONE');
#232 = PLANE ( 'NONE',  #71 ) ;
#233 = DIRECTION ( 'NONE',  ( 1.000000000000000000, 0.000000000000000000, 0.000000000000000000 ) ) ;
#234 = ORIENTED_EDGE ( 'NONE', *, *, #74, .F. ) ;
#235 = DIRECTION ( 'NONE',  ( 0.000000000000000000, 0.000000000000000000, -1.000000000000000000 ) ) ;
#236 = CARTESIAN_POINT ( 'NONE',  ( 0.000000000000000000, 0.000000000000000000, 0.000000000000000000 ) ) ;
#237 = VERTEX_POINT ( 'NONE', #278 ) ;
#238 = CONICAL_SURFACE ( 'NONE', #109, 0.1179918899999999882, 0.1745329251994339192 ) ;
#239 = DIRECTION ( 'NONE',  ( -1.000000000000000000, 0.000000000000000000, 1.224646799147353454E-16 ) ) ;
#240 =( NAMED_UNIT ( * ) PLANE_ANGLE_UNIT ( ) SI_UNIT ( $, .RADIAN. ) );
#241 = CARTESIAN_POINT ( 'NONE',  ( 1.769594913022618037E-33, 0.000000000000000000, 1.444983904138465938E-17 ) ) ;
#242 = CONICAL_SURFACE ( 'NONE', #224, 0.1031100000000002570, 0.7853981633974318477 ) ;
#243 = PRESENTATION_LAYER_ASSIGNMENT (  '', '', ( #20 ) ) ;
#244 = CARTESIAN_POINT ( 'NONE',  ( -0.1179918899999999882, 0.000000000000000000, 1.444983904138465938E-17 ) ) ;
#245 = CARTESIAN_POINT ( 'NONE',  ( -0.1179918899999999049, 1.444983904138465938E-17, 0.6299209999999999532 ) ) ;
#246 = CARTESIAN_POINT ( 'NONE',  ( 0.1179918899999999882, 1.444983904138465938E-17, 0.000000000000000000 ) ) ;
#247 = PRESENTATION_LAYER_ASSIGNMENT (  '', '', ( #270 ) ) ;
#248 = FACE_OUTER_BOUND ( 'NONE', #269, .T. ) ;
#249 = EDGE_LOOP ( 'NONE', ( #279, #192, #170, #43 ) ) ;
#250 = CARTESIAN_POINT ( 'NONE',  ( 0.000000000000000000, 0.000000000000000000, 2.244094000000000033 ) ) ;
#251 = DIRECTION ( 'NONE',  ( 1.224646799147353207E-16, 0.000000000000000000, 1.000000000000000000 ) ) ;
#252 = DIRECTION ( 'NONE',  ( -0.000000000000000000, -0.000000000000000000, -1.000000000000000000 ) ) ;
#253 = CIRCLE ( 'NONE', #222, 0.1181100000000000066 ) ;
#254 = FACE_OUTER_BOUND ( 'NONE', #117, .T. ) ;
#255 = CYLINDRICAL_SURFACE ( 'NONE', #164, 0.1179918899999999882 ) ;
#256 = ORIENTED_EDGE ( 'NONE', *, *, #37, .T. ) ;
#257 = ORIENTED_EDGE ( 'NONE', *, *, #67, .F. ) ;
#258 = CARTESIAN_POINT ( 'NONE',  ( 1.769594913022618037E-33, 0.000000000000000000, 1.444983904138465938E-17 ) ) ;
#259 = APPLICATION_PROTOCOL_DEFINITION ( 'draft international standard', 'automotive_design', 1998, #132 ) ;
#260 = CARTESIAN_POINT ( 'NONE',  ( 0.000000000000000000, 0.000000000000000000, 0.000000000000000000 ) ) ;
#261 = ADVANCED_FACE ( 'NONE', ( #75 ), #255, .T. ) ;
#262 = DIRECTION ( 'NONE',  ( -1.000000000000000000, 0.000000000000000000, 1.224646799147353454E-16 ) ) ;
#263 = EDGE_CURVE ( 'NONE', #273, #161, #21, .T. ) ;
#264 = EDGE_CURVE ( 'NONE', #161, #273, #265, .T. ) ;
#265 = CIRCLE ( 'NONE', #46, 0.1179918899999999882 ) ;
#266 = SURFACE_STYLE_USAGE ( .BOTH. , #10 ) ;
#267 = EDGE_LOOP ( 'NONE', ( #297, #6 ) ) ;
#268 = LINE ( 'NONE', #244, #163 ) ;
#269 = EDGE_LOOP ( 'NONE', ( #130, #51, #256, #185 ) ) ;
#270 = STYLED_ITEM ( 'NONE', ( #64 ), #179 ) ;
#271 = CARTESIAN_POINT ( 'NONE',  ( -0.1179918899999999049, 1.445707119305702357E-17, 0.6299209999999999532 ) ) ;
#272 = FACE_OUTER_BOUND ( 'NONE', #219, .T. ) ;
#273 = VERTEX_POINT ( 'NONE', #103 ) ;
#274 = EDGE_CURVE ( 'NONE', #136, #166, #85, .T. ) ;
#275 = CARTESIAN_POINT ( 'NONE',  ( 0.000000000000000000, 0.000000000000000000, 2.244094000000000033 ) ) ;
#276 = CIRCLE ( 'NONE', #13, 0.1179918899999999882 ) ;
#277 = ORIENTED_EDGE ( 'NONE', *, *, #74, .T. ) ;
#278 = CARTESIAN_POINT ( 'NONE',  ( 0.1181100000000000899, 1.446430334472940009E-17, 0.6305908350957151187 ) ) ;
#279 = ORIENTED_EDGE ( 'NONE', *, *, #101, .F. ) ;
#280 = ORIENTED_EDGE ( 'NONE', *, *, #264, .T. ) ;
#281 = CARTESIAN_POINT ( 'NONE',  ( 0.1031100000000002570, 1.262733314600838667E-17, 2.244094000000000033 ) ) ;
#282 = CIRCLE ( 'NONE', #32, 0.1181100000000000066 ) ;
#283 = AXIS2_PLACEMENT_3D ( 'NONE', #98, #190, #167 ) ;
#284 = DIMENSIONAL_EXPONENTS ( 1.000000000000000000, 0.000000000000000000, 0.000000000000000000, 0.000000000000000000, 0.000000000000000000, 0.000000000000000000, 0.000000000000000000 ) ;
#285 = CARTESIAN_POINT ( 'NONE',  ( 0.000000000000000000, 0.000000000000000000, 0.000000000000000000 ) ) ;
#286 = ADVANCED_FACE ( 'NONE', ( #199 ), #5, .T. ) ;
#287 = CARTESIAN_POINT ( 'NONE',  ( 7.714307363656999460E-17, 0.000000000000000000, 0.6299209999999999532 ) ) ;
#288 = DIRECTION ( 'NONE',  ( -1.000000000000000000, 0.000000000000000000, 0.000000000000000000 ) ) ;
#289 = DIRECTION ( 'NONE',  ( -1.224646799147353207E-16, -0.000000000000000000, -1.000000000000000000 ) ) ;
#290 = AXIS2_PLACEMENT_3D ( 'NONE', #287, #16, #288 ) ;
#291 = CARTESIAN_POINT ( 'NONE',  ( 0.000000000000000000, 0.000000000000000000, 2.244094000000000033 ) ) ;
#292 =( LENGTH_UNIT ( ) NAMED_UNIT ( * ) SI_UNIT ( $, .METRE. ) );
#293 = ORIENTED_EDGE ( 'NONE', *, *, #220, .F. ) ;
#294 = DIRECTION ( 'NONE',  ( 1.000000000000000000, 0.000000000000000000, 0.000000000000000000 ) ) ;
#295 = CIRCLE ( 'NONE', #34, 0.1031100000000002570 ) ;
#296 = MECHANICAL_DESIGN_GEOMETRIC_PRESENTATION_REPRESENTATION (  '', ( #20 ), #156 ) ;
#297 = ORIENTED_EDGE ( 'NONE', *, *, #183, .T. ) ;
#298 = LINE ( 'NONE', #186, #131 ) ;
#299 = CARTESIAN_POINT ( 'NONE',  ( 0.1179918900000000853, 0.000000000000000000, 0.6299209999999999532 ) ) ;
ENDSEC;
END-ISO-10303-21;
