ISO-10303-21;
HEADER;
FILE_DESCRIPTION (( 'STEP AP214' ),
    '1' );
FILE_NAME ('Micro_GEC-312-4-010.STEP',
    '2021-09-03T17:19:04',
    ( '' ),
    ( '' ),
    'SwSTEP 2.0',
    'SolidWorks 2020',
    '' );
FILE_SCHEMA (( 'AUTOMOTIVE_DESIGN' ));
ENDSEC;

DATA;
#1 = DIRECTION ( 'NONE',  ( 0.0000000000000000000, -1.000000000000000000, 0.0000000000000000000 ) ) ;
#2 = DIRECTION ( 'NONE',  ( -1.000000000000000000, 0.0000000000000000000, 0.0000000000000000000 ) ) ;
#3 = DIRECTION ( 'NONE',  ( -0.0000000000000000000, -0.0000000000000000000, -1.000000000000000000 ) ) ;
#4 = EDGE_CURVE ( 'NONE', #22, #148, #210, .T. ) ;
#5 = COLOUR_RGB ( '',0.7921568627450980005, 0.8196078431372548767, 0.9333333333333333481 ) ;
#6 = DIRECTION ( 'NONE',  ( 1.000000000000000000, 0.0000000000000000000, -0.0000000000000000000 ) ) ;
#7 = CIRCLE ( 'NONE', #178, 0.1460937499999999667 ) ;
#8 = DIRECTION ( 'NONE',  ( 0.0000000000000000000, 0.0000000000000000000, -1.000000000000000000 ) ) ;
#9 = CIRCLE ( 'NONE', #245, 0.1460937499999999667 ) ;
#10 = LINE ( 'NONE', #196, #17 ) ;
#11 = CARTESIAN_POINT ( 'NONE',  ( -0.1562500000000000000, 0.0000000000000000000, 2.500000000000000000 ) ) ;
#12 = CARTESIAN_POINT ( 'NONE',  ( 9.967230535079632947E-17, 0.0000000000000000000, 0.8138861377843152889 ) ) ;
#13 = DIRECTION ( 'NONE',  ( 1.000000000000000000, 0.0000000000000000000, 0.0000000000000000000 ) ) ;
#14 = ORIENTED_EDGE ( 'NONE', *, *, #308, .F. ) ;
#15 = EDGE_CURVE ( 'NONE', #303, #289, #105, .T. ) ;
#16 = CARTESIAN_POINT ( 'NONE',  ( 9.956378477067980482E-17, 0.0000000000000000000, 0.8129999999999999449 ) ) ;
#17 = VECTOR ( 'NONE', #311, 39.37007874015748854 ) ;
#18 = AXIS2_PLACEMENT_3D ( 'NONE', #249, #334, #6 ) ;
#19 = VERTEX_POINT ( 'NONE', #269 ) ;
#20 = AXIS2_PLACEMENT_3D ( 'NONE', #236, #324, #153 ) ;
#21 = ORIENTED_EDGE ( 'NONE', *, *, #284, .F. ) ;
#22 = VERTEX_POINT ( 'NONE', #331 ) ;
#23 = APPLICATION_PROTOCOL_DEFINITION ( 'draft international standard', 'automotive_design', 1998, #262 ) ;
#24 = AXIS2_PLACEMENT_3D ( 'NONE', #246, #29, #173 ) ;
#25 = CARTESIAN_POINT ( 'NONE',  ( 0.0000000000000000000, 0.0000000000000000000, 2.500000000000000000 ) ) ;
#26 = ADVANCED_FACE ( 'NONE', ( #213 ), #347, .F. ) ;
#27 = ORIENTED_EDGE ( 'NONE', *, *, #320, .F. ) ;
#28 = CARTESIAN_POINT ( 'NONE',  ( 0.1560937500000000866, 0.0000000000000000000, 0.8129999999999999449 ) ) ;
#29 = DIRECTION ( 'NONE',  ( 0.0000000000000000000, 0.0000000000000000000, -1.000000000000000000 ) ) ;
#30 = APPLICATION_CONTEXT ( 'automotive_design' ) ;
#31 = DIRECTION ( 'NONE',  ( 1.224646799147353207E-16, 0.0000000000000000000, 1.000000000000000000 ) ) ;
#32 = EDGE_CURVE ( 'NONE', #211, #242, #7, .T. ) ;
#33 = DIRECTION ( 'NONE',  ( 1.000000000000000000, 0.0000000000000000000, 0.0000000000000000000 ) ) ;
#34 = LINE ( 'NONE', #28, #134 ) ;
#35 = PRESENTATION_LAYER_ASSIGNMENT (  '', '', ( #143 ) ) ;
#36 = PRODUCT_DEFINITION_FORMATION_WITH_SPECIFIED_SOURCE ( 'ANY', '', #78, .NOT_KNOWN. ) ;
#37 = CYLINDRICAL_SURFACE ( 'NONE', #169, 0.1560937499999999478 ) ;
#38 = ORIENTED_EDGE ( 'NONE', *, *, #32, .F. ) ;
#39 = CARTESIAN_POINT ( 'NONE',  ( 1.224646799147353384E-18, 0.0000000000000000000, 0.01000000000000000021 ) ) ;
#40 = FACE_OUTER_BOUND ( 'NONE', #261, .T. ) ;
#41 = SURFACE_SIDE_STYLE ('',( #125 ) ) ;
#42 = EDGE_LOOP ( 'NONE', ( #21, #123, #67, #327 ) ) ;
#43 = CIRCLE ( 'NONE', #164, 0.1412499999999994871 ) ;
#44 = DIRECTION ( 'NONE',  ( -1.224646799147353207E-16, -0.0000000000000000000, -1.000000000000000000 ) ) ;
#45 = ADVANCED_FACE ( 'NONE', ( #128 ), #112, .T. ) ;
#46 = DIRECTION ( 'NONE',  ( 1.000000000000000000, 0.0000000000000000000, 0.0000000000000000000 ) ) ;
#47 = CIRCLE ( 'NONE', #95, 0.01000000000000000021 ) ;
#48 = DIMENSIONAL_EXPONENTS ( 1.000000000000000000, 0.0000000000000000000, 0.0000000000000000000, 0.0000000000000000000, 0.0000000000000000000, 0.0000000000000000000, 0.0000000000000000000 ) ;
#49 = DIRECTION ( 'NONE',  ( 0.0000000000000000000, 0.0000000000000000000, 1.000000000000000000 ) ) ;
#50 = AXIS2_PLACEMENT_3D ( 'NONE', #195, #310, #192 ) ;
#51 = EDGE_LOOP ( 'NONE', ( #317, #64, #186, #341 ) ) ;
#52 = AXIS2_PLACEMENT_3D ( 'NONE', #110, #31, #309 ) ;
#53 = DIRECTION ( 'NONE',  ( 1.224646799147353207E-16, 0.0000000000000000000, 1.000000000000000000 ) ) ;
#54 = AXIS2_PLACEMENT_3D ( 'NONE', #73, #188, #216 ) ;
#55 = FACE_OUTER_BOUND ( 'NONE', #351, .T. ) ;
#56 = FACE_OUTER_BOUND ( 'NONE', #185, .T. ) ;
#57 = MECHANICAL_DESIGN_GEOMETRIC_PRESENTATION_REPRESENTATION (  '', ( #143 ), #207 ) ;
#58 = DIRECTION ( 'NONE',  ( 1.000000000000000000, 0.0000000000000000000, 0.0000000000000000000 ) ) ;
#59 = DIRECTION ( 'NONE',  ( 0.0000000000000000000, 0.0000000000000000000, 1.000000000000000000 ) ) ;
#60 = CARTESIAN_POINT ( 'NONE',  ( 0.1562500000000000000, 1.913510623667739463E-17, 2.500000000000000000 ) ) ;
#61 = ORIENTED_EDGE ( 'NONE', *, *, #126, .F. ) ;
#62 = VECTOR ( 'NONE', #179, 39.37007874015748143 ) ;
#63 =( NAMED_UNIT ( * ) SI_UNIT ( $, .STERADIAN. ) SOLID_ANGLE_UNIT ( ) );
#64 = ORIENTED_EDGE ( 'NONE', *, *, #154, .T. ) ;
#65 = CIRCLE ( 'NONE', #204, 0.1560937499999999478 ) ;
#66 = DIRECTION ( 'NONE',  ( -1.224646799147353207E-16, -0.0000000000000000000, -1.000000000000000000 ) ) ;
#67 = ORIENTED_EDGE ( 'NONE', *, *, #4, .T. ) ;
#68 = CYLINDRICAL_SURFACE ( 'NONE', #253, 0.1562500000000000000 ) ;
#69 = EDGE_LOOP ( 'NONE', ( #61, #209, #297, #343 ) ) ;
#70 = DIRECTION ( 'NONE',  ( 1.000000000000000000, 0.0000000000000000000, 0.0000000000000000000 ) ) ;
#71 =( NAMED_UNIT ( * ) SI_UNIT ( $, .STERADIAN. ) SOLID_ANGLE_UNIT ( ) );
#72 = DIRECTION ( 'NONE',  ( -1.000000000000000000, 0.0000000000000000000, 0.0000000000000000000 ) ) ;
#73 = CARTESIAN_POINT ( 'NONE',  ( 9.967230535079632947E-17, 0.0000000000000000000, 0.8138861377843152889 ) ) ;
#74 = EDGE_CURVE ( 'NONE', #292, #289, #65, .T. ) ;
#75 = FILL_AREA_STYLE ('',( #184 ) ) ;
#76 = ORIENTED_EDGE ( 'NONE', *, *, #323, .T. ) ;
#77 = EDGE_LOOP ( 'NONE', ( #97, #119, #94, #27 ) ) ;
#78 = PRODUCT ( 'Micro_GEC-312-4-010', 'Micro_GEC-312-4-010', '', ( #302 ) ) ;
#79 = CARTESIAN_POINT ( 'NONE',  ( -0.1460937499999999667, 1.789132433129335716E-17, 0.01000000000000000021 ) ) ;
#80 = AXIS2_PLACEMENT_3D ( 'NONE', #316, #96, #70 ) ;
#81 = FACE_OUTER_BOUND ( 'NONE', #42, .T. ) ;
#82 = AXIS2_PLACEMENT_3D ( 'NONE', #307, #306, #193 ) ;
#83 = LINE ( 'NONE', #133, #332 ) ;
#84 = AXIS2_PLACEMENT_3D ( 'NONE', #159, #49, #162 ) ;
#85 = DIRECTION ( 'NONE',  ( -0.1736481776669312194, 2.126576849575783625E-17, 0.9848077530122080203 ) ) ;
#86 = EDGE_CURVE ( 'NONE', #242, #289, #47, .T. ) ;
#87 = CARTESIAN_POINT ( 'NONE',  ( 9.956378477067980482E-17, 0.0000000000000000000, 0.8129999999999999449 ) ) ;
#88 = DIRECTION ( 'NONE',  ( -1.000000000000000000, 0.0000000000000000000, 0.0000000000000000000 ) ) ;
#89 = VERTEX_POINT ( 'NONE', #244 ) ;
#90 = EDGE_CURVE ( 'NONE', #211, #292, #301, .T. ) ;
#91 = CONICAL_SURFACE ( 'NONE', #295, 0.1412499999999994871, 0.7853981633974391752 ) ;
#92 =( LENGTH_UNIT ( ) NAMED_UNIT ( * ) SI_UNIT ( $, .METRE. ) );
#93 =( NAMED_UNIT ( * ) PLANE_ANGLE_UNIT ( ) SI_UNIT ( $, .RADIAN. ) );
#94 = ORIENTED_EDGE ( 'NONE', *, *, #267, .F. ) ;
#95 = AXIS2_PLACEMENT_3D ( 'NONE', #163, #1, #272 ) ;
#96 = DIRECTION ( 'NONE',  ( 0.0000000000000000000, 0.0000000000000000000, -1.000000000000000000 ) ) ;
#97 = ORIENTED_EDGE ( 'NONE', *, *, #259, .F. ) ;
#98 = TOROIDAL_SURFACE ( 'NONE', #321, 0.1460937499999999667, 0.01000000000000000021 ) ;
#99 = CARTESIAN_POINT ( 'NONE',  ( 1.224646799147353384E-18, 0.0000000000000000000, 0.0000000000000000000 ) ) ;
#100 =( CONVERSION_BASED_UNIT ( 'INCH', #160 ) LENGTH_UNIT ( ) NAMED_UNIT ( #101 ) );
#101 = DIMENSIONAL_EXPONENTS ( 1.000000000000000000, 0.0000000000000000000, 0.0000000000000000000, 0.0000000000000000000, 0.0000000000000000000, 0.0000000000000000000, 0.0000000000000000000 ) ;
#102 = ORIENTED_EDGE ( 'NONE', *, *, #74, .T. ) ;
#103 = CLOSED_SHELL ( 'NONE', ( #280, #225, #201, #45, #346, #255, #138, #180, #257, #296, #26, #287 ) ) ;
#104 = SHAPE_DEFINITION_REPRESENTATION ( #273, #183 ) ;
#105 = LINE ( 'NONE', #234, #238 ) ;
#106 = VERTEX_POINT ( 'NONE', #166 ) ;
#107 =( NAMED_UNIT ( * ) PLANE_ANGLE_UNIT ( ) SI_UNIT ( $, .RADIAN. ) );
#108 = EDGE_LOOP ( 'NONE', ( #121, #293 ) ) ;
#109 = DIRECTION ( 'NONE',  ( 0.1736481776669314137, 0.0000000000000000000, 0.9848077530122077983 ) ) ;
#110 = CARTESIAN_POINT ( 'NONE',  ( 9.956378477067980482E-17, 0.0000000000000000000, 0.8129999999999999449 ) ) ;
#111 = FACE_OUTER_BOUND ( 'NONE', #108, .T. ) ;
#112 = CONICAL_SURFACE ( 'NONE', #161, 0.1412499999999994871, 0.7853981633974391752 ) ;
#113 = PLANE ( 'NONE',  #18 ) ;
#114 = DIRECTION ( 'NONE',  ( -1.000000000000000000, 1.224646799147354933E-16, 0.0000000000000000000 ) ) ;
#115 = AXIS2_PLACEMENT_3D ( 'NONE', #252, #3, #88 ) ;
#116 = FILL_AREA_STYLE ('',( #230 ) ) ;
#117 = CARTESIAN_POINT ( 'NONE',  ( 0.0000000000000000000, 0.0000000000000000000, 2.500000000000000000 ) ) ;
#118 = AXIS2_PLACEMENT_3D ( 'NONE', #87, #53, #58 ) ;
#119 = ORIENTED_EDGE ( 'NONE', *, *, #126, .T. ) ;
#120 = CARTESIAN_POINT ( 'NONE',  ( 0.0000000000000000000, 0.0000000000000000000, 0.0000000000000000000 ) ) ;
#121 = ORIENTED_EDGE ( 'NONE', *, *, #241, .T. ) ;
#122 = DIRECTION ( 'NONE',  ( 1.000000000000000000, 0.0000000000000000000, 0.0000000000000000000 ) ) ;
#123 = ORIENTED_EDGE ( 'NONE', *, *, #167, .T. ) ;
#124 = CIRCLE ( 'NONE', #328, 0.1560937499999999756 ) ;
#125 = SURFACE_STYLE_FILL_AREA ( #75 ) ;
#126 = EDGE_CURVE ( 'NONE', #106, #181, #10, .T. ) ;
#127 = ORIENTED_EDGE ( 'NONE', *, *, #228, .T. ) ;
#128 = FACE_OUTER_BOUND ( 'NONE', #77, .T. ) ;
#129 = DIRECTION ( 'NONE',  ( 1.000000000000000000, 0.0000000000000000000, 0.0000000000000000000 ) ) ;
#130 = VECTOR ( 'NONE', #254, 39.37007874015748854 ) ;
#131 =( LENGTH_UNIT ( ) NAMED_UNIT ( * ) SI_UNIT ( $, .METRE. ) );
#132 = ORIENTED_EDGE ( 'NONE', *, *, #144, .T. ) ;
#133 = CARTESIAN_POINT ( 'NONE',  ( -0.1560937499999998923, 1.911597113044071690E-17, 0.8129999999999999449 ) ) ;
#134 = VECTOR ( 'NONE', #109, 39.37007874015748143 ) ;
#135 = CARTESIAN_POINT ( 'NONE',  ( 0.0000000000000000000, 0.0000000000000000000, 2.500000000000000000 ) ) ;
#136 = CARTESIAN_POINT ( 'NONE',  ( 0.0000000000000000000, 0.0000000000000000000, 2.500000000000000000 ) ) ;
#137 = CIRCLE ( 'NONE', #80, 0.1562500000000000000 ) ;
#138 = ADVANCED_FACE ( 'NONE', ( #111 ), #113, .T. ) ;
#139 = EDGE_CURVE ( 'NONE', #289, #292, #270, .T. ) ;
#140 = CYLINDRICAL_SURFACE ( 'NONE', #50, 0.1560937499999999478 ) ;
#141 = DIRECTION ( 'NONE',  ( -0.0000000000000000000, -0.0000000000000000000, -1.000000000000000000 ) ) ;
#142 = CARTESIAN_POINT ( 'NONE',  ( 0.1560937500000000866, 0.0000000000000000000, 0.8129999999999999449 ) ) ;
#143 = STYLED_ITEM ( 'NONE', ( #239 ), #183 ) ;
#144 = EDGE_CURVE ( 'NONE', #89, #292, #218, .T. ) ;
#145 = CARTESIAN_POINT ( 'NONE',  ( -0.1562500000000000000, 0.0000000000000000000, 2.484999999999999432 ) ) ;
#146 = EDGE_LOOP ( 'NONE', ( #127, #165 ) ) ;
#147 = DIRECTION ( 'NONE',  ( -1.224646799147353207E-16, -0.0000000000000000000, -1.000000000000000000 ) ) ;
#148 = VERTEX_POINT ( 'NONE', #220 ) ;
#149 =( GEOMETRIC_REPRESENTATION_CONTEXT ( 3 ) GLOBAL_UNCERTAINTY_ASSIGNED_CONTEXT ( ( #158 ) ) GLOBAL_UNIT_ASSIGNED_CONTEXT ( ( #199, #93, #63 ) ) REPRESENTATION_CONTEXT ( 'NONE', 'WORKASPACE' ) );
#150 = PRESENTATION_STYLE_ASSIGNMENT (( #176 ) ) ;
#151 = ORIENTED_EDGE ( 'NONE', *, *, #74, .F. ) ;
#152 = ORIENTED_EDGE ( 'NONE', *, *, #144, .F. ) ;
#153 = DIRECTION ( 'NONE',  ( 1.000000000000000000, 0.0000000000000000000, 0.0000000000000000000 ) ) ;
#154 = EDGE_CURVE ( 'NONE', #181, #265, #304, .T. ) ;
#155 = ORIENTED_EDGE ( 'NONE', *, *, #250, .F. ) ;
#156 =( GEOMETRIC_REPRESENTATION_CONTEXT ( 3 ) GLOBAL_UNCERTAINTY_ASSIGNED_CONTEXT ( ( #319 ) ) GLOBAL_UNIT_ASSIGNED_CONTEXT ( ( #100, #157, #71 ) ) REPRESENTATION_CONTEXT ( 'NONE', 'WORKASPACE' ) );
#157 =( NAMED_UNIT ( * ) PLANE_ANGLE_UNIT ( ) SI_UNIT ( $, .RADIAN. ) );
#158 = UNCERTAINTY_MEASURE_WITH_UNIT (LENGTH_MEASURE( 1.000000000000000082E-05 ), #199, 'distance_accuracy_value', 'NONE');
#159 = CARTESIAN_POINT ( 'NONE',  ( 0.0000000000000000000, 0.0000000000000000000, 0.0000000000000000000 ) ) ;
#160 = LENGTH_MEASURE_WITH_UNIT ( LENGTH_MEASURE( 0.02539999999999999897 ), #299 );
#161 = AXIS2_PLACEMENT_3D ( 'NONE', #25, #322, #72 ) ;
#162 = DIRECTION ( 'NONE',  ( 1.000000000000000000, 0.0000000000000000000, -0.0000000000000000000 ) ) ;
#163 = CARTESIAN_POINT ( 'NONE',  ( 0.1460937499999999667, 0.0000000000000000000, 0.01000000000000000021 ) ) ;
#164 = AXIS2_PLACEMENT_3D ( 'NONE', #135, #168, #247 ) ;
#165 = ORIENTED_EDGE ( 'NONE', *, *, #32, .T. ) ;
#166 = CARTESIAN_POINT ( 'NONE',  ( 0.1412499999999994871, 1.821662113731684786E-17, 2.500000000000000000 ) ) ;
#167 = EDGE_CURVE ( 'NONE', #89, #22, #83, .T. ) ;
#168 = DIRECTION ( 'NONE',  ( 0.0000000000000000000, 0.0000000000000000000, 1.000000000000000000 ) ) ;
#169 = AXIS2_PLACEMENT_3D ( 'NONE', #120, #66, #344 ) ;
#170 = CARTESIAN_POINT ( 'NONE',  ( 0.0000000000000000000, 0.0000000000000000000, 2.500000000000000000 ) ) ;
#171 = DIRECTION ( 'NONE',  ( 1.000000000000000000, 0.0000000000000000000, 0.0000000000000000000 ) ) ;
#172 = AXIS2_PLACEMENT_3D ( 'NONE', #79, #189, #114 ) ;
#173 = DIRECTION ( 'NONE',  ( 1.000000000000000000, 0.0000000000000000000, 0.0000000000000000000 ) ) ;
#174 = DIRECTION ( 'NONE',  ( 0.0000000000000000000, 0.0000000000000000000, 1.000000000000000000 ) ) ;
#175 = CIRCLE ( 'NONE', #345, 0.1562500000000000000 ) ;
#176 = SURFACE_STYLE_USAGE ( .BOTH. , #340 ) ;
#177 = EDGE_LOOP ( 'NONE', ( #274, #312, #132, #102 ) ) ;
#178 = AXIS2_PLACEMENT_3D ( 'NONE', #99, #266, #129 ) ;
#179 = DIRECTION ( 'NONE',  ( -0.0000000000000000000, -0.0000000000000000000, -1.000000000000000000 ) ) ;
#180 = ADVANCED_FACE ( 'NONE', ( #191 ), #91, .T. ) ;
#181 = VERTEX_POINT ( 'NONE', #336 ) ;
#182 = LINE ( 'NONE', #11, #62 ) ;
#183 = ADVANCED_BREP_SHAPE_REPRESENTATION ( 'Micro_GEC-312-4-010', ( #263, #20 ), #156 ) ;
#184 = FILL_AREA_STYLE_COLOUR ( '', #214 ) ;
#185 = EDGE_LOOP ( 'NONE', ( #198, #155, #206, #76 ) ) ;
#186 = ORIENTED_EDGE ( 'NONE', *, *, #308, .T. ) ;
#187 = CARTESIAN_POINT ( 'NONE',  ( 1.224646799147353577E-18, 0.0000000000000000000, 0.01000000000000000194 ) ) ;
#188 = DIRECTION ( 'NONE',  ( -1.224646799147353207E-16, -0.0000000000000000000, -1.000000000000000000 ) ) ;
#189 = DIRECTION ( 'NONE',  ( 1.224646799147353207E-16, 1.000000000000000000, -0.0000000000000000000 ) ) ;
#190 = AXIS2_PLACEMENT_3D ( 'NONE', #170, #279, #33 ) ;
#191 = FACE_OUTER_BOUND ( 'NONE', #69, .T. ) ;
#192 = DIRECTION ( 'NONE',  ( -1.000000000000000000, 0.0000000000000000000, 1.224646799147353207E-16 ) ) ;
#193 = DIRECTION ( 'NONE',  ( -1.000000000000000000, 0.0000000000000000000, 0.0000000000000000000 ) ) ;
#194 = CIRCLE ( 'NONE', #82, 0.1560937499999999756 ) ;
#195 = CARTESIAN_POINT ( 'NONE',  ( 0.0000000000000000000, 0.0000000000000000000, 0.0000000000000000000 ) ) ;
#196 = CARTESIAN_POINT ( 'NONE',  ( 0.1412499999999994871, 1.729813603795630110E-17, 2.500000000000000000 ) ) ;
#197 = LENGTH_MEASURE_WITH_UNIT ( LENGTH_MEASURE( 0.02539999999999999897 ), #92 );
#198 = ORIENTED_EDGE ( 'NONE', *, *, #167, .F. ) ;
#199 =( CONVERSION_BASED_UNIT ( 'INCH', #197 ) LENGTH_UNIT ( ) NAMED_UNIT ( #48 ) );
#200 = ORIENTED_EDGE ( 'NONE', *, *, #284, .T. ) ;
#201 = ADVANCED_FACE ( 'NONE', ( #81 ), #276, .T. ) ;
#202 = EDGE_CURVE ( 'NONE', #303, #148, #34, .T. ) ;
#203 = FACE_OUTER_BOUND ( 'NONE', #294, .T. ) ;
#204 = AXIS2_PLACEMENT_3D ( 'NONE', #187, #300, #46 ) ;
#205 = FACE_OUTER_BOUND ( 'NONE', #348, .T. ) ;
#206 = ORIENTED_EDGE ( 'NONE', *, *, #202, .T. ) ;
#207 =( GEOMETRIC_REPRESENTATION_CONTEXT ( 3 ) GLOBAL_UNCERTAINTY_ASSIGNED_CONTEXT ( ( #217 ) ) GLOBAL_UNIT_ASSIGNED_CONTEXT ( ( #208, #107, #268 ) ) REPRESENTATION_CONTEXT ( 'NONE', 'WORKASPACE' ) );
#208 =( CONVERSION_BASED_UNIT ( 'INCH', #350 ) LENGTH_UNIT ( ) NAMED_UNIT ( #212 ) );
#209 = ORIENTED_EDGE ( 'NONE', *, *, #241, .F. ) ;
#210 = CIRCLE ( 'NONE', #54, 0.1562500000000000000 ) ;
#211 = VERTEX_POINT ( 'NONE', #275 ) ;
#212 = DIMENSIONAL_EXPONENTS ( 1.000000000000000000, 0.0000000000000000000, 0.0000000000000000000, 0.0000000000000000000, 0.0000000000000000000, 0.0000000000000000000, 0.0000000000000000000 ) ;
#213 = FACE_OUTER_BOUND ( 'NONE', #146, .T. ) ;
#214 = COLOUR_RGB ( '',0.7921568627450980005, 0.8196078431372548767, 0.9333333333333333481 ) ;
#215 = ORIENTED_EDGE ( 'NONE', *, *, #228, .F. ) ;
#216 = DIRECTION ( 'NONE',  ( 1.000000000000000000, 0.0000000000000000000, 0.0000000000000000000 ) ) ;
#217 = UNCERTAINTY_MEASURE_WITH_UNIT (LENGTH_MEASURE( 1.000000000000000082E-05 ), #208, 'distance_accuracy_value', 'NONE');
#218 = LINE ( 'NONE', #281, #251 ) ;
#219 = DIRECTION ( 'NONE',  ( 1.000000000000000000, 0.0000000000000000000, 0.0000000000000000000 ) ) ;
#220 = CARTESIAN_POINT ( 'NONE',  ( 0.1562500000000001110, 1.913510623667740388E-17, 0.8138861377843152889 ) ) ;
#221 = CARTESIAN_POINT ( 'NONE',  ( 1.224646799147353577E-18, 0.0000000000000000000, 0.01000000000000000194 ) ) ;
#222 = DIRECTION ( 'NONE',  ( -1.224646799147353207E-16, -0.0000000000000000000, -1.000000000000000000 ) ) ;
#223 = ORIENTED_EDGE ( 'NONE', *, *, #86, .F. ) ;
#224 = DIRECTION ( 'NONE',  ( 0.0000000000000000000, 0.0000000000000000000, 1.000000000000000000 ) ) ;
#225 = ADVANCED_FACE ( 'NONE', ( #55 ), #140, .T. ) ;
#226 = FACE_OUTER_BOUND ( 'NONE', #177, .T. ) ;
#227 = ORIENTED_EDGE ( 'NONE', *, *, #139, .T. ) ;
#228 = EDGE_CURVE ( 'NONE', #242, #211, #9, .T. ) ;
#229 = SURFACE_STYLE_FILL_AREA ( #116 ) ;
#230 = FILL_AREA_STYLE_COLOUR ( '', #5 ) ;
#231 = ORIENTED_EDGE ( 'NONE', *, *, #15, .T. ) ;
#232 = SURFACE_STYLE_USAGE ( .BOTH. , #41 ) ;
#233 = PRODUCT_DEFINITION ( 'UNKNOWN', '', #36, #240 ) ;
#234 = CARTESIAN_POINT ( 'NONE',  ( 0.1560937499999999478, 1.911597113044071073E-17, -1.911597113044071073E-17 ) ) ;
#235 = CIRCLE ( 'NONE', #190, 0.1412499999999994871 ) ;
#236 = CARTESIAN_POINT ( 'NONE',  ( 0.0000000000000000000, 0.0000000000000000000, 0.0000000000000000000 ) ) ;
#237 = ORIENTED_EDGE ( 'NONE', *, *, #90, .T. ) ;
#238 = VECTOR ( 'NONE', #44, 39.37007874015748143 ) ;
#239 = PRESENTATION_STYLE_ASSIGNMENT (( #232 ) ) ;
#240 = PRODUCT_DEFINITION_CONTEXT ( 'detailed design', #262, 'design' ) ;
#241 = EDGE_CURVE ( 'NONE', #19, #106, #43, .T. ) ;
#242 = VERTEX_POINT ( 'NONE', #277 ) ;
#243 = MECHANICAL_DESIGN_GEOMETRIC_PRESENTATION_REPRESENTATION (  '', ( #278 ), #149 ) ;
#244 = CARTESIAN_POINT ( 'NONE',  ( -0.1560937499999998923, 1.912553868355905422E-17, 0.8129999999999999449 ) ) ;
#245 = AXIS2_PLACEMENT_3D ( 'NONE', #333, #141, #219 ) ;
#246 = CARTESIAN_POINT ( 'NONE',  ( 0.0000000000000000000, 0.0000000000000000000, 2.484999999999999432 ) ) ;
#247 = DIRECTION ( 'NONE',  ( 1.000000000000000000, 0.0000000000000000000, 0.0000000000000000000 ) ) ;
#248 = CYLINDRICAL_SURFACE ( 'NONE', #115, 0.1562500000000000000 ) ;
#249 = CARTESIAN_POINT ( 'NONE',  ( 0.0000000000000000000, 0.0000000000000000000, 2.500000000000000000 ) ) ;
#250 = EDGE_CURVE ( 'NONE', #303, #89, #194, .T. ) ;
#251 = VECTOR ( 'NONE', #337, 39.37007874015748143 ) ;
#252 = CARTESIAN_POINT ( 'NONE',  ( 0.0000000000000000000, 0.0000000000000000000, 2.500000000000000000 ) ) ;
#253 = AXIS2_PLACEMENT_3D ( 'NONE', #117, #260, #291 ) ;
#254 = DIRECTION ( 'NONE',  ( -0.7071067811865410224, 0.0000000000000000000, -0.7071067811865539010 ) ) ;
#255 = ADVANCED_FACE ( 'NONE', ( #335 ), #248, .T. ) ;
#256 = LINE ( 'NONE', #318, #130 ) ;
#257 = ADVANCED_FACE ( 'NONE', ( #56 ), #298, .T. ) ;
#258 = CARTESIAN_POINT ( 'NONE',  ( -0.1560937499999999478, 0.0000000000000000000, 0.01000000000000000194 ) ) ;
#259 = EDGE_CURVE ( 'NONE', #106, #19, #235, .T. ) ;
#260 = DIRECTION ( 'NONE',  ( -0.0000000000000000000, -0.0000000000000000000, -1.000000000000000000 ) ) ;
#261 = EDGE_LOOP ( 'NONE', ( #326, #330, #315, #14 ) ) ;
#262 = APPLICATION_CONTEXT ( 'automotive_design' ) ;
#263 = MANIFOLD_SOLID_BREP ( 'Fillet1', #103 ) ;
#264 = ORIENTED_EDGE ( 'NONE', *, *, #90, .F. ) ;
#265 = VERTEX_POINT ( 'NONE', #145 ) ;
#266 = DIRECTION ( 'NONE',  ( -0.0000000000000000000, -0.0000000000000000000, -1.000000000000000000 ) ) ;
#267 = EDGE_CURVE ( 'NONE', #265, #181, #137, .T. ) ;
#268 =( NAMED_UNIT ( * ) SI_UNIT ( $, .STERADIAN. ) SOLID_ANGLE_UNIT ( ) );
#269 = CARTESIAN_POINT ( 'NONE',  ( -0.1412499999999994871, 0.0000000000000000000, 2.500000000000000000 ) ) ;
#270 = CIRCLE ( 'NONE', #325, 0.1560937499999999478 ) ;
#271 = EDGE_CURVE ( 'NONE', #181, #148, #314, .T. ) ;
#272 = DIRECTION ( 'NONE',  ( 0.0000000000000000000, 0.0000000000000000000, -1.000000000000000000 ) ) ;
#273 = PRODUCT_DEFINITION_SHAPE ( 'NONE', 'NONE',  #233 ) ;
#274 = ORIENTED_EDGE ( 'NONE', *, *, #15, .F. ) ;
#275 = CARTESIAN_POINT ( 'NONE',  ( -0.1460937499999999667, 1.850364773086703240E-17, 0.0000000000000000000 ) ) ;
#276 = CONICAL_SURFACE ( 'NONE', #118, 0.1560937499999999756, 0.1745329251994339192 ) ;
#277 = CARTESIAN_POINT ( 'NONE',  ( 0.1460937499999999667, 0.0000000000000000000, 0.0000000000000000000 ) ) ;
#278 = STYLED_ITEM ( 'NONE', ( #150 ), #263 ) ;
#279 = DIRECTION ( 'NONE',  ( 0.0000000000000000000, 0.0000000000000000000, 1.000000000000000000 ) ) ;
#280 = ADVANCED_FACE ( 'NONE', ( #203 ), #98, .T. ) ;
#281 = CARTESIAN_POINT ( 'NONE',  ( -0.1560937499999999478, 0.0000000000000000000, 1.911597113044071073E-17 ) ) ;
#282 = PRODUCT_RELATED_PRODUCT_CATEGORY ( 'part', '', ( #78 ) ) ;
#283 = TOROIDAL_SURFACE ( 'NONE', #339, 0.1460937499999999667, 0.01000000000000000021 ) ;
#284 = EDGE_CURVE ( 'NONE', #89, #303, #124, .T. ) ;
#285 = VECTOR ( 'NONE', #342, 39.37007874015748143 ) ;
#286 = CARTESIAN_POINT ( 'NONE',  ( 0.1560937499999999478, 1.911597113044071073E-17, 0.01000000000000000194 ) ) ;
#287 = ADVANCED_FACE ( 'NONE', ( #205 ), #283, .T. ) ;
#288 = CARTESIAN_POINT ( 'NONE',  ( 1.224646799147353384E-18, 0.0000000000000000000, 0.01000000000000000021 ) ) ;
#289 = VERTEX_POINT ( 'NONE', #286 ) ;
#290 = DIRECTION ( 'NONE',  ( 1.000000000000000000, 0.0000000000000000000, 0.0000000000000000000 ) ) ;
#291 = DIRECTION ( 'NONE',  ( -1.000000000000000000, 0.0000000000000000000, 0.0000000000000000000 ) ) ;
#292 = VERTEX_POINT ( 'NONE', #258 ) ;
#293 = ORIENTED_EDGE ( 'NONE', *, *, #259, .T. ) ;
#294 = EDGE_LOOP ( 'NONE', ( #38, #237, #349, #223 ) ) ;
#295 = AXIS2_PLACEMENT_3D ( 'NONE', #136, #8, #2 ) ;
#296 = ADVANCED_FACE ( 'NONE', ( #226 ), #37, .T. ) ;
#297 = ORIENTED_EDGE ( 'NONE', *, *, #320, .T. ) ;
#298 = CONICAL_SURFACE ( 'NONE', #52, 0.1560937499999999756, 0.1745329251994339192 ) ;
#299 =( LENGTH_UNIT ( ) NAMED_UNIT ( * ) SI_UNIT ( $, .METRE. ) );
#300 = DIRECTION ( 'NONE',  ( 0.0000000000000000000, 0.0000000000000000000, 1.000000000000000000 ) ) ;
#301 = CIRCLE ( 'NONE', #172, 0.009999999999999995004 ) ;
#302 = PRODUCT_CONTEXT ( 'NONE', #30, 'mechanical' ) ;
#303 = VERTEX_POINT ( 'NONE', #142 ) ;
#304 = CIRCLE ( 'NONE', #24, 0.1562500000000000000 ) ;
#305 = ORIENTED_EDGE ( 'NONE', *, *, #86, .T. ) ;
#306 = DIRECTION ( 'NONE',  ( -1.224646799147353207E-16, -0.0000000000000000000, -1.000000000000000000 ) ) ;
#307 = CARTESIAN_POINT ( 'NONE',  ( 9.956378477067980482E-17, 0.0000000000000000000, 0.8129999999999999449 ) ) ;
#308 = EDGE_CURVE ( 'NONE', #265, #22, #182, .T. ) ;
#309 = DIRECTION ( 'NONE',  ( 1.000000000000000000, 0.0000000000000000000, 0.0000000000000000000 ) ) ;
#310 = DIRECTION ( 'NONE',  ( -1.224646799147353207E-16, -0.0000000000000000000, -1.000000000000000000 ) ) ;
#311 = DIRECTION ( 'NONE',  ( 0.7071067811865410224, 8.659560562354852739E-17, -0.7071067811865539010 ) ) ;
#312 = ORIENTED_EDGE ( 'NONE', *, *, #250, .T. ) ;
#313 = PRESENTATION_LAYER_ASSIGNMENT (  '', '', ( #278 ) ) ;
#314 = LINE ( 'NONE', #60, #285 ) ;
#315 = ORIENTED_EDGE ( 'NONE', *, *, #4, .F. ) ;
#316 = CARTESIAN_POINT ( 'NONE',  ( 0.0000000000000000000, 0.0000000000000000000, 2.484999999999999432 ) ) ;
#317 = ORIENTED_EDGE ( 'NONE', *, *, #271, .F. ) ;
#318 = CARTESIAN_POINT ( 'NONE',  ( -0.1412499999999994871, 0.0000000000000000000, 2.500000000000000000 ) ) ;
#319 = UNCERTAINTY_MEASURE_WITH_UNIT (LENGTH_MEASURE( 1.000000000000000082E-05 ), #100, 'distance_accuracy_value', 'NONE');
#320 = EDGE_CURVE ( 'NONE', #19, #265, #256, .T. ) ;
#321 = AXIS2_PLACEMENT_3D ( 'NONE', #288, #224, #13 ) ;
#322 = DIRECTION ( 'NONE',  ( 0.0000000000000000000, 0.0000000000000000000, -1.000000000000000000 ) ) ;
#323 = EDGE_CURVE ( 'NONE', #148, #22, #175, .T. ) ;
#324 = DIRECTION ( 'NONE',  ( 0.0000000000000000000, 0.0000000000000000000, 1.000000000000000000 ) ) ;
#325 = AXIS2_PLACEMENT_3D ( 'NONE', #221, #59, #171 ) ;
#326 = ORIENTED_EDGE ( 'NONE', *, *, #267, .T. ) ;
#327 = ORIENTED_EDGE ( 'NONE', *, *, #202, .F. ) ;
#328 = AXIS2_PLACEMENT_3D ( 'NONE', #16, #147, #338 ) ;
#329 = APPLICATION_PROTOCOL_DEFINITION ( 'draft international standard', 'automotive_design', 1998, #30 ) ;
#330 = ORIENTED_EDGE ( 'NONE', *, *, #271, .T. ) ;
#331 = CARTESIAN_POINT ( 'NONE',  ( -0.1562499999999999167, 0.0000000000000000000, 0.8138861377843152889 ) ) ;
#332 = VECTOR ( 'NONE', #85, 39.37007874015747433 ) ;
#333 = CARTESIAN_POINT ( 'NONE',  ( 1.224646799147353384E-18, 0.0000000000000000000, 0.0000000000000000000 ) ) ;
#334 = DIRECTION ( 'NONE',  ( 0.0000000000000000000, 0.0000000000000000000, 1.000000000000000000 ) ) ;
#335 = FACE_OUTER_BOUND ( 'NONE', #51, .T. ) ;
#336 = CARTESIAN_POINT ( 'NONE',  ( 0.1562500000000000000, 1.913510623667739463E-17, 2.484999999999999432 ) ) ;
#337 = DIRECTION ( 'NONE',  ( -1.224646799147353207E-16, -0.0000000000000000000, -1.000000000000000000 ) ) ;
#338 = DIRECTION ( 'NONE',  ( -1.000000000000000000, 0.0000000000000000000, 0.0000000000000000000 ) ) ;
#339 = AXIS2_PLACEMENT_3D ( 'NONE', #39, #174, #122 ) ;
#340 = SURFACE_SIDE_STYLE ('',( #229 ) ) ;
#341 = ORIENTED_EDGE ( 'NONE', *, *, #323, .F. ) ;
#342 = DIRECTION ( 'NONE',  ( -0.0000000000000000000, -0.0000000000000000000, -1.000000000000000000 ) ) ;
#343 = ORIENTED_EDGE ( 'NONE', *, *, #154, .F. ) ;
#344 = DIRECTION ( 'NONE',  ( -1.000000000000000000, 0.0000000000000000000, 1.224646799147353207E-16 ) ) ;
#345 = AXIS2_PLACEMENT_3D ( 'NONE', #12, #222, #290 ) ;
#346 = ADVANCED_FACE ( 'NONE', ( #40 ), #68, .T. ) ;
#347 = PLANE ( 'NONE',  #84 ) ;
#348 = EDGE_LOOP ( 'NONE', ( #264, #215, #305, #151 ) ) ;
#349 = ORIENTED_EDGE ( 'NONE', *, *, #139, .F. ) ;
#350 = LENGTH_MEASURE_WITH_UNIT ( LENGTH_MEASURE( 0.02539999999999999897 ), #131 );
#351 = EDGE_LOOP ( 'NONE', ( #200, #231, #227, #152 ) ) ;
ENDSEC;
END-ISO-10303-21;
