ISO-10303-21;
HEADER;
FILE_DESCRIPTION (( 'STEP AP214' ),
    '1' );
FILE_NAME ('84306.STEP',
    '2023-06-23T12:11:22',
    ( '' ),
    ( '' ),
    'SwSTEP 2.0',
    'SolidWorks 2023',
    '' );
FILE_SCHEMA (( 'AUTOMOTIVE_DESIGN' ));
ENDSEC;

DATA;
#1 = CARTESIAN_POINT ( 'NONE',  ( 0.000000000000000000, 0.000000000000000000, 0.000000000000000000 ) ) ;
#2 = ADVANCED_FACE ( 'NONE', ( #126 ), #195, .T. ) ;
#3 = CARTESIAN_POINT ( 'NONE',  ( 0.000000000000000000, 0.000000000000000000, 0.000000000000000000 ) ) ;
#4 = LENGTH_MEASURE_WITH_UNIT ( LENGTH_MEASURE( 0.02539999999999999897 ), #22 );
#5 = APPLICATION_PROTOCOL_DEFINITION ( 'draft international standard', 'automotive_design', 1998, #118 ) ;
#6 = MECHANICAL_DESIGN_GEOMETRIC_PRESENTATION_REPRESENTATION (  '', ( #254 ), #202 ) ;
#7 = AXIS2_PLACEMENT_3D ( 'NONE', #43, #108, #25 ) ;
#8 = DIRECTION ( 'NONE',  ( -1.000000000000000000, 0.000000000000000000, 0.000000000000000000 ) ) ;
#9 = ADVANCED_BREP_SHAPE_REPRESENTATION ( '84306', ( #264, #163, #96 ), #229 ) ;
#10 = APPLICATION_CONTEXT ( 'automotive_design' ) ;
#11 = CARTESIAN_POINT ( 'NONE',  ( 0.000000000000000000, 0.5000000000000000000, 0.000000000000000000 ) ) ;
#12 = SURFACE_STYLE_FILL_AREA ( #141 ) ;
#13 = DIMENSIONAL_EXPONENTS ( 1.000000000000000000, 0.000000000000000000, 0.000000000000000000, 0.000000000000000000, 0.000000000000000000, 0.000000000000000000, 0.000000000000000000 ) ;
#14 = ORIENTED_EDGE ( 'NONE', *, *, #29, .T. ) ;
#15 = SURFACE_STYLE_USAGE ( .BOTH. , #137 ) ;
#16 = COLOUR_RGB ( '',0.7921568627450980005, 0.8196078431372548767, 0.9333333333333333481 ) ;
#17 = AXIS2_PLACEMENT_3D ( 'NONE', #133, #258, #70 ) ;
#18 = DIRECTION ( 'NONE',  ( -1.000000000000000000, 0.000000000000000000, 0.000000000000000000 ) ) ;
#19 = PRODUCT_DEFINITION_SHAPE ( 'NONE', 'NONE',  #54 ) ;
#20 =( NAMED_UNIT ( * ) SI_UNIT ( $, .STERADIAN. ) SOLID_ANGLE_UNIT ( ) );
#21 = DIRECTION ( 'NONE',  ( -0.000000000000000000, -1.000000000000000000, -0.000000000000000000 ) ) ;
#22 =( LENGTH_UNIT ( ) NAMED_UNIT ( * ) SI_UNIT ( $, .METRE. ) );
#23 =( CONVERSION_BASED_UNIT ( 'INCH', #193 ) LENGTH_UNIT ( ) NAMED_UNIT ( #86 ) );
#24 = FILL_AREA_STYLE_COLOUR ( '', #211 ) ;
#25 = DIRECTION ( 'NONE',  ( -1.000000000000000000, -3.061616997868379936E-17, 0.000000000000000000 ) ) ;
#26 = FACE_OUTER_BOUND ( 'NONE', #305, .T. ) ;
#27 = PRODUCT ( '84306', '84306', '', ( #262 ) ) ;
#28 = FILL_AREA_STYLE ('',( #24 ) ) ;
#29 = EDGE_CURVE ( 'NONE', #81, #266, #207, .T. ) ;
#30 = UNCERTAINTY_MEASURE_WITH_UNIT (LENGTH_MEASURE( 1.000000000000000082E-05 ), #251, 'distance_accuracy_value', 'NONE');
#31 = PRESENTATION_LAYER_ASSIGNMENT (  '', '', ( #162 ) ) ;
#32 = DIRECTION ( 'NONE',  ( 0.000000000000000000, 0.000000000000000000, -1.000000000000000000 ) ) ;
#33 = ADVANCED_FACE ( 'NONE', ( #85 ), #177, .T. ) ;
#34 = LINE ( 'NONE', #186, #283 ) ;
#35 = DIRECTION ( 'NONE',  ( -3.061616997868379936E-17, 1.000000000000000000, -0.000000000000000000 ) ) ;
#36 =( GEOMETRIC_REPRESENTATION_CONTEXT ( 3 ) GLOBAL_UNCERTAINTY_ASSIGNED_CONTEXT ( ( #294 ) ) GLOBAL_UNIT_ASSIGNED_CONTEXT ( ( #51, #97, #296 ) ) REPRESENTATION_CONTEXT ( 'NONE', 'WORKASPACE' ) );
#37 = EDGE_CURVE ( 'NONE', #84, #81, #60, .T. ) ;
#38 = DIMENSIONAL_EXPONENTS ( 1.000000000000000000, 0.000000000000000000, 0.000000000000000000, 0.000000000000000000, 0.000000000000000000, 0.000000000000000000, 0.000000000000000000 ) ;
#39 = ORIENTED_EDGE ( 'NONE', *, *, #292, .T. ) ;
#40 =( NAMED_UNIT ( * ) PLANE_ANGLE_UNIT ( ) SI_UNIT ( $, .RADIAN. ) );
#41 = SURFACE_STYLE_FILL_AREA ( #28 ) ;
#42 = SURFACE_SIDE_STYLE ('',( #248 ) ) ;
#43 = CARTESIAN_POINT ( 'NONE',  ( 5.858436651022869520E-35, 0.5000000000000000000, 0.000000000000000000 ) ) ;
#44 = DIRECTION ( 'NONE',  ( -0.000000000000000000, -1.000000000000000000, -0.000000000000000000 ) ) ;
#45 =( CONVERSION_BASED_UNIT ( 'INCH', #307 ) LENGTH_UNIT ( ) NAMED_UNIT ( #224 ) );
#46 =( GEOMETRIC_REPRESENTATION_CONTEXT ( 3 ) GLOBAL_UNCERTAINTY_ASSIGNED_CONTEXT ( ( #200 ) ) GLOBAL_UNIT_ASSIGNED_CONTEXT ( ( #252, #228, #113 ) ) REPRESENTATION_CONTEXT ( 'NONE', 'WORKASPACE' ) );
#47 = CIRCLE ( 'NONE', #222, 0.1250000000000000000 ) ;
#48 = EDGE_LOOP ( 'NONE', ( #271, #157 ) ) ;
#49 = DIRECTION ( 'NONE',  ( -3.061616997868379936E-17, 1.000000000000000000, -0.000000000000000000 ) ) ;
#50 = COLOUR_RGB ( '',1.000000000000000000, 0.000000000000000000, 0.000000000000000000 ) ;
#51 =( CONVERSION_BASED_UNIT ( 'INCH', #190 ) LENGTH_UNIT ( ) NAMED_UNIT ( #53 ) );
#52 = VERTEX_POINT ( 'NONE', #170 ) ;
#53 = DIMENSIONAL_EXPONENTS ( 1.000000000000000000, 0.000000000000000000, 0.000000000000000000, 0.000000000000000000, 0.000000000000000000, 0.000000000000000000, 0.000000000000000000 ) ;
#54 = PRODUCT_DEFINITION ( 'UNKNOWN', '', #73, #99 ) ;
#55 = DIRECTION ( 'NONE',  ( 0.000000000000000000, 0.000000000000000000, 1.000000000000000000 ) ) ;
#56 = ORIENTED_EDGE ( 'NONE', *, *, #166, .F. ) ;
#57 = DIMENSIONAL_EXPONENTS ( 1.000000000000000000, 0.000000000000000000, 0.000000000000000000, 0.000000000000000000, 0.000000000000000000, 0.000000000000000000, 0.000000000000000000 ) ;
#58 = ORIENTED_EDGE ( 'NONE', *, *, #166, .T. ) ;
#59 = DIMENSIONAL_EXPONENTS ( 1.000000000000000000, 0.000000000000000000, 0.000000000000000000, 0.000000000000000000, 0.000000000000000000, 0.000000000000000000, 0.000000000000000000 ) ;
#60 = LINE ( 'NONE', #104, #82 ) ;
#61 =( CONVERSION_BASED_UNIT ( 'INCH', #191 ) LENGTH_UNIT ( ) NAMED_UNIT ( #57 ) );
#62 = ORIENTED_EDGE ( 'NONE', *, *, #37, .T. ) ;
#63 = FACE_OUTER_BOUND ( 'NONE', #172, .T. ) ;
#64 = MECHANICAL_DESIGN_GEOMETRIC_PRESENTATION_REPRESENTATION (  '', ( #291 ), #36 ) ;
#65 = DIRECTION ( 'NONE',  ( 0.000000000000000000, 0.000000000000000000, -1.000000000000000000 ) ) ;
#66 = CARTESIAN_POINT ( 'NONE',  ( 0.1250000000000000278, 2.500000000000000000, 1.530808498934192125E-17 ) ) ;
#67 = PRESENTATION_STYLE_ASSIGNMENT (( #100 ) ) ;
#68 = CYLINDRICAL_SURFACE ( 'NONE', #208, 0.1250000000000000000 ) ;
#69 = AXIS2_PLACEMENT_3D ( 'NONE', #116, #182, #8 ) ;
#70 = DIRECTION ( 'NONE',  ( 0.000000000000000000, 0.000000000000000000, -1.000000000000000000 ) ) ;
#71 = ORIENTED_EDGE ( 'NONE', *, *, #148, .T. ) ;
#72 =( GEOMETRIC_REPRESENTATION_CONTEXT ( 3 ) GLOBAL_UNCERTAINTY_ASSIGNED_CONTEXT ( ( #30 ) ) GLOBAL_UNIT_ASSIGNED_CONTEXT ( ( #251, #181, #111 ) ) REPRESENTATION_CONTEXT ( 'NONE', 'WORKASPACE' ) );
#73 = PRODUCT_DEFINITION_FORMATION_WITH_SPECIFIED_SOURCE ( 'ANY', '', #27, .NOT_KNOWN. ) ;
#74 = ORIENTED_EDGE ( 'NONE', *, *, #110, .F. ) ;
#75 = DIRECTION ( 'NONE',  ( -0.000000000000000000, -1.000000000000000000, -0.000000000000000000 ) ) ;
#76 = EDGE_CURVE ( 'NONE', #52, #84, #237, .T. ) ;
#77 = AXIS2_PLACEMENT_3D ( 'NONE', #154, #240, #18 ) ;
#78 = CARTESIAN_POINT ( 'NONE',  ( 0.000000000000000000, 0.000000000000000000, 0.000000000000000000 ) ) ;
#79 =( LENGTH_UNIT ( ) NAMED_UNIT ( * ) SI_UNIT ( $, .METRE. ) );
#80 = UNCERTAINTY_MEASURE_WITH_UNIT (LENGTH_MEASURE( 1.000000000000000082E-05 ), #61, 'distance_accuracy_value', 'NONE');
#81 = VERTEX_POINT ( 'NONE', #66 ) ;
#82 = VECTOR ( 'NONE', #156, 39.37007874015748143 ) ;
#83 = STYLED_ITEM ( 'NONE', ( #145 ), #163 ) ;
#84 = VERTEX_POINT ( 'NONE', #129 ) ;
#85 = FACE_OUTER_BOUND ( 'NONE', #236, .T. ) ;
#86 = DIMENSIONAL_EXPONENTS ( 1.000000000000000000, 0.000000000000000000, 0.000000000000000000, 0.000000000000000000, 0.000000000000000000, 0.000000000000000000, 0.000000000000000000 ) ;
#87 = UNCERTAINTY_MEASURE_WITH_UNIT (LENGTH_MEASURE( 1.000000000000000082E-05 ), #45, 'distance_accuracy_value', 'NONE');
#88 = CIRCLE ( 'NONE', #173, 0.1250000000000000000 ) ;
#89 =( NAMED_UNIT ( * ) SI_UNIT ( $, .STERADIAN. ) SOLID_ANGLE_UNIT ( ) );
#90 = ADVANCED_FACE ( 'NONE', ( #279 ), #205, .T. ) ;
#91 =( NAMED_UNIT ( * ) PLANE_ANGLE_UNIT ( ) SI_UNIT ( $, .RADIAN. ) );
#92 = ORIENTED_EDGE ( 'NONE', *, *, #76, .F. ) ;
#93 = ADVANCED_FACE ( 'NONE', ( #155 ), #201, .F. ) ;
#94 = DIRECTION ( 'NONE',  ( 0.000000000000000000, 0.000000000000000000, -1.000000000000000000 ) ) ;
#95 = PRESENTATION_STYLE_ASSIGNMENT (( #107 ) ) ;
#96 = AXIS2_PLACEMENT_3D ( 'NONE', #150, #55, #244 ) ;
#97 =( NAMED_UNIT ( * ) PLANE_ANGLE_UNIT ( ) SI_UNIT ( $, .RADIAN. ) );
#98 = ORIENTED_EDGE ( 'NONE', *, *, #37, .F. ) ;
#99 = PRODUCT_DEFINITION_CONTEXT ( 'detailed design', #118, 'design' ) ;
#100 = SURFACE_STYLE_USAGE ( .BOTH. , #180 ) ;
#101 = PRODUCT_RELATED_PRODUCT_CATEGORY ( 'part', '', ( #27 ) ) ;
#102 = ORIENTED_EDGE ( 'NONE', *, *, #292, .F. ) ;
#103 = CLOSED_SHELL ( 'NONE', ( #2, #280, #284, #93 ) ) ;
#104 = CARTESIAN_POINT ( 'NONE',  ( 0.1249999999999999584, 2.500000000000000000, 1.530808498934191817E-17 ) ) ;
#105 = CARTESIAN_POINT ( 'NONE',  ( -6.123233995736759873E-17, 2.500000000000000000, 0.000000000000000000 ) ) ;
#106 = SURFACE_STYLE_FILL_AREA ( #138 ) ;
#107 = SURFACE_STYLE_USAGE ( .BOTH. , #147 ) ;
#108 = DIRECTION ( 'NONE',  ( -3.061616997868379936E-17, 1.000000000000000000, 0.000000000000000000 ) ) ;
#109 = SURFACE_STYLE_USAGE ( .BOTH. , #255 ) ;
#110 = EDGE_CURVE ( 'NONE', #212, #267, #47, .T. ) ;
#111 =( NAMED_UNIT ( * ) SI_UNIT ( $, .STERADIAN. ) SOLID_ANGLE_UNIT ( ) );
#112 = AXIS2_PLACEMENT_3D ( 'NONE', #241, #263, #189 ) ;
#113 =( NAMED_UNIT ( * ) SI_UNIT ( $, .STERADIAN. ) SOLID_ANGLE_UNIT ( ) );
#114 =( NAMED_UNIT ( * ) SI_UNIT ( $, .STERADIAN. ) SOLID_ANGLE_UNIT ( ) );
#115 = CARTESIAN_POINT ( 'NONE',  ( 1.530808498934191509E-17, 0.000000000000000000, 0.1250000000000000000 ) ) ;
#116 = CARTESIAN_POINT ( 'NONE',  ( -6.123233995736759873E-17, 2.500000000000000000, 0.000000000000000000 ) ) ;
#117 = COLOUR_RGB ( '',1.000000000000000000, 0.000000000000000000, 0.000000000000000000 ) ;
#118 = APPLICATION_CONTEXT ( 'automotive_design' ) ;
#119 = ORIENTED_EDGE ( 'NONE', *, *, #230, .F. ) ;
#120 = ADVANCED_FACE ( 'NONE', ( #136 ), #160, .T. ) ;
#121 = CIRCLE ( 'NONE', #17, 0.1250000000000000000 ) ;
#122 = DIRECTION ( 'NONE',  ( -3.061616997868379936E-17, 1.000000000000000000, -0.000000000000000000 ) ) ;
#123 = FILL_AREA_STYLE_COLOUR ( '', #117 ) ;
#124 = COLOUR_RGB ( '',1.000000000000000000, 0.000000000000000000, 0.000000000000000000 ) ;
#125 =( NAMED_UNIT ( * ) SI_UNIT ( $, .STERADIAN. ) SOLID_ANGLE_UNIT ( ) );
#126 = FACE_OUTER_BOUND ( 'NONE', #300, .T. ) ;
#127 = PRESENTATION_LAYER_ASSIGNMENT (  '', '', ( #286 ) ) ;
#128 = CARTESIAN_POINT ( 'NONE',  ( 0.000000000000000000, 0.5000000000000001110, 0.000000000000000000 ) ) ;
#129 = CARTESIAN_POINT ( 'NONE',  ( 0.1250000000000000278, 0.5000000000000001110, 1.530808498934192125E-17 ) ) ;
#130 = CYLINDRICAL_SURFACE ( 'NONE', #69, 0.1250000000000000278 ) ;
#131 = CARTESIAN_POINT ( 'NONE',  ( 0.1250000000000000000, 2.500000000000000000, 0.000000000000000000 ) ) ;
#132 = CARTESIAN_POINT ( 'NONE',  ( 0.000000000000000000, 0.5000000000000001110, 0.000000000000000000 ) ) ;
#133 = CARTESIAN_POINT ( 'NONE',  ( 0.000000000000000000, 0.000000000000000000, 0.000000000000000000 ) ) ;
#134 = EDGE_CURVE ( 'NONE', #84, #52, #88, .T. ) ;
#135 = CARTESIAN_POINT ( 'NONE',  ( 0.000000000000000000, 0.000000000000000000, -0.1250000000000000000 ) ) ;
#136 = FACE_OUTER_BOUND ( 'NONE', #48, .T. ) ;
#137 = SURFACE_SIDE_STYLE ('',( #12 ) ) ;
#138 = FILL_AREA_STYLE ('',( #140 ) ) ;
#139 = MECHANICAL_DESIGN_GEOMETRIC_PRESENTATION_REPRESENTATION (  '', ( #277 ), #178 ) ;
#140 = FILL_AREA_STYLE_COLOUR ( '', #50 ) ;
#141 = FILL_AREA_STYLE ('',( #206 ) ) ;
#142 = PRESENTATION_LAYER_ASSIGNMENT (  '', '', ( #83 ) ) ;
#143 = ORIENTED_EDGE ( 'NONE', *, *, #306, .F. ) ;
#144 = ORIENTED_EDGE ( 'NONE', *, *, #134, .T. ) ;
#145 = PRESENTATION_STYLE_ASSIGNMENT (( #15 ) ) ;
#146 = PRESENTATION_LAYER_ASSIGNMENT (  '', '', ( #254 ) ) ;
#147 = SURFACE_SIDE_STYLE ('',( #185 ) ) ;
#148 = EDGE_CURVE ( 'NONE', #151, #212, #34, .T. ) ;
#149 =( NAMED_UNIT ( * ) PLANE_ANGLE_UNIT ( ) SI_UNIT ( $, .RADIAN. ) );
#150 = CARTESIAN_POINT ( 'NONE',  ( 0.000000000000000000, 0.000000000000000000, 0.000000000000000000 ) ) ;
#151 = VERTEX_POINT ( 'NONE', #242 ) ;
#152 = AXIS2_PLACEMENT_3D ( 'NONE', #239, #218, #187 ) ;
#153 = AXIS2_PLACEMENT_3D ( 'NONE', #11, #219, #301 ) ;
#154 = CARTESIAN_POINT ( 'NONE',  ( -6.123233995736759873E-17, 2.500000000000000000, 0.000000000000000000 ) ) ;
#155 = FACE_OUTER_BOUND ( 'NONE', #295, .T. ) ;
#156 = DIRECTION ( 'NONE',  ( -3.061616997868379936E-17, 1.000000000000000000, -0.000000000000000000 ) ) ;
#157 = ORIENTED_EDGE ( 'NONE', *, *, #265, .T. ) ;
#158 = PRESENTATION_LAYER_ASSIGNMENT (  '', '', ( #291 ) ) ;
#159 = COLOUR_RGB ( '',0.7921568627450980005, 0.8196078431372548767, 0.9333333333333333481 ) ;
#160 = PLANE ( 'NONE',  #213 ) ;
#161 = SURFACE_STYLE_USAGE ( .BOTH. , #282 ) ;
#162 = STYLED_ITEM ( 'NONE', ( #231 ), #120 ) ;
#163 = MANIFOLD_SOLID_BREP ( 'Revolve - Tool Body (Straight Shanked)', #103 ) ;
#164 = AXIS2_PLACEMENT_3D ( 'NONE', #132, #259, #179 ) ;
#165 = CARTESIAN_POINT ( 'NONE',  ( 1.530808498934191509E-17, 0.5000000000000000000, 0.1250000000000000000 ) ) ;
#166 = EDGE_CURVE ( 'NONE', #174, #151, #260, .T. ) ;
#167 = ORIENTED_EDGE ( 'NONE', *, *, #134, .F. ) ;
#168 = CARTESIAN_POINT ( 'NONE',  ( -0.1250000000000001388, 2.500000000000000000, 0.000000000000000000 ) ) ;
#169 =( LENGTH_UNIT ( ) NAMED_UNIT ( * ) SI_UNIT ( $, .METRE. ) );
#170 = CARTESIAN_POINT ( 'NONE',  ( -0.1250000000000000000, 0.5000000000000001110, 0.000000000000000000 ) ) ;
#171 = ORIENTED_EDGE ( 'NONE', *, *, #29, .F. ) ;
#172 = EDGE_LOOP ( 'NONE', ( #98, #144, #221, #171 ) ) ;
#173 = AXIS2_PLACEMENT_3D ( 'NONE', #128, #49, #233 ) ;
#174 = VERTEX_POINT ( 'NONE', #165 ) ;
#175 = SURFACE_STYLE_FILL_AREA ( #220 ) ;
#176 = DIRECTION ( 'NONE',  ( 0.000000000000000000, -1.000000000000000000, -0.000000000000000000 ) ) ;
#177 = CYLINDRICAL_SURFACE ( 'NONE', #253, 0.1250000000000000000 ) ;
#178 =( GEOMETRIC_REPRESENTATION_CONTEXT ( 3 ) GLOBAL_UNCERTAINTY_ASSIGNED_CONTEXT ( ( #268 ) ) GLOBAL_UNIT_ASSIGNED_CONTEXT ( ( #272, #40, #20 ) ) REPRESENTATION_CONTEXT ( 'NONE', 'WORKASPACE' ) );
#179 = DIRECTION ( 'NONE',  ( -1.000000000000000000, 0.000000000000000000, 0.000000000000000000 ) ) ;
#180 = SURFACE_SIDE_STYLE ('',( #175 ) ) ;
#181 =( NAMED_UNIT ( * ) PLANE_ANGLE_UNIT ( ) SI_UNIT ( $, .RADIAN. ) );
#182 = DIRECTION ( 'NONE',  ( -3.061616997868379936E-17, 1.000000000000000000, -0.000000000000000000 ) ) ;
#183 = ADVANCED_FACE ( 'NONE', ( #235 ), #68, .T. ) ;
#184 = AXIS2_PLACEMENT_3D ( 'NONE', #216, #302, #227 ) ;
#185 = SURFACE_STYLE_FILL_AREA ( #210 ) ;
#186 = CARTESIAN_POINT ( 'NONE',  ( 0.000000000000000000, 0.000000000000000000, -0.1250000000000000000 ) ) ;
#187 = DIRECTION ( 'NONE',  ( 0.000000000000000000, 0.000000000000000000, -1.000000000000000000 ) ) ;
#188 = CIRCLE ( 'NONE', #112, 0.1250000000000000555 ) ;
#189 = DIRECTION ( 'NONE',  ( -1.000000000000000000, 0.000000000000000000, 0.000000000000000000 ) ) ;
#190 = LENGTH_MEASURE_WITH_UNIT ( LENGTH_MEASURE( 0.02539999999999999897 ), #79 );
#191 = LENGTH_MEASURE_WITH_UNIT ( LENGTH_MEASURE( 0.02539999999999999897 ), #257 );
#192 = ORIENTED_EDGE ( 'NONE', *, *, #230, .T. ) ;
#193 = LENGTH_MEASURE_WITH_UNIT ( LENGTH_MEASURE( 0.02539999999999999897 ), #169 );
#194 = CLOSED_SHELL ( 'NONE', ( #183, #90, #33, #120 ) ) ;
#195 = CYLINDRICAL_SURFACE ( 'NONE', #77, 0.1250000000000000278 ) ;
#196 = MECHANICAL_DESIGN_GEOMETRIC_PRESENTATION_REPRESENTATION (  '', ( #162 ), #46 ) ;
#197 = ORIENTED_EDGE ( 'NONE', *, *, #198, .F. ) ;
#198 = EDGE_CURVE ( 'NONE', #266, #81, #188, .T. ) ;
#199 = DIRECTION ( 'NONE',  ( 3.061616997868379936E-17, -1.000000000000000000, 0.000000000000000000 ) ) ;
#200 = UNCERTAINTY_MEASURE_WITH_UNIT (LENGTH_MEASURE( 1.000000000000000082E-05 ), #252, 'distance_accuracy_value', 'NONE');
#201 = PLANE ( 'NONE',  #299 ) ;
#202 =( GEOMETRIC_REPRESENTATION_CONTEXT ( 3 ) GLOBAL_UNCERTAINTY_ASSIGNED_CONTEXT ( ( #87 ) ) GLOBAL_UNIT_ASSIGNED_CONTEXT ( ( #45, #256, #89 ) ) REPRESENTATION_CONTEXT ( 'NONE', 'WORKASPACE' ) );
#203 = CIRCLE ( 'NONE', #153, 0.1250000000000000000 ) ;
#204 = CARTESIAN_POINT ( 'NONE',  ( -0.1250000000000001110, 2.500000000000000000, 0.000000000000000000 ) ) ;
#205 = PLANE ( 'NONE',  #184 ) ;
#206 = FILL_AREA_STYLE_COLOUR ( '', #16 ) ;
#207 = CIRCLE ( 'NONE', #247, 0.1250000000000000555 ) ;
#208 = AXIS2_PLACEMENT_3D ( 'NONE', #1, #75, #32 ) ;
#209 = ORIENTED_EDGE ( 'NONE', *, *, #265, .F. ) ;
#210 = FILL_AREA_STYLE ('',( #288 ) ) ;
#211 = COLOUR_RGB ( '',1.000000000000000000, 0.000000000000000000, 0.000000000000000000 ) ;
#212 = VERTEX_POINT ( 'NONE', #135 ) ;
#213 = AXIS2_PLACEMENT_3D ( 'NONE', #3, #176, #275 ) ;
#214 = SURFACE_STYLE_USAGE ( .BOTH. , #42 ) ;
#215 = UNCERTAINTY_MEASURE_WITH_UNIT (LENGTH_MEASURE( 1.000000000000000082E-05 ), #23, 'distance_accuracy_value', 'NONE');
#216 = CARTESIAN_POINT ( 'NONE',  ( 0.000000000000000000, 0.5000000000000000000, 0.000000000000000000 ) ) ;
#217 = ORIENTED_EDGE ( 'NONE', *, *, #148, .F. ) ;
#218 = DIRECTION ( 'NONE',  ( -0.000000000000000000, -1.000000000000000000, -0.000000000000000000 ) ) ;
#219 = DIRECTION ( 'NONE',  ( -0.000000000000000000, -1.000000000000000000, -0.000000000000000000 ) ) ;
#220 = FILL_AREA_STYLE ('',( #226 ) ) ;
#221 = ORIENTED_EDGE ( 'NONE', *, *, #306, .T. ) ;
#222 = AXIS2_PLACEMENT_3D ( 'NONE', #304, #21, #65 ) ;
#223 = PRESENTATION_STYLE_ASSIGNMENT (( #214 ) ) ;
#224 = DIMENSIONAL_EXPONENTS ( 1.000000000000000000, 0.000000000000000000, 0.000000000000000000, 0.000000000000000000, 0.000000000000000000, 0.000000000000000000, 0.000000000000000000 ) ;
#225 =( LENGTH_UNIT ( ) NAMED_UNIT ( * ) SI_UNIT ( $, .METRE. ) );
#226 = FILL_AREA_STYLE_COLOUR ( '', #159 ) ;
#227 = DIRECTION ( 'NONE',  ( 0.000000000000000000, -0.000000000000000000, 1.000000000000000000 ) ) ;
#228 =( NAMED_UNIT ( * ) PLANE_ANGLE_UNIT ( ) SI_UNIT ( $, .RADIAN. ) );
#229 =( GEOMETRIC_REPRESENTATION_CONTEXT ( 3 ) GLOBAL_UNCERTAINTY_ASSIGNED_CONTEXT ( ( #215 ) ) GLOBAL_UNIT_ASSIGNED_CONTEXT ( ( #23, #91, #114 ) ) REPRESENTATION_CONTEXT ( 'NONE', 'WORKASPACE' ) );
#230 = EDGE_CURVE ( 'NONE', #174, #267, #309, .T. ) ;
#231 = PRESENTATION_STYLE_ASSIGNMENT (( #109 ) ) ;
#232 = PRESENTATION_STYLE_ASSIGNMENT (( #161 ) ) ;
#233 = DIRECTION ( 'NONE',  ( -1.000000000000000000, 0.000000000000000000, 0.000000000000000000 ) ) ;
#234 = MECHANICAL_DESIGN_GEOMETRIC_PRESENTATION_REPRESENTATION (  '', ( #83 ), #249 ) ;
#235 = FACE_OUTER_BOUND ( 'NONE', #273, .T. ) ;
#236 = EDGE_LOOP ( 'NONE', ( #119, #58, #71, #209 ) ) ;
#237 = CIRCLE ( 'NONE', #164, 0.1250000000000000000 ) ;
#238 = CARTESIAN_POINT ( 'NONE',  ( 1.530808498934191509E-17, 0.000000000000000000, 0.1250000000000000000 ) ) ;
#239 = CARTESIAN_POINT ( 'NONE',  ( 0.000000000000000000, 0.5000000000000000000, 0.000000000000000000 ) ) ;
#240 = DIRECTION ( 'NONE',  ( -3.061616997868379936E-17, 1.000000000000000000, -0.000000000000000000 ) ) ;
#241 = CARTESIAN_POINT ( 'NONE',  ( -6.123233995736759873E-17, 2.500000000000000000, 0.000000000000000000 ) ) ;
#242 = CARTESIAN_POINT ( 'NONE',  ( 0.000000000000000000, 0.5000000000000000000, -0.1250000000000000000 ) ) ;
#243 = ORIENTED_EDGE ( 'NONE', *, *, #76, .T. ) ;
#244 = DIRECTION ( 'NONE',  ( 1.000000000000000000, 0.000000000000000000, 0.000000000000000000 ) ) ;
#245 = EDGE_LOOP ( 'NONE', ( #102, #56 ) ) ;
#246 = LENGTH_MEASURE_WITH_UNIT ( LENGTH_MEASURE( 0.02539999999999999897 ), #281 );
#247 = AXIS2_PLACEMENT_3D ( 'NONE', #105, #35, #303 ) ;
#248 = SURFACE_STYLE_FILL_AREA ( #276 ) ;
#249 =( GEOMETRIC_REPRESENTATION_CONTEXT ( 3 ) GLOBAL_UNCERTAINTY_ASSIGNED_CONTEXT ( ( #80 ) ) GLOBAL_UNIT_ASSIGNED_CONTEXT ( ( #61, #149, #125 ) ) REPRESENTATION_CONTEXT ( 'NONE', 'WORKASPACE' ) );
#250 = PLANE ( 'NONE',  #7 ) ;
#251 =( CONVERSION_BASED_UNIT ( 'INCH', #4 ) LENGTH_UNIT ( ) NAMED_UNIT ( #13 ) );
#252 =( CONVERSION_BASED_UNIT ( 'INCH', #246 ) LENGTH_UNIT ( ) NAMED_UNIT ( #38 ) );
#253 = AXIS2_PLACEMENT_3D ( 'NONE', #78, #269, #94 ) ;
#254 = STYLED_ITEM ( 'NONE', ( #95 ), #183 ) ;
#255 = SURFACE_SIDE_STYLE ('',( #41 ) ) ;
#256 =( NAMED_UNIT ( * ) PLANE_ANGLE_UNIT ( ) SI_UNIT ( $, .RADIAN. ) );
#257 =( LENGTH_UNIT ( ) NAMED_UNIT ( * ) SI_UNIT ( $, .METRE. ) );
#258 = DIRECTION ( 'NONE',  ( -0.000000000000000000, -1.000000000000000000, -0.000000000000000000 ) ) ;
#259 = DIRECTION ( 'NONE',  ( -3.061616997868379936E-17, 1.000000000000000000, -0.000000000000000000 ) ) ;
#260 = CIRCLE ( 'NONE', #152, 0.1250000000000000000 ) ;
#261 = VECTOR ( 'NONE', #122, 39.37007874015748143 ) ;
#262 = PRODUCT_CONTEXT ( 'NONE', #10, 'mechanical' ) ;
#263 = DIRECTION ( 'NONE',  ( -3.061616997868379936E-17, 1.000000000000000000, -0.000000000000000000 ) ) ;
#264 = MANIFOLD_SOLID_BREP ( 'Revolve - Cutting Edge', #194 ) ;
#265 = EDGE_CURVE ( 'NONE', #267, #212, #121, .T. ) ;
#266 = VERTEX_POINT ( 'NONE', #168 ) ;
#267 = VERTEX_POINT ( 'NONE', #115 ) ;
#268 = UNCERTAINTY_MEASURE_WITH_UNIT (LENGTH_MEASURE( 1.000000000000000082E-05 ), #272, 'distance_accuracy_value', 'NONE');
#269 = DIRECTION ( 'NONE',  ( -0.000000000000000000, -1.000000000000000000, -0.000000000000000000 ) ) ;
#270 = PRESENTATION_LAYER_ASSIGNMENT (  '', '', ( #277 ) ) ;
#271 = ORIENTED_EDGE ( 'NONE', *, *, #110, .T. ) ;
#272 =( CONVERSION_BASED_UNIT ( 'INCH', #298 ) LENGTH_UNIT ( ) NAMED_UNIT ( #59 ) );
#273 = EDGE_LOOP ( 'NONE', ( #39, #192, #74, #217 ) ) ;
#274 =( LENGTH_UNIT ( ) NAMED_UNIT ( * ) SI_UNIT ( $, .METRE. ) );
#275 = DIRECTION ( 'NONE',  ( 0.000000000000000000, 0.000000000000000000, -1.000000000000000000 ) ) ;
#276 = FILL_AREA_STYLE ('',( #123 ) ) ;
#277 = STYLED_ITEM ( 'NONE', ( #67 ), #264 ) ;
#278 = DIRECTION ( 'NONE',  ( 1.000000000000000000, 3.061616997868379936E-17, 0.000000000000000000 ) ) ;
#279 = FACE_OUTER_BOUND ( 'NONE', #245, .T. ) ;
#280 = ADVANCED_FACE ( 'NONE', ( #26 ), #250, .F. ) ;
#281 =( LENGTH_UNIT ( ) NAMED_UNIT ( * ) SI_UNIT ( $, .METRE. ) );
#282 = SURFACE_SIDE_STYLE ('',( #106 ) ) ;
#283 = VECTOR ( 'NONE', #289, 39.37007874015748143 ) ;
#284 = ADVANCED_FACE ( 'NONE', ( #63 ), #130, .T. ) ;
#285 = SHAPE_DEFINITION_REPRESENTATION ( #19, #9 ) ;
#286 = STYLED_ITEM ( 'NONE', ( #232 ), #90 ) ;
#287 = APPLICATION_PROTOCOL_DEFINITION ( 'draft international standard', 'automotive_design', 1998, #10 ) ;
#289 = DIRECTION ( 'NONE',  ( -0.000000000000000000, -1.000000000000000000, -0.000000000000000000 ) ) ;
#288 = FILL_AREA_STYLE_COLOUR ( '', #124 ) ;
#290 = LINE ( 'NONE', #204, #261 ) ;
#291 = STYLED_ITEM ( 'NONE', ( #223 ), #33 ) ;
#292 = EDGE_CURVE ( 'NONE', #151, #174, #203, .T. ) ;
#293 = VECTOR ( 'NONE', #44, 39.37007874015748143 ) ;
#294 = UNCERTAINTY_MEASURE_WITH_UNIT (LENGTH_MEASURE( 1.000000000000000082E-05 ), #51, 'distance_accuracy_value', 'NONE');
#295 = EDGE_LOOP ( 'NONE', ( #297, #14 ) ) ;
#296 =( NAMED_UNIT ( * ) SI_UNIT ( $, .STERADIAN. ) SOLID_ANGLE_UNIT ( ) );
#297 = ORIENTED_EDGE ( 'NONE', *, *, #198, .T. ) ;
#298 = LENGTH_MEASURE_WITH_UNIT ( LENGTH_MEASURE( 0.02539999999999999897 ), #274 );
#299 = AXIS2_PLACEMENT_3D ( 'NONE', #131, #199, #278 ) ;
#300 = EDGE_LOOP ( 'NONE', ( #243, #62, #197, #143 ) ) ;
#301 = DIRECTION ( 'NONE',  ( 0.000000000000000000, 0.000000000000000000, -1.000000000000000000 ) ) ;
#302 = DIRECTION ( 'NONE',  ( 0.000000000000000000, 1.000000000000000000, 0.000000000000000000 ) ) ;
#303 = DIRECTION ( 'NONE',  ( -1.000000000000000000, 0.000000000000000000, 0.000000000000000000 ) ) ;
#304 = CARTESIAN_POINT ( 'NONE',  ( 0.000000000000000000, 0.000000000000000000, 0.000000000000000000 ) ) ;
#305 = EDGE_LOOP ( 'NONE', ( #92, #167 ) ) ;
#306 = EDGE_CURVE ( 'NONE', #52, #266, #290, .T. ) ;
#307 = LENGTH_MEASURE_WITH_UNIT ( LENGTH_MEASURE( 0.02539999999999999897 ), #225 );
#308 = MECHANICAL_DESIGN_GEOMETRIC_PRESENTATION_REPRESENTATION (  '', ( #286 ), #72 ) ;
#309 = LINE ( 'NONE', #238, #293 ) ;
ENDSEC;
END-ISO-10303-21;
