ISO-10303-21;
HEADER;
FILE_DESCRIPTION (( 'STEP AP214' ),
    '1' );
FILE_NAME ('05637.STEP',
    '2023-06-22T16:15:22',
    ( '' ),
    ( '' ),
    'SwSTEP 2.0',
    'SolidWorks 2023',
    '' );
FILE_SCHEMA (( 'AUTOMOTIVE_DESIGN' ));
ENDSEC;

DATA;
#1 = FILL_AREA_STYLE ('',( #285 ) ) ;
#2 = ORIENTED_EDGE ( 'NONE', *, *, #95, .F. ) ;
#3 = ADVANCED_FACE ( 'NONE', ( #272 ), #172, .F. ) ;
#4 = DIRECTION ( 'NONE',  ( 0.000000000000000000, 0.000000000000000000, -1.000000000000000000 ) ) ;
#5 = COLOUR_RGB ( '',1.000000000000000000, 0.000000000000000000, 0.000000000000000000 ) ;
#6 = FILL_AREA_STYLE_COLOUR ( '', #100 ) ;
#7 = CARTESIAN_POINT ( 'NONE',  ( 3.827021247335478926E-17, 2.125000000000000000, 0.3125000000000000000 ) ) ;
#8 = CIRCLE ( 'NONE', #273, 0.3125000000000000000 ) ;
#9 = PRESENTATION_LAYER_ASSIGNMENT (  '', '', ( #239 ) ) ;
#10 =( CONVERSION_BASED_UNIT ( 'INCH', #158 ) LENGTH_UNIT ( ) NAMED_UNIT ( #186 ) );
#11 = PRODUCT_RELATED_PRODUCT_CATEGORY ( 'part', '', ( #300 ) ) ;
#12 = DIRECTION ( 'NONE',  ( 0.000000000000000000, 0.000000000000000000, -1.000000000000000000 ) ) ;
#13 = CARTESIAN_POINT ( 'NONE',  ( -0.3125000000000001665, 4.000000000000000000, 0.000000000000000000 ) ) ;
#14 = MECHANICAL_DESIGN_GEOMETRIC_PRESENTATION_REPRESENTATION (  '', ( #287 ), #50 ) ;
#15 = COLOUR_RGB ( '',1.000000000000000000, 0.000000000000000000, 0.000000000000000000 ) ;
#16 =( LENGTH_UNIT ( ) NAMED_UNIT ( * ) SI_UNIT ( $, .METRE. ) );
#17 = EDGE_CURVE ( 'NONE', #286, #166, #8, .T. ) ;
#18 = VECTOR ( 'NONE', #196, 39.37007874015748143 ) ;
#19 = ORIENTED_EDGE ( 'NONE', *, *, #193, .T. ) ;
#20 =( NAMED_UNIT ( * ) PLANE_ANGLE_UNIT ( ) SI_UNIT ( $, .RADIAN. ) );
#21 = ORIENTED_EDGE ( 'NONE', *, *, #117, .F. ) ;
#22 = PRESENTATION_LAYER_ASSIGNMENT (  '', '', ( #287 ) ) ;
#23 = ORIENTED_EDGE ( 'NONE', *, *, #224, .T. ) ;
#24 = ORIENTED_EDGE ( 'NONE', *, *, #80, .T. ) ;
#25 =( CONVERSION_BASED_UNIT ( 'INCH', #296 ) LENGTH_UNIT ( ) NAMED_UNIT ( #282 ) );
#26 = AXIS2_PLACEMENT_3D ( 'NONE', #149, #35, #60 ) ;
#27 = DIRECTION ( 'NONE',  ( 0.000000000000000000, -0.000000000000000000, 1.000000000000000000 ) ) ;
#28 = MECHANICAL_DESIGN_GEOMETRIC_PRESENTATION_REPRESENTATION (  '', ( #120 ), #90 ) ;
#29 =( NAMED_UNIT ( * ) PLANE_ANGLE_UNIT ( ) SI_UNIT ( $, .RADIAN. ) );
#30 =( LENGTH_UNIT ( ) NAMED_UNIT ( * ) SI_UNIT ( $, .METRE. ) );
#31 =( NAMED_UNIT ( * ) SI_UNIT ( $, .STERADIAN. ) SOLID_ANGLE_UNIT ( ) );
#32 = DIRECTION ( 'NONE',  ( -0.000000000000000000, -1.000000000000000000, -0.000000000000000000 ) ) ;
#33 = AXIS2_PLACEMENT_3D ( 'NONE', #251, #32, #4 ) ;
#34 =( GEOMETRIC_REPRESENTATION_CONTEXT ( 3 ) GLOBAL_UNCERTAINTY_ASSIGNED_CONTEXT ( ( #131 ) ) GLOBAL_UNIT_ASSIGNED_CONTEXT ( ( #25, #29, #31 ) ) REPRESENTATION_CONTEXT ( 'NONE', 'WORKASPACE' ) );
#35 = DIRECTION ( 'NONE',  ( -3.265724797726275178E-17, 1.000000000000000000, 0.000000000000000000 ) ) ;
#36 =( NAMED_UNIT ( * ) SI_UNIT ( $, .STERADIAN. ) SOLID_ANGLE_UNIT ( ) );
#37 = DIMENSIONAL_EXPONENTS ( 1.000000000000000000, 0.000000000000000000, 0.000000000000000000, 0.000000000000000000, 0.000000000000000000, 0.000000000000000000, 0.000000000000000000 ) ;
#38 = SURFACE_SIDE_STYLE ('',( #157 ) ) ;
#39 = FILL_AREA_STYLE ('',( #153 ) ) ;
#40 = FILL_AREA_STYLE ('',( #218 ) ) ;
#41 = ORIENTED_EDGE ( 'NONE', *, *, #193, .F. ) ;
#42 = ADVANCED_FACE ( 'NONE', ( #124 ), #146, .T. ) ;
#43 =( GEOMETRIC_REPRESENTATION_CONTEXT ( 3 ) GLOBAL_UNCERTAINTY_ASSIGNED_CONTEXT ( ( #125 ) ) GLOBAL_UNIT_ASSIGNED_CONTEXT ( ( #236, #66, #139 ) ) REPRESENTATION_CONTEXT ( 'NONE', 'WORKASPACE' ) );
#44 = DIRECTION ( 'NONE',  ( -0.000000000000000000, -1.000000000000000000, -0.000000000000000000 ) ) ;
#45 = ORIENTED_EDGE ( 'NONE', *, *, #224, .F. ) ;
#46 = UNCERTAINTY_MEASURE_WITH_UNIT (LENGTH_MEASURE( 1.000000000000000082E-05 ), #267, 'distance_accuracy_value', 'NONE');
#47 = CARTESIAN_POINT ( 'NONE',  ( 0.000000000000000000, 0.000000000000000000, 0.000000000000000000 ) ) ;
#48 = ORIENTED_EDGE ( 'NONE', *, *, #177, .F. ) ;
#49 = SURFACE_STYLE_USAGE ( .BOTH. , #215 ) ;
#50 =( GEOMETRIC_REPRESENTATION_CONTEXT ( 3 ) GLOBAL_UNCERTAINTY_ASSIGNED_CONTEXT ( ( #249 ) ) GLOBAL_UNIT_ASSIGNED_CONTEXT ( ( #10, #109, #36 ) ) REPRESENTATION_CONTEXT ( 'NONE', 'WORKASPACE' ) );
#51 = CARTESIAN_POINT ( 'NONE',  ( -0.3125000000000000555, 4.000000000000000000, 0.000000000000000000 ) ) ;
#52 = ORIENTED_EDGE ( 'NONE', *, *, #257, .T. ) ;
#53 = PRODUCT_CONTEXT ( 'NONE', #148, 'mechanical' ) ;
#54 = FILL_AREA_STYLE_COLOUR ( '', #182 ) ;
#55 =( NAMED_UNIT ( * ) PLANE_ANGLE_UNIT ( ) SI_UNIT ( $, .RADIAN. ) );
#56 = DIRECTION ( 'NONE',  ( -0.000000000000000000, -1.000000000000000000, -0.000000000000000000 ) ) ;
#57 = SURFACE_STYLE_FILL_AREA ( #119 ) ;
#58 = APPLICATION_CONTEXT ( 'automotive_design' ) ;
#59 =( NAMED_UNIT ( * ) PLANE_ANGLE_UNIT ( ) SI_UNIT ( $, .RADIAN. ) );
#60 = DIRECTION ( 'NONE',  ( -1.000000000000000000, -3.265724797726275178E-17, 0.000000000000000000 ) ) ;
#61 = DIRECTION ( 'NONE',  ( 0.000000000000000000, 0.000000000000000000, -1.000000000000000000 ) ) ;
#62 = DIRECTION ( 'NONE',  ( -3.265724797726275178E-17, 1.000000000000000000, -0.000000000000000000 ) ) ;
#63 = SURFACE_STYLE_USAGE ( .BOTH. , #232 ) ;
#64 = PLANE ( 'NONE',  #294 ) ;
#65 = CIRCLE ( 'NONE', #230, 0.3125000000000000555 ) ;
#66 =( NAMED_UNIT ( * ) PLANE_ANGLE_UNIT ( ) SI_UNIT ( $, .RADIAN. ) );
#67 = ORIENTED_EDGE ( 'NONE', *, *, #17, .F. ) ;
#68 =( LENGTH_UNIT ( ) NAMED_UNIT ( * ) SI_UNIT ( $, .METRE. ) );
#69 = VERTEX_POINT ( 'NONE', #168 ) ;
#70 =( LENGTH_UNIT ( ) NAMED_UNIT ( * ) SI_UNIT ( $, .METRE. ) );
#71 = MANIFOLD_SOLID_BREP ( 'Revolve - Tool Body (Straight Shanked)', #161 ) ;
#72 = CYLINDRICAL_SURFACE ( 'NONE', #183, 0.3125000000000000000 ) ;
#73 = ORIENTED_EDGE ( 'NONE', *, *, #117, .T. ) ;
#74 = STYLED_ITEM ( 'NONE', ( #154 ), #136 ) ;
#75 =( NAMED_UNIT ( * ) SI_UNIT ( $, .STERADIAN. ) SOLID_ANGLE_UNIT ( ) );
#76 = UNCERTAINTY_MEASURE_WITH_UNIT (LENGTH_MEASURE( 1.000000000000000082E-05 ), #199, 'distance_accuracy_value', 'NONE');
#77 = ORIENTED_EDGE ( 'NONE', *, *, #210, .F. ) ;
#78 = SHAPE_DEFINITION_REPRESENTATION ( #276, #123 ) ;
#79 = VERTEX_POINT ( 'NONE', #13 ) ;
#80 = EDGE_CURVE ( 'NONE', #262, #243, #260, .T. ) ;
#81 = VECTOR ( 'NONE', #82, 39.37007874015748143 ) ;
#82 = DIRECTION ( 'NONE',  ( -0.000000000000000000, -1.000000000000000000, -0.000000000000000000 ) ) ;
#83 = CYLINDRICAL_SURFACE ( 'NONE', #217, 0.3125000000000000000 ) ;
#84 = AXIS2_PLACEMENT_3D ( 'NONE', #293, #121, #27 ) ;
#85 = DIRECTION ( 'NONE',  ( -1.000000000000000000, 0.000000000000000000, 0.000000000000000000 ) ) ;
#86 = ORIENTED_EDGE ( 'NONE', *, *, #177, .T. ) ;
#87 = UNCERTAINTY_MEASURE_WITH_UNIT (LENGTH_MEASURE( 1.000000000000000082E-05 ), #270, 'distance_accuracy_value', 'NONE');
#88 = PRESENTATION_LAYER_ASSIGNMENT (  '', '', ( #235 ) ) ;
#89 = ORIENTED_EDGE ( 'NONE', *, *, #257, .F. ) ;
#90 =( GEOMETRIC_REPRESENTATION_CONTEXT ( 3 ) GLOBAL_UNCERTAINTY_ASSIGNED_CONTEXT ( ( #76 ) ) GLOBAL_UNIT_ASSIGNED_CONTEXT ( ( #199, #59, #248 ) ) REPRESENTATION_CONTEXT ( 'NONE', 'WORKASPACE' ) );
#91 = FACE_OUTER_BOUND ( 'NONE', #194, .T. ) ;
#92 = ADVANCED_FACE ( 'NONE', ( #209 ), #256, .T. ) ;
#93 = DIRECTION ( 'NONE',  ( -3.265724797726275178E-17, 1.000000000000000000, -0.000000000000000000 ) ) ;
#94 = CIRCLE ( 'NONE', #261, 0.3125000000000000000 ) ;
#95 = EDGE_CURVE ( 'NONE', #138, #69, #201, .T. ) ;
#96 = CARTESIAN_POINT ( 'NONE',  ( 0.000000000000000000, 2.125000000000000000, 0.000000000000000000 ) ) ;
#97 = ORIENTED_EDGE ( 'NONE', *, *, #152, .T. ) ;
#98 = DIRECTION ( 'NONE',  ( 0.000000000000000000, 0.000000000000000000, 1.000000000000000000 ) ) ;
#99 = SURFACE_STYLE_USAGE ( .BOTH. , #298 ) ;
#100 = COLOUR_RGB ( '',1.000000000000000000, 0.000000000000000000, 0.000000000000000000 ) ;
#101 = AXIS2_PLACEMENT_3D ( 'NONE', #115, #174, #228 ) ;
#102 = LENGTH_MEASURE_WITH_UNIT ( LENGTH_MEASURE( 0.02539999999999999897 ), #30 );
#103 = PRESENTATION_STYLE_ASSIGNMENT (( #63 ) ) ;
#104 = CARTESIAN_POINT ( 'NONE',  ( 0.000000000000000000, 2.125000000000000000, 0.000000000000000000 ) ) ;
#105 = UNCERTAINTY_MEASURE_WITH_UNIT (LENGTH_MEASURE( 1.000000000000000082E-05 ), #112, 'distance_accuracy_value', 'NONE');
#106 = AXIS2_PLACEMENT_3D ( 'NONE', #266, #255, #61 ) ;
#107 = VECTOR ( 'NONE', #159, 39.37007874015748143 ) ;
#108 = ADVANCED_FACE ( 'NONE', ( #130 ), #83, .T. ) ;
#109 =( NAMED_UNIT ( * ) PLANE_ANGLE_UNIT ( ) SI_UNIT ( $, .RADIAN. ) );
#110 =( NAMED_UNIT ( * ) SI_UNIT ( $, .STERADIAN. ) SOLID_ANGLE_UNIT ( ) );
#111 = VERTEX_POINT ( 'NONE', #180 ) ;
#112 =( CONVERSION_BASED_UNIT ( 'INCH', #189 ) LENGTH_UNIT ( ) NAMED_UNIT ( #254 ) );
#113 = DIRECTION ( 'NONE',  ( -1.000000000000000000, 0.000000000000000000, 0.000000000000000000 ) ) ;
#114 = ORIENTED_EDGE ( 'NONE', *, *, #95, .T. ) ;
#115 = CARTESIAN_POINT ( 'NONE',  ( 0.3125000000000000000, 4.000000000000000000, 0.000000000000000000 ) ) ;
#116 = EDGE_LOOP ( 'NONE', ( #114, #97, #48, #89 ) ) ;
#117 = EDGE_CURVE ( 'NONE', #262, #286, #278, .T. ) ;
#118 = APPLICATION_PROTOCOL_DEFINITION ( 'draft international standard', 'automotive_design', 1998, #148 ) ;
#119 = FILL_AREA_STYLE ('',( #54 ) ) ;
#120 = STYLED_ITEM ( 'NONE', ( #307 ), #219 ) ;
#121 = DIRECTION ( 'NONE',  ( 0.000000000000000000, 1.000000000000000000, 0.000000000000000000 ) ) ;
#122 =( NAMED_UNIT ( * ) SI_UNIT ( $, .STERADIAN. ) SOLID_ANGLE_UNIT ( ) );
#123 = ADVANCED_BREP_SHAPE_REPRESENTATION ( '05637', ( #169, #71, #211 ), #34 ) ;
#124 = FACE_OUTER_BOUND ( 'NONE', #188, .T. ) ;
#125 = UNCERTAINTY_MEASURE_WITH_UNIT (LENGTH_MEASURE( 1.000000000000000082E-05 ), #236, 'distance_accuracy_value', 'NONE');
#126 =( LENGTH_UNIT ( ) NAMED_UNIT ( * ) SI_UNIT ( $, .METRE. ) );
#127 = PRESENTATION_STYLE_ASSIGNMENT (( #99 ) ) ;
#128 = DIRECTION ( 'NONE',  ( -0.000000000000000000, -1.000000000000000000, -0.000000000000000000 ) ) ;
#129 = EDGE_CURVE ( 'NONE', #111, #79, #132, .T. ) ;
#130 = FACE_OUTER_BOUND ( 'NONE', #116, .T. ) ;
#131 = UNCERTAINTY_MEASURE_WITH_UNIT (LENGTH_MEASURE( 1.000000000000000082E-05 ), #25, 'distance_accuracy_value', 'NONE');
#132 = CIRCLE ( 'NONE', #304, 0.3125000000000000555 ) ;
#133 = SURFACE_STYLE_USAGE ( .BOTH. , #38 ) ;
#134 = LENGTH_MEASURE_WITH_UNIT ( LENGTH_MEASURE( 0.02539999999999999897 ), #16 );
#135 = CARTESIAN_POINT ( 'NONE',  ( 3.827021247335478926E-17, 0.000000000000000000, 0.3125000000000000000 ) ) ;
#136 = ADVANCED_FACE ( 'NONE', ( #281 ), #64, .T. ) ;
#137 = CARTESIAN_POINT ( 'NONE',  ( 0.000000000000000000, 2.125000000000000000, 0.000000000000000000 ) ) ;
#138 = VERTEX_POINT ( 'NONE', #165 ) ;
#139 =( NAMED_UNIT ( * ) SI_UNIT ( $, .STERADIAN. ) SOLID_ANGLE_UNIT ( ) );
#140 = ORIENTED_EDGE ( 'NONE', *, *, #129, .F. ) ;
#141 = ORIENTED_EDGE ( 'NONE', *, *, #129, .T. ) ;
#142 = PRODUCT_DEFINITION_CONTEXT ( 'detailed design', #58, 'design' ) ;
#143 = EDGE_LOOP ( 'NONE', ( #24, #306, #67, #21 ) ) ;
#144 = PRESENTATION_LAYER_ASSIGNMENT (  '', '', ( #74 ) ) ;
#145 = MECHANICAL_DESIGN_GEOMETRIC_PRESENTATION_REPRESENTATION (  '', ( #235 ), #247 ) ;
#146 = CYLINDRICAL_SURFACE ( 'NONE', #33, 0.3125000000000000000 ) ;
#147 = DIRECTION ( 'NONE',  ( 1.000000000000000000, 0.000000000000000000, 0.000000000000000000 ) ) ;
#148 = APPLICATION_CONTEXT ( 'automotive_design' ) ;
#149 = CARTESIAN_POINT ( 'NONE',  ( 1.666399758513175262E-34, 2.125000000000000000, 0.000000000000000000 ) ) ;
#150 = AXIS2_PLACEMENT_3D ( 'NONE', #178, #128, #12 ) ;
#151 = SURFACE_STYLE_FILL_AREA ( #303 ) ;
#152 = EDGE_CURVE ( 'NONE', #69, #111, #240, .T. ) ;
#153 = FILL_AREA_STYLE_COLOUR ( '', #279 ) ;
#154 = PRESENTATION_STYLE_ASSIGNMENT (( #133 ) ) ;
#155 = PRESENTATION_LAYER_ASSIGNMENT (  '', '', ( #206 ) ) ;
#156 = MECHANICAL_DESIGN_GEOMETRIC_PRESENTATION_REPRESENTATION (  '', ( #239 ), #223 ) ;
#157 = SURFACE_STYLE_FILL_AREA ( #39 ) ;
#158 = LENGTH_MEASURE_WITH_UNIT ( LENGTH_MEASURE( 0.02539999999999999897 ), #231 );
#159 = DIRECTION ( 'NONE',  ( -3.265724797726275178E-17, 1.000000000000000000, -0.000000000000000000 ) ) ;
#160 = CLOSED_SHELL ( 'NONE', ( #92, #219, #42, #136 ) ) ;
#161 = CLOSED_SHELL ( 'NONE', ( #108, #3, #197, #308 ) ) ;
#162 = CIRCLE ( 'NONE', #269, 0.3125000000000000000 ) ;
#163 = SURFACE_STYLE_FILL_AREA ( #40 ) ;
#164 = PLANE ( 'NONE',  #84 ) ;
#165 = CARTESIAN_POINT ( 'NONE',  ( -0.3125000000000000000, 2.125000000000000000, 0.000000000000000000 ) ) ;
#166 = VERTEX_POINT ( 'NONE', #135 ) ;
#167 = PRESENTATION_LAYER_ASSIGNMENT (  '', '', ( #120 ) ) ;
#168 = CARTESIAN_POINT ( 'NONE',  ( 0.3125000000000000000, 2.125000000000000000, 3.827021247335478926E-17 ) ) ;
#169 = MANIFOLD_SOLID_BREP ( 'Revolve - Cutting Edge', #160 ) ;
#170 = PRESENTATION_STYLE_ASSIGNMENT (( #245 ) ) ;
#171 = DIRECTION ( 'NONE',  ( -3.265724797726275178E-17, 1.000000000000000000, -0.000000000000000000 ) ) ;
#172 = PLANE ( 'NONE',  #26 ) ;
#173 = COLOUR_RGB ( '',0.7921568627450980005, 0.8196078431372548767, 0.9333333333333333481 ) ;
#174 = DIRECTION ( 'NONE',  ( 3.265724797726275178E-17, -1.000000000000000000, 0.000000000000000000 ) ) ;
#175 =( LENGTH_UNIT ( ) NAMED_UNIT ( * ) SI_UNIT ( $, .METRE. ) );
#176 = CARTESIAN_POINT ( 'NONE',  ( 0.000000000000000000, 0.000000000000000000, 0.000000000000000000 ) ) ;
#177 = EDGE_CURVE ( 'NONE', #79, #111, #65, .T. ) ;
#178 = CARTESIAN_POINT ( 'NONE',  ( 0.000000000000000000, 0.000000000000000000, 0.000000000000000000 ) ) ;
#179 = DIRECTION ( 'NONE',  ( -3.265724797726275178E-17, 1.000000000000000000, -0.000000000000000000 ) ) ;
#180 = CARTESIAN_POINT ( 'NONE',  ( 0.3125000000000000000, 4.000000000000000000, 3.827021247335478926E-17 ) ) ;
#181 = CARTESIAN_POINT ( 'NONE',  ( 0.000000000000000000, 0.000000000000000000, -0.3125000000000000000 ) ) ;
#182 = COLOUR_RGB ( '',0.7921568627450980005, 0.8196078431372548767, 0.9333333333333333481 ) ;
#183 = AXIS2_PLACEMENT_3D ( 'NONE', #290, #93, #85 ) ;
#184 = DIRECTION ( 'NONE',  ( -1.000000000000000000, 0.000000000000000000, 0.000000000000000000 ) ) ;
#185 = EDGE_LOOP ( 'NONE', ( #2, #41 ) ) ;
#186 = DIMENSIONAL_EXPONENTS ( 1.000000000000000000, 0.000000000000000000, 0.000000000000000000, 0.000000000000000000, 0.000000000000000000, 0.000000000000000000, 0.000000000000000000 ) ;
#187 = FACE_OUTER_BOUND ( 'NONE', #289, .T. ) ;
#188 = EDGE_LOOP ( 'NONE', ( #200, #23, #73, #77 ) ) ;
#189 = LENGTH_MEASURE_WITH_UNIT ( LENGTH_MEASURE( 0.02539999999999999897 ), #70 );
#190 = SURFACE_SIDE_STYLE ('',( #163 ) ) ;
#191 = CARTESIAN_POINT ( 'NONE',  ( 0.000000000000000000, 0.000000000000000000, 0.000000000000000000 ) ) ;
#192 = ORIENTED_EDGE ( 'NONE', *, *, #17, .T. ) ;
#193 = EDGE_CURVE ( 'NONE', #69, #138, #162, .T. ) ;
#194 = EDGE_LOOP ( 'NONE', ( #227, #19, #52, #140 ) ) ;
#195 = CARTESIAN_POINT ( 'NONE',  ( 0.000000000000000000, 0.000000000000000000, 0.000000000000000000 ) ) ;
#196 = DIRECTION ( 'NONE',  ( -0.000000000000000000, -1.000000000000000000, -0.000000000000000000 ) ) ;
#197 = ADVANCED_FACE ( 'NONE', ( #91 ), #72, .T. ) ;
#198 = SURFACE_STYLE_FILL_AREA ( #252 ) ;
#199 =( CONVERSION_BASED_UNIT ( 'INCH', #250 ) LENGTH_UNIT ( ) NAMED_UNIT ( #280 ) );
#200 = ORIENTED_EDGE ( 'NONE', *, *, #292, .F. ) ;
#201 = CIRCLE ( 'NONE', #238, 0.3125000000000000000 ) ;
#202 = MECHANICAL_DESIGN_GEOMETRIC_PRESENTATION_REPRESENTATION (  '', ( #74 ), #43 ) ;
#203 = CARTESIAN_POINT ( 'NONE',  ( 0.000000000000000000, 2.125000000000000000, -0.3125000000000000000 ) ) ;
#204 = FILL_AREA_STYLE_COLOUR ( '', #5 ) ;
#205 = DIRECTION ( 'NONE',  ( -1.000000000000000000, 0.000000000000000000, 0.000000000000000000 ) ) ;
#206 = STYLED_ITEM ( 'NONE', ( #170 ), #71 ) ;
#207 = CIRCLE ( 'NONE', #208, 0.3125000000000000000 ) ;
#208 = AXIS2_PLACEMENT_3D ( 'NONE', #96, #56, #246 ) ;
#209 = FACE_OUTER_BOUND ( 'NONE', #143, .T. ) ;
#210 = EDGE_CURVE ( 'NONE', #166, #286, #94, .T. ) ;
#211 = AXIS2_PLACEMENT_3D ( 'NONE', #195, #98, #147 ) ;
#212 = CARTESIAN_POINT ( 'NONE',  ( 0.3124999999999999445, 4.000000000000000000, 3.827021247335478926E-17 ) ) ;
#213 = DIRECTION ( 'NONE',  ( -1.000000000000000000, 0.000000000000000000, 0.000000000000000000 ) ) ;
#214 = EDGE_LOOP ( 'NONE', ( #192, #216 ) ) ;
#215 = SURFACE_SIDE_STYLE ('',( #264 ) ) ;
#216 = ORIENTED_EDGE ( 'NONE', *, *, #210, .T. ) ;
#217 = AXIS2_PLACEMENT_3D ( 'NONE', #301, #179, #184 ) ;
#218 = FILL_AREA_STYLE_COLOUR ( '', #173 ) ;
#219 = ADVANCED_FACE ( 'NONE', ( #187 ), #164, .T. ) ;
#220 = APPLICATION_PROTOCOL_DEFINITION ( 'draft international standard', 'automotive_design', 1998, #58 ) ;
#221 = MECHANICAL_DESIGN_GEOMETRIC_PRESENTATION_REPRESENTATION (  '', ( #206 ), #253 ) ;
#222 = DIRECTION ( 'NONE',  ( 0.000000000000000000, 0.000000000000000000, -1.000000000000000000 ) ) ;
#223 =( GEOMETRIC_REPRESENTATION_CONTEXT ( 3 ) GLOBAL_UNCERTAINTY_ASSIGNED_CONTEXT ( ( #105 ) ) GLOBAL_UNIT_ASSIGNED_CONTEXT ( ( #112, #20, #110 ) ) REPRESENTATION_CONTEXT ( 'NONE', 'WORKASPACE' ) );
#224 = EDGE_CURVE ( 'NONE', #243, #262, #207, .T. ) ;
#225 = LINE ( 'NONE', #51, #265 ) ;
#226 = LENGTH_MEASURE_WITH_UNIT ( LENGTH_MEASURE( 0.02539999999999999897 ), #126 );
#227 = ORIENTED_EDGE ( 'NONE', *, *, #152, .F. ) ;
#228 = DIRECTION ( 'NONE',  ( 1.000000000000000000, 3.265724797726275178E-17, 0.000000000000000000 ) ) ;
#229 = SURFACE_SIDE_STYLE ('',( #57 ) ) ;
#230 = AXIS2_PLACEMENT_3D ( 'NONE', #305, #309, #113 ) ;
#231 =( LENGTH_UNIT ( ) NAMED_UNIT ( * ) SI_UNIT ( $, .METRE. ) );
#232 = SURFACE_SIDE_STYLE ('',( #151 ) ) ;
#233 = DIMENSIONAL_EXPONENTS ( 1.000000000000000000, 0.000000000000000000, 0.000000000000000000, 0.000000000000000000, 0.000000000000000000, 0.000000000000000000, 0.000000000000000000 ) ;
#234 = CARTESIAN_POINT ( 'NONE',  ( -6.123233995736766036E-17, 4.000000000000000000, 0.000000000000000000 ) ) ;
#235 = STYLED_ITEM ( 'NONE', ( #127 ), #42 ) ;
#236 =( CONVERSION_BASED_UNIT ( 'INCH', #134 ) LENGTH_UNIT ( ) NAMED_UNIT ( #233 ) );
#237 = PRODUCT_DEFINITION ( 'UNKNOWN', '', #274, #142 ) ;
#238 = AXIS2_PLACEMENT_3D ( 'NONE', #104, #62, #205 ) ;
#239 = STYLED_ITEM ( 'NONE', ( #263 ), #169 ) ;
#240 = LINE ( 'NONE', #212, #107 ) ;
#241 = DIRECTION ( 'NONE',  ( 0.000000000000000000, 0.000000000000000000, -1.000000000000000000 ) ) ;
#242 = FACE_OUTER_BOUND ( 'NONE', #259, .T. ) ;
#243 = VERTEX_POINT ( 'NONE', #7 ) ;
#244 = PLANE ( 'NONE',  #101 ) ;
#245 = SURFACE_STYLE_USAGE ( .BOTH. , #229 ) ;
#246 = DIRECTION ( 'NONE',  ( 0.000000000000000000, 0.000000000000000000, -1.000000000000000000 ) ) ;
#247 =( GEOMETRIC_REPRESENTATION_CONTEXT ( 3 ) GLOBAL_UNCERTAINTY_ASSIGNED_CONTEXT ( ( #87 ) ) GLOBAL_UNIT_ASSIGNED_CONTEXT ( ( #270, #295, #75 ) ) REPRESENTATION_CONTEXT ( 'NONE', 'WORKASPACE' ) );
#248 =( NAMED_UNIT ( * ) SI_UNIT ( $, .STERADIAN. ) SOLID_ANGLE_UNIT ( ) );
#249 = UNCERTAINTY_MEASURE_WITH_UNIT (LENGTH_MEASURE( 1.000000000000000082E-05 ), #10, 'distance_accuracy_value', 'NONE');
#250 = LENGTH_MEASURE_WITH_UNIT ( LENGTH_MEASURE( 0.02539999999999999897 ), #68 );
#251 = CARTESIAN_POINT ( 'NONE',  ( 0.000000000000000000, 0.000000000000000000, 0.000000000000000000 ) ) ;
#252 = FILL_AREA_STYLE ('',( #6 ) ) ;
#253 =( GEOMETRIC_REPRESENTATION_CONTEXT ( 3 ) GLOBAL_UNCERTAINTY_ASSIGNED_CONTEXT ( ( #46 ) ) GLOBAL_UNIT_ASSIGNED_CONTEXT ( ( #267, #55, #122 ) ) REPRESENTATION_CONTEXT ( 'NONE', 'WORKASPACE' ) );
#254 = DIMENSIONAL_EXPONENTS ( 1.000000000000000000, 0.000000000000000000, 0.000000000000000000, 0.000000000000000000, 0.000000000000000000, 0.000000000000000000, 0.000000000000000000 ) ;
#255 = DIRECTION ( 'NONE',  ( -0.000000000000000000, -1.000000000000000000, -0.000000000000000000 ) ) ;
#256 = CYLINDRICAL_SURFACE ( 'NONE', #150, 0.3125000000000000000 ) ;
#257 = EDGE_CURVE ( 'NONE', #138, #79, #225, .T. ) ;
#258 = DIRECTION ( 'NONE',  ( 0.000000000000000000, -1.000000000000000000, -0.000000000000000000 ) ) ;
#259 = EDGE_LOOP ( 'NONE', ( #86, #141 ) ) ;
#260 = CIRCLE ( 'NONE', #106, 0.3125000000000000000 ) ;
#261 = AXIS2_PLACEMENT_3D ( 'NONE', #191, #44, #241 ) ;
#262 = VERTEX_POINT ( 'NONE', #203 ) ;
#263 = PRESENTATION_STYLE_ASSIGNMENT (( #288 ) ) ;
#264 = SURFACE_STYLE_FILL_AREA ( #1 ) ;
#265 = VECTOR ( 'NONE', #171, 39.37007874015748143 ) ;
#266 = CARTESIAN_POINT ( 'NONE',  ( 0.000000000000000000, 2.125000000000000000, 0.000000000000000000 ) ) ;
#267 =( CONVERSION_BASED_UNIT ( 'INCH', #102 ) LENGTH_UNIT ( ) NAMED_UNIT ( #37 ) );
#268 = CARTESIAN_POINT ( 'NONE',  ( 3.827021247335478926E-17, 0.000000000000000000, 0.3125000000000000000 ) ) ;
#269 = AXIS2_PLACEMENT_3D ( 'NONE', #137, #283, #213 ) ;
#270 =( CONVERSION_BASED_UNIT ( 'INCH', #226 ) LENGTH_UNIT ( ) NAMED_UNIT ( #302 ) );
#271 = DIRECTION ( 'NONE',  ( -0.000000000000000000, -1.000000000000000000, -0.000000000000000000 ) ) ;
#272 = FACE_OUTER_BOUND ( 'NONE', #185, .T. ) ;
#273 = AXIS2_PLACEMENT_3D ( 'NONE', #176, #271, #222 ) ;
#274 = PRODUCT_DEFINITION_FORMATION_WITH_SPECIFIED_SOURCE ( 'ANY', '', #300, .NOT_KNOWN. ) ;
#275 = DIRECTION ( 'NONE',  ( -1.000000000000000000, 0.000000000000000000, 0.000000000000000000 ) ) ;
#276 = PRODUCT_DEFINITION_SHAPE ( 'NONE', 'NONE',  #237 ) ;
#277 = DIRECTION ( 'NONE',  ( -3.265724797726275178E-17, 1.000000000000000000, -0.000000000000000000 ) ) ;
#278 = LINE ( 'NONE', #181, #81 ) ;
#279 = COLOUR_RGB ( '',1.000000000000000000, 0.000000000000000000, 0.000000000000000000 ) ;
#280 = DIMENSIONAL_EXPONENTS ( 1.000000000000000000, 0.000000000000000000, 0.000000000000000000, 0.000000000000000000, 0.000000000000000000, 0.000000000000000000, 0.000000000000000000 ) ;
#281 = FACE_OUTER_BOUND ( 'NONE', #214, .T. ) ;
#282 = DIMENSIONAL_EXPONENTS ( 1.000000000000000000, 0.000000000000000000, 0.000000000000000000, 0.000000000000000000, 0.000000000000000000, 0.000000000000000000, 0.000000000000000000 ) ;
#283 = DIRECTION ( 'NONE',  ( -3.265724797726275178E-17, 1.000000000000000000, -0.000000000000000000 ) ) ;
#284 = ORIENTED_EDGE ( 'NONE', *, *, #80, .F. ) ;
#285 = FILL_AREA_STYLE_COLOUR ( '', #15 ) ;
#286 = VERTEX_POINT ( 'NONE', #299 ) ;
#287 = STYLED_ITEM ( 'NONE', ( #103 ), #92 ) ;
#288 = SURFACE_STYLE_USAGE ( .BOTH. , #190 ) ;
#289 = EDGE_LOOP ( 'NONE', ( #284, #45 ) ) ;
#290 = CARTESIAN_POINT ( 'NONE',  ( -6.123233995736766036E-17, 4.000000000000000000, 0.000000000000000000 ) ) ;
#291 = DIRECTION ( 'NONE',  ( 0.000000000000000000, 0.000000000000000000, -1.000000000000000000 ) ) ;
#292 = EDGE_CURVE ( 'NONE', #243, #166, #297, .T. ) ;
#293 = CARTESIAN_POINT ( 'NONE',  ( 0.000000000000000000, 2.125000000000000000, 0.000000000000000000 ) ) ;
#294 = AXIS2_PLACEMENT_3D ( 'NONE', #47, #258, #291 ) ;
#295 =( NAMED_UNIT ( * ) PLANE_ANGLE_UNIT ( ) SI_UNIT ( $, .RADIAN. ) );
#296 = LENGTH_MEASURE_WITH_UNIT ( LENGTH_MEASURE( 0.02539999999999999897 ), #175 );
#297 = LINE ( 'NONE', #268, #18 ) ;
#298 = SURFACE_SIDE_STYLE ('',( #198 ) ) ;
#299 = CARTESIAN_POINT ( 'NONE',  ( 0.000000000000000000, 0.000000000000000000, -0.3125000000000000000 ) ) ;
#300 = PRODUCT ( '05637', '05637', '', ( #53 ) ) ;
#301 = CARTESIAN_POINT ( 'NONE',  ( -6.123233995736766036E-17, 4.000000000000000000, 0.000000000000000000 ) ) ;
#302 = DIMENSIONAL_EXPONENTS ( 1.000000000000000000, 0.000000000000000000, 0.000000000000000000, 0.000000000000000000, 0.000000000000000000, 0.000000000000000000, 0.000000000000000000 ) ;
#303 = FILL_AREA_STYLE ('',( #204 ) ) ;
#304 = AXIS2_PLACEMENT_3D ( 'NONE', #234, #277, #275 ) ;
#305 = CARTESIAN_POINT ( 'NONE',  ( -6.123233995736766036E-17, 4.000000000000000000, 0.000000000000000000 ) ) ;
#306 = ORIENTED_EDGE ( 'NONE', *, *, #292, .T. ) ;
#307 = PRESENTATION_STYLE_ASSIGNMENT (( #49 ) ) ;
#308 = ADVANCED_FACE ( 'NONE', ( #242 ), #244, .F. ) ;
#309 = DIRECTION ( 'NONE',  ( -3.265724797726275178E-17, 1.000000000000000000, -0.000000000000000000 ) ) ;
ENDSEC;
END-ISO-10303-21;
