ISO-10303-21;
HEADER;
FILE_DESCRIPTION (( 'STEP AP214' ),
    '1' );
FILE_NAME ('Micro_MMBM-020-20X.STEP',
    '2021-09-03T16:31:23',
    ( '' ),
    ( '' ),
    'SwSTEP 2.0',
    'SolidWorks 2020',
    '' );
FILE_SCHEMA (( 'AUTOMOTIVE_DESIGN' ));
ENDSEC;

DATA;
#1 = FILL_AREA_STYLE ('',( #86 ) ) ;
#2 = ORIENTED_EDGE ( 'NONE', *, *, #288, .F. ) ;
#3 = FACE_OUTER_BOUND ( 'NONE', #63, .T. ) ;
#4 = LINE ( 'NONE', #236, #172 ) ;
#5 = CIRCLE ( 'NONE', #106, 0.03740150000000009439 ) ;
#6 = EDGE_LOOP ( 'NONE', ( #38, #23 ) ) ;
#7 = ADVANCED_FACE ( 'NONE', ( #305 ), #160, .T. ) ;
#8 = EDGE_CURVE ( 'NONE', #277, #98, #66, .T. ) ;
#9 = CARTESIAN_POINT ( 'NONE',  ( -0.1181100000000000066, 0.0000000000000000000, 0.7874019999999998243 ) ) ;
#10 = ORIENTED_EDGE ( 'NONE', *, *, #275, .T. ) ;
#11 = FILL_AREA_STYLE ('',( #97 ) ) ;
#12 = EDGE_LOOP ( 'NONE', ( #58, #146, #158, #90 ) ) ;
#13 = CARTESIAN_POINT ( 'NONE',  ( 0.0000000000000000000, 0.0000000000000000000, 0.7874019999999999353 ) ) ;
#14 = EDGE_LOOP ( 'NONE', ( #70, #205, #69, #244 ) ) ;
#15 = ADVANCED_FACE ( 'NONE', ( #369 ), #182, .T. ) ;
#16 = DIRECTION ( 'NONE',  ( -0.0000000000000000000, -0.0000000000000000000, -1.000000000000000000 ) ) ;
#17 = CARTESIAN_POINT ( 'NONE',  ( 0.1181100000000000066, 1.446430334472939084E-17, 2.244094000000000033 ) ) ;
#18 = CYLINDRICAL_SURFACE ( 'NONE', #84, 0.03740150000000005276 ) ;
#19 = VECTOR ( 'NONE', #109, 39.37007874015748143 ) ;
#20 = DIRECTION ( 'NONE',  ( -0.0000000000000000000, -0.0000000000000000000, -1.000000000000000000 ) ) ;
#21 = DIRECTION ( 'NONE',  ( 0.0000000000000000000, 0.0000000000000000000, -1.000000000000000000 ) ) ;
#22 = LINE ( 'NONE', #206, #273 ) ;
#23 = ORIENTED_EDGE ( 'NONE', *, *, #343, .T. ) ;
#24 = AXIS2_PLACEMENT_3D ( 'NONE', #261, #229, #346 ) ;
#25 = ADVANCED_FACE ( 'NONE', ( #230 ), #171, .F. ) ;
#26 =( LENGTH_UNIT ( ) NAMED_UNIT ( * ) SI_UNIT ( $, .METRE. ) );
#27 = CARTESIAN_POINT ( 'NONE',  ( 0.0000000000000000000, 0.0000000000000000000, 2.244094000000000033 ) ) ;
#28 = ORIENTED_EDGE ( 'NONE', *, *, #192, .T. ) ;
#29 = CARTESIAN_POINT ( 'NONE',  ( 0.0000000000000000000, 0.0000000000000000000, 2.244094000000000033 ) ) ;
#30 = EDGE_CURVE ( 'NONE', #123, #300, #61, .T. ) ;
#31 = AXIS2_PLACEMENT_3D ( 'NONE', #175, #345, #209 ) ;
#32 = CLOSED_SHELL ( 'NONE', ( #324, #7, #241, #40, #64, #252, #245, #15, #334, #183, #126, #213, #25 ) ) ;
#33 = VECTOR ( 'NONE', #149, 39.37007874015748854 ) ;
#34 =( GEOMETRIC_REPRESENTATION_CONTEXT ( 3 ) GLOBAL_UNCERTAINTY_ASSIGNED_CONTEXT ( ( #290 ) ) GLOBAL_UNIT_ASSIGNED_CONTEXT ( ( #77, #246, #103 ) ) REPRESENTATION_CONTEXT ( 'NONE', 'WORKASPACE' ) );
#35 = DIRECTION ( 'NONE',  ( -0.0000000000000000000, -0.0000000000000000000, -1.000000000000000000 ) ) ;
#36 = ORIENTED_EDGE ( 'NONE', *, *, #139, .F. ) ;
#37 = AXIS2_PLACEMENT_3D ( 'NONE', #104, #82, #78 ) ;
#38 = ORIENTED_EDGE ( 'NONE', *, *, #8, .T. ) ;
#39 = ORIENTED_EDGE ( 'NONE', *, *, #311, .T. ) ;
#40 = ADVANCED_FACE ( 'NONE', ( #201 ), #137, .T. ) ;
#41 = DIRECTION ( 'NONE',  ( -0.0000000000000000000, -0.0000000000000000000, -1.000000000000000000 ) ) ;
#42 = ORIENTED_EDGE ( 'NONE', *, *, #8, .F. ) ;
#43 = EDGE_CURVE ( 'NONE', #279, #185, #129, .T. ) ;
#44 = FACE_OUTER_BOUND ( 'NONE', #85, .T. ) ;
#45 = VECTOR ( 'NONE', #313, 39.37007874015748143 ) ;
#46 = DIRECTION ( 'NONE',  ( -1.000000000000000000, 0.0000000000000000000, 0.0000000000000000000 ) ) ;
#47 = CARTESIAN_POINT ( 'NONE',  ( 0.0000000000000000000, 0.0000000000000000000, 0.7874019999999998243 ) ) ;
#48 = DIRECTION ( 'NONE',  ( -1.000000000000000000, 0.0000000000000000000, 0.0000000000000000000 ) ) ;
#49 = DIRECTION ( 'NONE',  ( -1.000000000000000000, 0.0000000000000000000, 0.0000000000000000000 ) ) ;
#50 = CARTESIAN_POINT ( 'NONE',  ( 0.0000000000000000000, 0.0000000000000000000, 2.244094000000000033 ) ) ;
#51 = CONICAL_SURFACE ( 'NONE', #210, 0.03936606300000000669, 0.1745329251994332254 ) ;
#52 = PRODUCT_CONTEXT ( 'NONE', #257, 'mechanical' ) ;
#53 = ADVANCED_BREP_SHAPE_REPRESENTATION ( 'Micro_MMBM-020-20X', ( #251, #31 ), #34 ) ;
#54 = DIRECTION ( 'NONE',  ( -0.0000000000000000000, -0.0000000000000000000, -1.000000000000000000 ) ) ;
#55 = UNCERTAINTY_MEASURE_WITH_UNIT (LENGTH_MEASURE( 1.000000000000000082E-05 ), #228, 'distance_accuracy_value', 'NONE');
#56 = EDGE_CURVE ( 'NONE', #300, #185, #367, .T. ) ;
#57 = DIRECTION ( 'NONE',  ( 0.0000000000000000000, 0.0000000000000000000, -1.000000000000000000 ) ) ;
#58 = ORIENTED_EDGE ( 'NONE', *, *, #219, .T. ) ;
#59 = EDGE_CURVE ( 'NONE', #301, #123, #310, .T. ) ;
#60 = CARTESIAN_POINT ( 'NONE',  ( -0.1181100000000000066, 0.0000000000000000000, 2.229093999999999465 ) ) ;
#61 = CIRCLE ( 'NONE', #226, 0.03740150000000001113 ) ;
#62 = PRESENTATION_STYLE_ASSIGNMENT (( #293 ) ) ;
#63 = EDGE_LOOP ( 'NONE', ( #186, #116, #39, #36 ) ) ;
#64 = ADVANCED_FACE ( 'NONE', ( #347 ), #133, .T. ) ;
#65 = DIRECTION ( 'NONE',  ( -1.000000000000000000, 0.0000000000000000000, 0.0000000000000000000 ) ) ;
#66 = CIRCLE ( 'NONE', #266, 0.03936606300000000669 ) ;
#67 = CIRCLE ( 'NONE', #111, 0.03740150000000001113 ) ;
#68 = DIRECTION ( 'NONE',  ( -0.0000000000000000000, -0.0000000000000000000, -1.000000000000000000 ) ) ;
#69 = ORIENTED_EDGE ( 'NONE', *, *, #43, .F. ) ;
#70 = ORIENTED_EDGE ( 'NONE', *, *, #30, .T. ) ;
#71 = AXIS2_PLACEMENT_3D ( 'NONE', #113, #153, #180 ) ;
#72 = VERTEX_POINT ( 'NONE', #374 ) ;
#73 = APPLICATION_PROTOCOL_DEFINITION ( 'draft international standard', 'automotive_design', 1998, #257 ) ;
#74 = ORIENTED_EDGE ( 'NONE', *, *, #95, .F. ) ;
#75 = PRESENTATION_STYLE_ASSIGNMENT (( #338 ) ) ;
#76 = CARTESIAN_POINT ( 'NONE',  ( 0.0000000000000000000, 0.0000000000000000000, 0.0000000000000000000 ) ) ;
#77 =( CONVERSION_BASED_UNIT ( 'INCH', #368 ) LENGTH_UNIT ( ) NAMED_UNIT ( #318 ) );
#78 = DIRECTION ( 'NONE',  ( 1.000000000000000000, 0.0000000000000000000, -0.0000000000000000000 ) ) ;
#79 = AXIS2_PLACEMENT_3D ( 'NONE', #50, #21, #289 ) ;
#80 =( LENGTH_UNIT ( ) NAMED_UNIT ( * ) SI_UNIT ( $, .METRE. ) );
#81 = DIRECTION ( 'NONE',  ( -0.0000000000000000000, -0.0000000000000000000, -1.000000000000000000 ) ) ;
#82 = DIRECTION ( 'NONE',  ( 0.0000000000000000000, 0.0000000000000000000, 1.000000000000000000 ) ) ;
#83 = CARTESIAN_POINT ( 'NONE',  ( -0.03740150000000001113, 0.0000000000000000000, 0.08988159042539359267 ) ) ;
#84 = AXIS2_PLACEMENT_3D ( 'NONE', #173, #372, #105 ) ;
#85 = EDGE_LOOP ( 'NONE', ( #189, #96, #142, #296 ) ) ;
#86 = FILL_AREA_STYLE_COLOUR ( '', #122 ) ;
#87 = EDGE_LOOP ( 'NONE', ( #333, #237 ) ) ;
#88 = EDGE_CURVE ( 'NONE', #327, #211, #292, .T. ) ;
#89 =( NAMED_UNIT ( * ) SI_UNIT ( $, .STERADIAN. ) SOLID_ANGLE_UNIT ( ) );
#90 = ORIENTED_EDGE ( 'NONE', *, *, #311, .F. ) ;
#91 = DIRECTION ( 'NONE',  ( 1.000000000000000000, 0.0000000000000000000, 0.0000000000000000000 ) ) ;
#92 = LINE ( 'NONE', #357, #33 ) ;
#93 = VECTOR ( 'NONE', #16, 39.37007874015748143 ) ;
#94 =( GEOMETRIC_REPRESENTATION_CONTEXT ( 3 ) GLOBAL_UNCERTAINTY_ASSIGNED_CONTEXT ( ( #55 ) ) GLOBAL_UNIT_ASSIGNED_CONTEXT ( ( #228, #349, #108 ) ) REPRESENTATION_CONTEXT ( 'NONE', 'WORKASPACE' ) );
#95 = EDGE_CURVE ( 'NONE', #249, #216, #317, .T. ) ;
#96 = ORIENTED_EDGE ( 'NONE', *, *, #331, .T. ) ;
#97 = FILL_AREA_STYLE_COLOUR ( '', #307 ) ;
#98 = VERTEX_POINT ( 'NONE', #107 ) ;
#99 = AXIS2_PLACEMENT_3D ( 'NONE', #47, #54, #285 ) ;
#100 = AXIS2_PLACEMENT_3D ( 'NONE', #198, #373, #306 ) ;
#101 = ORIENTED_EDGE ( 'NONE', *, *, #331, .F. ) ;
#102 = SURFACE_STYLE_FILL_AREA ( #11 ) ;
#103 =( NAMED_UNIT ( * ) SI_UNIT ( $, .STERADIAN. ) SOLID_ANGLE_UNIT ( ) );
#104 = CARTESIAN_POINT ( 'NONE',  ( 0.0000000000000000000, 0.0000000000000000000, 0.0000000000000000000 ) ) ;
#105 = DIRECTION ( 'NONE',  ( -1.000000000000000000, 0.0000000000000000000, 0.0000000000000000000 ) ) ;
#106 = AXIS2_PLACEMENT_3D ( 'NONE', #212, #329, #65 ) ;
#107 = CARTESIAN_POINT ( 'NONE',  ( 0.03936606300000000669, 4.820952304798306567E-18, 0.0000000000000000000 ) ) ;
#108 =( NAMED_UNIT ( * ) SI_UNIT ( $, .STERADIAN. ) SOLID_ANGLE_UNIT ( ) );
#109 = DIRECTION ( 'NONE',  ( -0.0000000000000000000, -0.0000000000000000000, -1.000000000000000000 ) ) ;
#110 = DIRECTION ( 'NONE',  ( 0.0000000000000000000, 0.0000000000000000000, -1.000000000000000000 ) ) ;
#111 = AXIS2_PLACEMENT_3D ( 'NONE', #124, #190, #134 ) ;
#112 = ORIENTED_EDGE ( 'NONE', *, *, #95, .T. ) ;
#113 = CARTESIAN_POINT ( 'NONE',  ( 0.0000000000000000000, 0.0000000000000000000, 2.244094000000000033 ) ) ;
#114 = DIMENSIONAL_EXPONENTS ( 1.000000000000000000, 0.0000000000000000000, 0.0000000000000000000, 0.0000000000000000000, 0.0000000000000000000, 0.0000000000000000000, 0.0000000000000000000 ) ;
#115 = CYLINDRICAL_SURFACE ( 'NONE', #308, 0.03936606300000000669 ) ;
#116 = ORIENTED_EDGE ( 'NONE', *, *, #267, .T. ) ;
#117 = VECTOR ( 'NONE', #224, 39.37007874015748854 ) ;
#118 = CARTESIAN_POINT ( 'NONE',  ( 0.03740150000000001113, 4.700657515314640450E-18, 0.08988159042539359267 ) ) ;
#119 = DIRECTION ( 'NONE',  ( -1.000000000000000000, 0.0000000000000000000, 0.0000000000000000000 ) ) ;
#120 = FACE_OUTER_BOUND ( 'NONE', #361, .T. ) ;
#121 = PRODUCT ( 'Micro_MMBM-020-20X', 'Micro_MMBM-020-20X', '', ( #52 ) ) ;
#122 = COLOUR_RGB ( '',0.7921568627450980005, 0.8196078431372548767, 0.9333333333333333481 ) ;
#123 = VERTEX_POINT ( 'NONE', #83 ) ;
#124 = CARTESIAN_POINT ( 'NONE',  ( 0.0000000000000000000, 0.0000000000000000000, 0.08988159042539359267 ) ) ;
#125 = ORIENTED_EDGE ( 'NONE', *, *, #131, .F. ) ;
#126 = ADVANCED_FACE ( 'NONE', ( #203 ), #18, .T. ) ;
#127 = LINE ( 'NONE', #159, #299 ) ;
#128 = EDGE_LOOP ( 'NONE', ( #364, #335, #351, #101 ) ) ;
#129 = CIRCLE ( 'NONE', #100, 0.03936606300000000669 ) ;
#130 = VERTEX_POINT ( 'NONE', #200 ) ;
#131 = EDGE_CURVE ( 'NONE', #279, #277, #264, .T. ) ;
#132 = CARTESIAN_POINT ( 'NONE',  ( 0.03740150000000009439, 0.0000000000000000000, 0.7874019999999999353 ) ) ;
#133 = CYLINDRICAL_SURFACE ( 'NONE', #272, 0.1181100000000000066 ) ;
#134 = DIRECTION ( 'NONE',  ( -1.000000000000000000, 0.0000000000000000000, 0.0000000000000000000 ) ) ;
#135 = CARTESIAN_POINT ( 'NONE',  ( 0.0000000000000000000, 0.0000000000000000000, 0.07874000000000000443 ) ) ;
#136 = CARTESIAN_POINT ( 'NONE',  ( 0.03936606300000000669, 4.820952304798306567E-18, 0.07874000000000000443 ) ) ;
#137 = CONICAL_SURFACE ( 'NONE', #144, 0.1031100000000002570, 0.7853981633974318477 ) ;
#138 = DIRECTION ( 'NONE',  ( -1.000000000000000000, 0.0000000000000000000, 0.0000000000000000000 ) ) ;
#139 = EDGE_CURVE ( 'NONE', #211, #327, #196, .T. ) ;
#140 = CARTESIAN_POINT ( 'NONE',  ( 0.0000000000000000000, 0.0000000000000000000, 2.244094000000000033 ) ) ;
#141 = PRODUCT_DEFINITION_CONTEXT ( 'detailed design', #332, 'design' ) ;
#142 = ORIENTED_EDGE ( 'NONE', *, *, #232, .T. ) ;
#143 = CARTESIAN_POINT ( 'NONE',  ( 0.0000000000000000000, 0.0000000000000000000, 0.0000000000000000000 ) ) ;
#144 = AXIS2_PLACEMENT_3D ( 'NONE', #256, #110, #165 ) ;
#145 = DIRECTION ( 'NONE',  ( 1.000000000000000000, 0.0000000000000000000, 0.0000000000000000000 ) ) ;
#146 = ORIENTED_EDGE ( 'NONE', *, *, #166, .T. ) ;
#147 = LENGTH_MEASURE_WITH_UNIT ( LENGTH_MEASURE( 0.02539999999999999897 ), #26 );
#148 = ORIENTED_EDGE ( 'NONE', *, *, #288, .T. ) ;
#149 = DIRECTION ( 'NONE',  ( 0.7071067811865358044, 8.659560562354788645E-17, -0.7071067811865590080 ) ) ;
#150 = DIRECTION ( 'NONE',  ( -0.0000000000000000000, -0.0000000000000000000, -1.000000000000000000 ) ) ;
#151 = CIRCLE ( 'NONE', #24, 0.1031100000000002570 ) ;
#152 = PRODUCT_RELATED_PRODUCT_CATEGORY ( 'part', '', ( #121 ) ) ;
#153 = DIRECTION ( 'NONE',  ( 0.0000000000000000000, 0.0000000000000000000, 1.000000000000000000 ) ) ;
#154 = ORIENTED_EDGE ( 'NONE', *, *, #207, .F. ) ;
#155 = AXIS2_PLACEMENT_3D ( 'NONE', #135, #259, #49 ) ;
#156 = ORIENTED_EDGE ( 'NONE', *, *, #358, .F. ) ;
#157 = CARTESIAN_POINT ( 'NONE',  ( -0.1181100000000000066, 0.0000000000000000000, 2.244094000000000033 ) ) ;
#158 = ORIENTED_EDGE ( 'NONE', *, *, #88, .F. ) ;
#159 = CARTESIAN_POINT ( 'NONE',  ( 0.03936606300000000669, 4.820952304798306567E-18, 0.0000000000000000000 ) ) ;
#160 = CYLINDRICAL_SURFACE ( 'NONE', #177, 0.03740150000000005276 ) ;
#161 = PRODUCT_DEFINITION ( 'UNKNOWN', '', #323, #141 ) ;
#162 = AXIS2_PLACEMENT_3D ( 'NONE', #132, #248, #46 ) ;
#163 =( LENGTH_UNIT ( ) NAMED_UNIT ( * ) SI_UNIT ( $, .METRE. ) );
#164 = STYLED_ITEM ( 'NONE', ( #75 ), #53 ) ;
#165 = DIRECTION ( 'NONE',  ( -1.000000000000000000, 0.0000000000000000000, 0.0000000000000000000 ) ) ;
#166 = EDGE_CURVE ( 'NONE', #218, #211, #193, .T. ) ;
#167 = DIRECTION ( 'NONE',  ( -0.0000000000000000000, -0.0000000000000000000, -1.000000000000000000 ) ) ;
#168 = CARTESIAN_POINT ( 'NONE',  ( -0.1031100000000002570, 0.0000000000000000000, 2.244094000000000033 ) ) ;
#169 = FACE_OUTER_BOUND ( 'NONE', #294, .T. ) ;
#170 = DIRECTION ( 'NONE',  ( -1.000000000000000000, 0.0000000000000000000, 0.0000000000000000000 ) ) ;
#171 = PLANE ( 'NONE',  #37 ) ;
#172 = VECTOR ( 'NONE', #269, 39.37007874015748143 ) ;
#173 = CARTESIAN_POINT ( 'NONE',  ( 0.0000000000000000000, 0.0000000000000000000, 0.0000000000000000000 ) ) ;
#174 = DIRECTION ( 'NONE',  ( 1.000000000000000000, 0.0000000000000000000, 0.0000000000000000000 ) ) ;
#175 = CARTESIAN_POINT ( 'NONE',  ( 0.0000000000000000000, 0.0000000000000000000, 0.0000000000000000000 ) ) ;
#176 = DIRECTION ( 'NONE',  ( 0.0000000000000000000, 0.0000000000000000000, 1.000000000000000000 ) ) ;
#177 = AXIS2_PLACEMENT_3D ( 'NONE', #281, #254, #366 ) ;
#178 = MECHANICAL_DESIGN_GEOMETRIC_PRESENTATION_REPRESENTATION (  '', ( #302 ), #342 ) ;
#179 = ORIENTED_EDGE ( 'NONE', *, *, #358, .T. ) ;
#180 = DIRECTION ( 'NONE',  ( 1.000000000000000000, 0.0000000000000000000, -0.0000000000000000000 ) ) ;
#181 = CARTESIAN_POINT ( 'NONE',  ( -0.03936606300000000669, 0.0000000000000000000, 0.0000000000000000000 ) ) ;
#182 = CONICAL_SURFACE ( 'NONE', #79, 0.1031100000000002570, 0.7853981633974318477 ) ;
#183 = ADVANCED_FACE ( 'NONE', ( #44 ), #315, .T. ) ;
#184 = DIRECTION ( 'NONE',  ( -1.000000000000000000, 0.0000000000000000000, 0.0000000000000000000 ) ) ;
#185 = VERTEX_POINT ( 'NONE', #136 ) ;
#186 = ORIENTED_EDGE ( 'NONE', *, *, #166, .F. ) ;
#187 = AXIS2_PLACEMENT_3D ( 'NONE', #330, #68, #184 ) ;
#188 = DIRECTION ( 'NONE',  ( -1.000000000000000000, 0.0000000000000000000, 0.0000000000000000000 ) ) ;
#189 = ORIENTED_EDGE ( 'NONE', *, *, #56, .F. ) ;
#190 = DIRECTION ( 'NONE',  ( -0.0000000000000000000, -0.0000000000000000000, -1.000000000000000000 ) ) ;
#191 = ORIENTED_EDGE ( 'NONE', *, *, #280, .T. ) ;
#192 = EDGE_CURVE ( 'NONE', #72, #249, #151, .T. ) ;
#193 = LINE ( 'NONE', #17, #45 ) ;
#194 = AXIS2_PLACEMENT_3D ( 'NONE', #13, #253, #223 ) ;
#195 = EDGE_CURVE ( 'NONE', #130, #300, #22, .T. ) ;
#196 = CIRCLE ( 'NONE', #202, 0.1181100000000000066 ) ;
#197 = DIRECTION ( 'NONE',  ( -0.0000000000000000000, -0.0000000000000000000, -1.000000000000000000 ) ) ;
#198 = CARTESIAN_POINT ( 'NONE',  ( 0.0000000000000000000, 0.0000000000000000000, 0.07874000000000000443 ) ) ;
#199 = FACE_OUTER_BOUND ( 'NONE', #265, .T. ) ;
#200 = CARTESIAN_POINT ( 'NONE',  ( 0.03740150000000009439, 4.580362725830984347E-18, 0.7874019999999999353 ) ) ;
#201 = FACE_OUTER_BOUND ( 'NONE', #304, .T. ) ;
#202 = AXIS2_PLACEMENT_3D ( 'NONE', #233, #350, #170 ) ;
#203 = FACE_OUTER_BOUND ( 'NONE', #128, .T. ) ;
#204 = UNCERTAINTY_MEASURE_WITH_UNIT (LENGTH_MEASURE( 1.000000000000000082E-05 ), #326, 'distance_accuracy_value', 'NONE');
#205 = ORIENTED_EDGE ( 'NONE', *, *, #56, .T. ) ;
#206 = CARTESIAN_POINT ( 'NONE',  ( 0.03740150000000005276, 4.580362725830979725E-18, 0.0000000000000000000 ) ) ;
#207 = EDGE_CURVE ( 'NONE', #249, #72, #365, .T. ) ;
#208 = SURFACE_STYLE_FILL_AREA ( #1 ) ;
#209 = DIRECTION ( 'NONE',  ( 1.000000000000000000, 0.0000000000000000000, 0.0000000000000000000 ) ) ;
#210 = AXIS2_PLACEMENT_3D ( 'NONE', #377, #35, #353 ) ;
#211 = VERTEX_POINT ( 'NONE', #274 ) ;
#212 = CARTESIAN_POINT ( 'NONE',  ( 0.0000000000000000000, 0.0000000000000000000, 0.7874019999999999353 ) ) ;
#213 = ADVANCED_FACE ( 'NONE', ( #319 ), #115, .T. ) ;
#214 = CARTESIAN_POINT ( 'NONE',  ( -0.03936606300000000669, 0.0000000000000000000, 0.07874000000000000443 ) ) ;
#215 = MECHANICAL_DESIGN_GEOMETRIC_PRESENTATION_REPRESENTATION (  '', ( #164 ), #94 ) ;
#216 = VERTEX_POINT ( 'NONE', #60 ) ;
#217 = CYLINDRICAL_SURFACE ( 'NONE', #282, 0.03936606300000000669 ) ;
#218 = VERTEX_POINT ( 'NONE', #268 ) ;
#219 = EDGE_CURVE ( 'NONE', #216, #218, #348, .T. ) ;
#220 = ORIENTED_EDGE ( 'NONE', *, *, #88, .T. ) ;
#221 = SURFACE_SIDE_STYLE ('',( #102 ) ) ;
#222 = ORIENTED_EDGE ( 'NONE', *, *, #195, .T. ) ;
#223 = DIRECTION ( 'NONE',  ( -1.000000000000000000, 0.0000000000000000000, 0.0000000000000000000 ) ) ;
#224 = DIRECTION ( 'NONE',  ( -0.7071067811865358044, 0.0000000000000000000, -0.7071067811865590080 ) ) ;
#225 = PRESENTATION_LAYER_ASSIGNMENT (  '', '', ( #164 ) ) ;
#226 = AXIS2_PLACEMENT_3D ( 'NONE', #287, #20, #138 ) ;
#227 = DIRECTION ( 'NONE',  ( -0.0000000000000000000, -0.0000000000000000000, -1.000000000000000000 ) ) ;
#228 =( CONVERSION_BASED_UNIT ( 'INCH', #321 ) LENGTH_UNIT ( ) NAMED_UNIT ( #114 ) );
#229 = DIRECTION ( 'NONE',  ( 0.0000000000000000000, 0.0000000000000000000, 1.000000000000000000 ) ) ;
#230 = FACE_OUTER_BOUND ( 'NONE', #6, .T. ) ;
#231 = AXIS2_PLACEMENT_3D ( 'NONE', #29, #271, #119 ) ;
#232 = EDGE_CURVE ( 'NONE', #123, #279, #4, .T. ) ;
#233 = CARTESIAN_POINT ( 'NONE',  ( 0.0000000000000000000, 0.0000000000000000000, 0.7874019999999998243 ) ) ;
#234 = APPLICATION_PROTOCOL_DEFINITION ( 'draft international standard', 'automotive_design', 1998, #332 ) ;
#235 = FACE_OUTER_BOUND ( 'NONE', #14, .T. ) ;
#236 = CARTESIAN_POINT ( 'NONE',  ( -0.03936606300000000669, 0.0000000000000000000, 0.07874000000000000443 ) ) ;
#237 = ORIENTED_EDGE ( 'NONE', *, *, #362, .F. ) ;
#238 = DIRECTION ( 'NONE',  ( -0.0000000000000000000, -0.0000000000000000000, -1.000000000000000000 ) ) ;
#239 = AXIS2_PLACEMENT_3D ( 'NONE', #378, #57, #174 ) ;
#240 = ORIENTED_EDGE ( 'NONE', *, *, #343, .F. ) ;
#241 = ADVANCED_FACE ( 'NONE', ( #235 ), #51, .T. ) ;
#242 = CARTESIAN_POINT ( 'NONE',  ( 0.0000000000000000000, 0.0000000000000000000, 2.229093999999999465 ) ) ;
#243 = PLANE ( 'NONE',  #71 ) ;
#244 = ORIENTED_EDGE ( 'NONE', *, *, #232, .F. ) ;
#245 = ADVANCED_FACE ( 'NONE', ( #120 ), #243, .T. ) ;
#246 =( NAMED_UNIT ( * ) PLANE_ANGLE_UNIT ( ) SI_UNIT ( $, .RADIAN. ) );
#247 = EDGE_LOOP ( 'NONE', ( #156, #191, #328, #240 ) ) ;
#248 = DIRECTION ( 'NONE',  ( -0.0000000000000000000, 0.0000000000000000000, -1.000000000000000000 ) ) ;
#249 = VERTEX_POINT ( 'NONE', #291 ) ;
#250 = VECTOR ( 'NONE', #303, 39.37007874015748143 ) ;
#251 = MANIFOLD_SOLID_BREP ( 'Cut-Revolve1', #32 ) ;
#252 = ADVANCED_FACE ( 'NONE', ( #3 ), #352, .T. ) ;
#253 = DIRECTION ( 'NONE',  ( -0.0000000000000000000, -0.0000000000000000000, -1.000000000000000000 ) ) ;
#254 = DIRECTION ( 'NONE',  ( -0.0000000000000000000, -0.0000000000000000000, -1.000000000000000000 ) ) ;
#255 = FACE_BOUND ( 'NONE', #87, .T. ) ;
#256 = CARTESIAN_POINT ( 'NONE',  ( 0.0000000000000000000, 0.0000000000000000000, 2.244094000000000033 ) ) ;
#257 = APPLICATION_CONTEXT ( 'automotive_design' ) ;
#258 = CARTESIAN_POINT ( 'NONE',  ( 0.0000000000000000000, 0.0000000000000000000, 0.0000000000000000000 ) ) ;
#259 = DIRECTION ( 'NONE',  ( -0.0000000000000000000, -0.0000000000000000000, -1.000000000000000000 ) ) ;
#260 = CIRCLE ( 'NONE', #354, 0.1181100000000000066 ) ;
#261 = CARTESIAN_POINT ( 'NONE',  ( 0.0000000000000000000, 0.0000000000000000000, 2.244094000000000033 ) ) ;
#262 = CARTESIAN_POINT ( 'NONE',  ( 0.03936606300000000669, 4.820952304798306567E-18, 0.07874000000000000443 ) ) ;
#263 = ORIENTED_EDGE ( 'NONE', *, *, #192, .F. ) ;
#264 = LINE ( 'NONE', #284, #93 ) ;
#265 = EDGE_LOOP ( 'NONE', ( #220, #375 ) ) ;
#266 = AXIS2_PLACEMENT_3D ( 'NONE', #76, #227, #314 ) ;
#267 = EDGE_CURVE ( 'NONE', #218, #216, #260, .T. ) ;
#268 = CARTESIAN_POINT ( 'NONE',  ( 0.1181100000000000066, 1.446430334472939084E-17, 2.229093999999999465 ) ) ;
#269 = DIRECTION ( 'NONE',  ( -0.1736481776669306087, 0.0000000000000000000, -0.9848077530122080203 ) ) ;
#270 = ORIENTED_EDGE ( 'NONE', *, *, #207, .T. ) ;
#271 = DIRECTION ( 'NONE',  ( -0.0000000000000000000, -0.0000000000000000000, -1.000000000000000000 ) ) ;
#272 = AXIS2_PLACEMENT_3D ( 'NONE', #140, #81, #341 ) ;
#273 = VECTOR ( 'NONE', #150, 39.37007874015748143 ) ;
#274 = CARTESIAN_POINT ( 'NONE',  ( 0.1181100000000000066, 1.446430334472939084E-17, 0.7874019999999998243 ) ) ;
#275 = EDGE_CURVE ( 'NONE', #301, #130, #5, .T. ) ;
#276 = ORIENTED_EDGE ( 'NONE', *, *, #59, .F. ) ;
#277 = VERTEX_POINT ( 'NONE', #181 ) ;
#278 = CARTESIAN_POINT ( 'NONE',  ( 0.0000000000000000000, 0.0000000000000000000, 0.0000000000000000000 ) ) ;
#279 = VERTEX_POINT ( 'NONE', #214 ) ;
#280 = EDGE_CURVE ( 'NONE', #185, #279, #286, .T. ) ;
#281 = CARTESIAN_POINT ( 'NONE',  ( 0.0000000000000000000, 0.0000000000000000000, 0.0000000000000000000 ) ) ;
#282 = AXIS2_PLACEMENT_3D ( 'NONE', #278, #197, #48 ) ;
#283 = CARTESIAN_POINT ( 'NONE',  ( -0.03740150000000005276, 0.0000000000000000000, 0.0000000000000000000 ) ) ;
#284 = CARTESIAN_POINT ( 'NONE',  ( -0.03936606300000000669, 0.0000000000000000000, 0.0000000000000000000 ) ) ;
#285 = DIRECTION ( 'NONE',  ( -1.000000000000000000, 0.0000000000000000000, 0.0000000000000000000 ) ) ;
#286 = CIRCLE ( 'NONE', #187, 0.03936606300000000669 ) ;
#287 = CARTESIAN_POINT ( 'NONE',  ( 0.0000000000000000000, 0.0000000000000000000, 0.08988159042539359267 ) ) ;
#288 = EDGE_CURVE ( 'NONE', #72, #218, #92, .T. ) ;
#289 = DIRECTION ( 'NONE',  ( -1.000000000000000000, 0.0000000000000000000, 0.0000000000000000000 ) ) ;
#290 = UNCERTAINTY_MEASURE_WITH_UNIT (LENGTH_MEASURE( 1.000000000000000082E-05 ), #77, 'distance_accuracy_value', 'NONE');
#291 = CARTESIAN_POINT ( 'NONE',  ( -0.1031100000000002570, 0.0000000000000000000, 2.244094000000000033 ) ) ;
#292 = CIRCLE ( 'NONE', #99, 0.1181100000000000066 ) ;
#293 = SURFACE_STYLE_USAGE ( .BOTH. , #322 ) ;
#294 = EDGE_LOOP ( 'NONE', ( #320, #179, #42, #125 ) ) ;
#295 =( NAMED_UNIT ( * ) PLANE_ANGLE_UNIT ( ) SI_UNIT ( $, .RADIAN. ) );
#296 = ORIENTED_EDGE ( 'NONE', *, *, #280, .F. ) ;
#297 = AXIS2_PLACEMENT_3D ( 'NONE', #258, #41, #188 ) ;
#298 = DIRECTION ( 'NONE',  ( -1.000000000000000000, 0.0000000000000000000, 0.0000000000000000000 ) ) ;
#299 = VECTOR ( 'NONE', #167, 39.37007874015748143 ) ;
#300 = VERTEX_POINT ( 'NONE', #118 ) ;
#301 = VERTEX_POINT ( 'NONE', #340 ) ;
#302 = STYLED_ITEM ( 'NONE', ( #62 ), #251 ) ;
#303 = DIRECTION ( 'NONE',  ( -0.0000000000000000000, -0.0000000000000000000, -1.000000000000000000 ) ) ;
#304 = EDGE_LOOP ( 'NONE', ( #263, #148, #363, #74 ) ) ;
#305 = FACE_OUTER_BOUND ( 'NONE', #337, .T. ) ;
#306 = DIRECTION ( 'NONE',  ( -1.000000000000000000, 0.0000000000000000000, 0.0000000000000000000 ) ) ;
#307 = COLOUR_RGB ( '',0.7921568627450980005, 0.8196078431372548767, 0.9333333333333333481 ) ;
#308 = AXIS2_PLACEMENT_3D ( 'NONE', #143, #238, #298 ) ;
#309 = PLANE ( 'NONE',  #162 ) ;
#310 = LINE ( 'NONE', #283, #19 ) ;
#311 = EDGE_CURVE ( 'NONE', #216, #327, #312, .T. ) ;
#312 = LINE ( 'NONE', #157, #250 ) ;
#313 = DIRECTION ( 'NONE',  ( -0.0000000000000000000, -0.0000000000000000000, -1.000000000000000000 ) ) ;
#314 = DIRECTION ( 'NONE',  ( -1.000000000000000000, 0.0000000000000000000, 0.0000000000000000000 ) ) ;
#315 = CONICAL_SURFACE ( 'NONE', #155, 0.03936606300000000669, 0.1745329251994332254 ) ;
#316 = PRODUCT_DEFINITION_SHAPE ( 'NONE', 'NONE',  #161 ) ;
#317 = LINE ( 'NONE', #168, #117 ) ;
#318 = DIMENSIONAL_EXPONENTS ( 1.000000000000000000, 0.0000000000000000000, 0.0000000000000000000, 0.0000000000000000000, 0.0000000000000000000, 0.0000000000000000000, 0.0000000000000000000 ) ;
#319 = FACE_OUTER_BOUND ( 'NONE', #247, .T. ) ;
#320 = ORIENTED_EDGE ( 'NONE', *, *, #43, .T. ) ;
#321 = LENGTH_MEASURE_WITH_UNIT ( LENGTH_MEASURE( 0.02539999999999999897 ), #163 );
#322 = SURFACE_SIDE_STYLE ('',( #208 ) ) ;
#323 = PRODUCT_DEFINITION_FORMATION_WITH_SPECIFIED_SOURCE ( 'ANY', '', #121, .NOT_KNOWN. ) ;
#324 = ADVANCED_FACE ( 'NONE', ( #169 ), #217, .T. ) ;
#325 = AXIS2_PLACEMENT_3D ( 'NONE', #27, #176, #145 ) ;
#326 =( CONVERSION_BASED_UNIT ( 'INCH', #147 ) LENGTH_UNIT ( ) NAMED_UNIT ( #336 ) );
#327 = VERTEX_POINT ( 'NONE', #9 ) ;
#328 = ORIENTED_EDGE ( 'NONE', *, *, #131, .T. ) ;
#329 = DIRECTION ( 'NONE',  ( -0.0000000000000000000, -0.0000000000000000000, -1.000000000000000000 ) ) ;
#330 = CARTESIAN_POINT ( 'NONE',  ( 0.0000000000000000000, 0.0000000000000000000, 0.07874000000000000443 ) ) ;
#331 = EDGE_CURVE ( 'NONE', #300, #123, #67, .T. ) ;
#332 = APPLICATION_CONTEXT ( 'automotive_design' ) ;
#333 = ORIENTED_EDGE ( 'NONE', *, *, #275, .F. ) ;
#334 = ADVANCED_FACE ( 'NONE', ( #255, #199 ), #309, .T. ) ;
#335 = ORIENTED_EDGE ( 'NONE', *, *, #362, .T. ) ;
#336 = DIMENSIONAL_EXPONENTS ( 1.000000000000000000, 0.0000000000000000000, 0.0000000000000000000, 0.0000000000000000000, 0.0000000000000000000, 0.0000000000000000000, 0.0000000000000000000 ) ;
#337 = EDGE_LOOP ( 'NONE', ( #10, #222, #339, #276 ) ) ;
#338 = SURFACE_STYLE_USAGE ( .BOTH. , #221 ) ;
#339 = ORIENTED_EDGE ( 'NONE', *, *, #30, .F. ) ;
#340 = CARTESIAN_POINT ( 'NONE',  ( -0.03740150000000009439, 0.0000000000000000000, 0.7874019999999999353 ) ) ;
#341 = DIRECTION ( 'NONE',  ( -1.000000000000000000, 0.0000000000000000000, 0.0000000000000000000 ) ) ;
#342 =( GEOMETRIC_REPRESENTATION_CONTEXT ( 3 ) GLOBAL_UNCERTAINTY_ASSIGNED_CONTEXT ( ( #204 ) ) GLOBAL_UNIT_ASSIGNED_CONTEXT ( ( #326, #295, #89 ) ) REPRESENTATION_CONTEXT ( 'NONE', 'WORKASPACE' ) );
#343 = EDGE_CURVE ( 'NONE', #98, #277, #376, .T. ) ;
#344 = DIRECTION ( 'NONE',  ( 0.1736481776669306087, 2.126576849575774688E-17, -0.9848077530122080203 ) ) ;
#345 = DIRECTION ( 'NONE',  ( 0.0000000000000000000, 0.0000000000000000000, 1.000000000000000000 ) ) ;
#346 = DIRECTION ( 'NONE',  ( 1.000000000000000000, 0.0000000000000000000, 0.0000000000000000000 ) ) ;
#347 = FACE_OUTER_BOUND ( 'NONE', #12, .T. ) ;
#348 = CIRCLE ( 'NONE', #239, 0.1181100000000000066 ) ;
#349 =( NAMED_UNIT ( * ) PLANE_ANGLE_UNIT ( ) SI_UNIT ( $, .RADIAN. ) );
#350 = DIRECTION ( 'NONE',  ( -0.0000000000000000000, -0.0000000000000000000, -1.000000000000000000 ) ) ;
#351 = ORIENTED_EDGE ( 'NONE', *, *, #59, .T. ) ;
#352 = CYLINDRICAL_SURFACE ( 'NONE', #231, 0.1181100000000000066 ) ;
#353 = DIRECTION ( 'NONE',  ( -1.000000000000000000, 0.0000000000000000000, 0.0000000000000000000 ) ) ;
#354 = AXIS2_PLACEMENT_3D ( 'NONE', #242, #356, #91 ) ;
#355 = EDGE_LOOP ( 'NONE', ( #2, #154, #112, #379 ) ) ;
#356 = DIRECTION ( 'NONE',  ( 0.0000000000000000000, 0.0000000000000000000, -1.000000000000000000 ) ) ;
#357 = CARTESIAN_POINT ( 'NONE',  ( 0.1031100000000002570, 1.262733314600838667E-17, 2.244094000000000033 ) ) ;
#358 = EDGE_CURVE ( 'NONE', #185, #98, #127, .T. ) ;
#359 = PRESENTATION_LAYER_ASSIGNMENT (  '', '', ( #302 ) ) ;
#360 = CIRCLE ( 'NONE', #194, 0.03740150000000009439 ) ;
#361 = EDGE_LOOP ( 'NONE', ( #270, #28 ) ) ;
#362 = EDGE_CURVE ( 'NONE', #130, #301, #360, .T. ) ;
#363 = ORIENTED_EDGE ( 'NONE', *, *, #219, .F. ) ;
#364 = ORIENTED_EDGE ( 'NONE', *, *, #195, .F. ) ;
#365 = CIRCLE ( 'NONE', #325, 0.1031100000000002570 ) ;
#366 = DIRECTION ( 'NONE',  ( -1.000000000000000000, 0.0000000000000000000, 0.0000000000000000000 ) ) ;
#367 = LINE ( 'NONE', #262, #370 ) ;
#368 = LENGTH_MEASURE_WITH_UNIT ( LENGTH_MEASURE( 0.02539999999999999897 ), #80 );
#369 = FACE_OUTER_BOUND ( 'NONE', #355, .T. ) ;
#370 = VECTOR ( 'NONE', #344, 39.37007874015748143 ) ;
#371 = SHAPE_DEFINITION_REPRESENTATION ( #316, #53 ) ;
#372 = DIRECTION ( 'NONE',  ( -0.0000000000000000000, -0.0000000000000000000, -1.000000000000000000 ) ) ;
#373 = DIRECTION ( 'NONE',  ( -0.0000000000000000000, -0.0000000000000000000, -1.000000000000000000 ) ) ;
#374 = CARTESIAN_POINT ( 'NONE',  ( 0.1031100000000002570, 1.354581824536888722E-17, 2.244094000000000033 ) ) ;
#375 = ORIENTED_EDGE ( 'NONE', *, *, #139, .T. ) ;
#376 = CIRCLE ( 'NONE', #297, 0.03936606300000000669 ) ;
#377 = CARTESIAN_POINT ( 'NONE',  ( 0.0000000000000000000, 0.0000000000000000000, 0.07874000000000000443 ) ) ;
#378 = CARTESIAN_POINT ( 'NONE',  ( 0.0000000000000000000, 0.0000000000000000000, 2.229093999999999465 ) ) ;
#379 = ORIENTED_EDGE ( 'NONE', *, *, #267, .F. ) ;
ENDSEC;
END-ISO-10303-21;
