ISO-10303-21;
HEADER;
FILE_DESCRIPTION (( 'STEP AP214' ),
    '1' );
FILE_NAME ('84606.STEP',
    '2023-07-12T13:10:53',
    ( '' ),
    ( '' ),
    'SwSTEP 2.0',
    'SolidWorks 2023',
    '' );
FILE_SCHEMA (( 'AUTOMOTIVE_DESIGN' ));
ENDSEC;

DATA;
#1 = FACE_OUTER_BOUND ( 'NONE', #108, .T. ) ;
#2 = LINE ( 'NONE', #204, #222 ) ;
#3 = EDGE_LOOP ( 'NONE', ( #78, #248 ) ) ;
#4 =( NAMED_UNIT ( * ) PLANE_ANGLE_UNIT ( ) SI_UNIT ( $, .RADIAN. ) );
#5 =( NAMED_UNIT ( * ) PLANE_ANGLE_UNIT ( ) SI_UNIT ( $, .RADIAN. ) );
#6 = DIRECTION ( 'NONE',  ( 1.000000000000000000, 0.000000000000000000, 0.000000000000000000 ) ) ;
#7 = VECTOR ( 'NONE', #255, 39.37007874015748143 ) ;
#8 = DIRECTION ( 'NONE',  ( -1.206665185214025874E-16, 1.000000000000000000, -0.000000000000000000 ) ) ;
#9 = ORIENTED_EDGE ( 'NONE', *, *, #73, .T. ) ;
#10 = FILL_AREA_STYLE_COLOUR ( '', #76 ) ;
#11 = CIRCLE ( 'NONE', #17, 0.2500000000000000555 ) ;
#12 = CIRCLE ( 'NONE', #51, 0.2500000000000000555 ) ;
#13 = FACE_OUTER_BOUND ( 'NONE', #3, .T. ) ;
#14 = DIRECTION ( 'NONE',  ( -1.206665185214025874E-16, 1.000000000000000000, -0.000000000000000000 ) ) ;
#15 = PLANE ( 'NONE',  #27 ) ;
#16 = CARTESIAN_POINT ( 'NONE',  ( 2.716169159564024159E-16, 0.2415773655164113742, 0.000000000000000000 ) ) ;
#17 = AXIS2_PLACEMENT_3D ( 'NONE', #101, #8, #296 ) ;
#18 = UNCERTAINTY_MEASURE_WITH_UNIT (LENGTH_MEASURE( 1.000000000000000082E-05 ), #86, 'distance_accuracy_value', 'NONE');
#19 = PRODUCT ( '84606', '84606', '', ( #197 ) ) ;
#20 =( GEOMETRIC_REPRESENTATION_CONTEXT ( 3 ) GLOBAL_UNCERTAINTY_ASSIGNED_CONTEXT ( ( #223 ) ) GLOBAL_UNIT_ASSIGNED_CONTEXT ( ( #115, #79, #38 ) ) REPRESENTATION_CONTEXT ( 'NONE', 'WORKASPACE' ) );
#21 = AXIS2_PLACEMENT_3D ( 'NONE', #97, #96, #171 ) ;
#22 = ORIENTED_EDGE ( 'NONE', *, *, #118, .T. ) ;
#23 = SURFACE_SIDE_STYLE ('',( #107 ) ) ;
#24 = ORIENTED_EDGE ( 'NONE', *, *, #34, .T. ) ;
#25 =( CONVERSION_BASED_UNIT ( 'INCH', #247 ) LENGTH_UNIT ( ) NAMED_UNIT ( #29 ) );
#26 = VECTOR ( 'NONE', #188, 39.37007874015748143 ) ;
#27 = AXIS2_PLACEMENT_3D ( 'NONE', #209, #192, #306 ) ;
#28 = EDGE_LOOP ( 'NONE', ( #218, #260, #301, #280 ) ) ;
#29 = DIMENSIONAL_EXPONENTS ( 1.000000000000000000, 0.000000000000000000, 0.000000000000000000, 0.000000000000000000, 0.000000000000000000, 0.000000000000000000, 0.000000000000000000 ) ;
#30 = ADVANCED_FACE ( 'NONE', ( #135 ), #54, .T. ) ;
#31 = LINE ( 'NONE', #253, #7 ) ;
#32 = DIRECTION ( 'NONE',  ( -1.000000000000000000, -1.206665185214025874E-16, 0.000000000000000000 ) ) ;
#33 = DIRECTION ( 'NONE',  ( -9.808453778935677663E-34, 1.000000000000000000, 0.000000000000000000 ) ) ;
#34 = EDGE_CURVE ( 'NONE', #259, #39, #94, .T. ) ;
#35 =( GEOMETRIC_REPRESENTATION_CONTEXT ( 3 ) GLOBAL_UNCERTAINTY_ASSIGNED_CONTEXT ( ( #266 ) ) GLOBAL_UNIT_ASSIGNED_CONTEXT ( ( #65, #285, #139 ) ) REPRESENTATION_CONTEXT ( 'NONE', 'WORKASPACE' ) );
#36 = DIMENSIONAL_EXPONENTS ( 1.000000000000000000, 0.000000000000000000, 0.000000000000000000, 0.000000000000000000, 0.000000000000000000, 0.000000000000000000, 0.000000000000000000 ) ;
#37 = AXIS2_PLACEMENT_3D ( 'NONE', #217, #140, #87 ) ;
#38 =( NAMED_UNIT ( * ) SI_UNIT ( $, .STERADIAN. ) SOLID_ANGLE_UNIT ( ) );
#39 = VERTEX_POINT ( 'NONE', #156 ) ;
#40 = DIRECTION ( 'NONE',  ( -1.000000000000000000, -1.365923996832133335E-16, 0.000000000000000000 ) ) ;
#41 =( NAMED_UNIT ( * ) PLANE_ANGLE_UNIT ( ) SI_UNIT ( $, .RADIAN. ) );
#42 = ORIENTED_EDGE ( 'NONE', *, *, #73, .F. ) ;
#43 = CIRCLE ( 'NONE', #237, 0.2499999999999996947 ) ;
#44 = SURFACE_STYLE_USAGE ( .BOTH. , #267 ) ;
#45 = CIRCLE ( 'NONE', #88, 0.04000000000000000083 ) ;
#46 = SHAPE_DEFINITION_REPRESENTATION ( #49, #245 ) ;
#47 = ORIENTED_EDGE ( 'NONE', *, *, #90, .T. ) ;
#48 = LENGTH_MEASURE_WITH_UNIT ( LENGTH_MEASURE( 0.02539999999999999897 ), #154 );
#49 = PRODUCT_DEFINITION_SHAPE ( 'NONE', 'NONE',  #165 ) ;
#50 = CIRCLE ( 'NONE', #164, 0.2499999999999999722 ) ;
#51 = AXIS2_PLACEMENT_3D ( 'NONE', #92, #83, #189 ) ;
#52 = SURFACE_STYLE_USAGE ( .BOTH. , #23 ) ;
#53 = VERTEX_POINT ( 'NONE', #123 ) ;
#54 = CYLINDRICAL_SURFACE ( 'NONE', #80, 0.2499999999999998612 ) ;
#55 = MECHANICAL_DESIGN_GEOMETRIC_PRESENTATION_REPRESENTATION (  '', ( #184 ), #20 ) ;
#56 = EDGE_LOOP ( 'NONE', ( #177, #47 ) ) ;
#57 = DIRECTION ( 'NONE',  ( -1.000000000000000000, -1.365923996832133335E-16, 0.000000000000000000 ) ) ;
#58 = CARTESIAN_POINT ( 'NONE',  ( 2.716169159564024159E-16, 0.2415773655164113742, 0.000000000000000000 ) ) ;
#59 =( LENGTH_UNIT ( ) NAMED_UNIT ( * ) SI_UNIT ( $, .METRE. ) );
#60 = ADVANCED_FACE ( 'NONE', ( #1 ), #104, .T. ) ;
#61 = SURFACE_STYLE_FILL_AREA ( #163 ) ;
#62 = LENGTH_MEASURE_WITH_UNIT ( LENGTH_MEASURE( 0.02539999999999999897 ), #111 );
#63 = FACE_OUTER_BOUND ( 'NONE', #291, .T. ) ;
#64 = PRODUCT_DEFINITION_FORMATION_WITH_SPECIFIED_SOURCE ( 'ANY', '', #19, .NOT_KNOWN. ) ;
#65 =( CONVERSION_BASED_UNIT ( 'INCH', #166 ) LENGTH_UNIT ( ) NAMED_UNIT ( #36 ) );
#66 = PRESENTATION_STYLE_ASSIGNMENT (( #185 ) ) ;
#67 = ADVANCED_FACE ( 'NONE', ( #254 ), #180, .F. ) ;
#68 = COLOUR_RGB ( '',1.000000000000000000, 0.000000000000000000, 0.000000000000000000 ) ;
#69 = PLANE ( 'NONE',  #263 ) ;
#70 = ORIENTED_EDGE ( 'NONE', *, *, #182, .T. ) ;
#71 =( NAMED_UNIT ( * ) PLANE_ANGLE_UNIT ( ) SI_UNIT ( $, .RADIAN. ) );
#72 = DIMENSIONAL_EXPONENTS ( 1.000000000000000000, 0.000000000000000000, 0.000000000000000000, 0.000000000000000000, 0.000000000000000000, 0.000000000000000000, 0.000000000000000000 ) ;
#73 = EDGE_CURVE ( 'NONE', #259, #151, #2, .T. ) ;
#74 = LENGTH_MEASURE_WITH_UNIT ( LENGTH_MEASURE( 0.02539999999999999897 ), #181 );
#75 = DIRECTION ( 'NONE',  ( 1.000000000000000000, 9.808453778935679373E-34, 0.000000000000000000 ) ) ;
#76 = COLOUR_RGB ( '',1.000000000000000000, 0.000000000000000000, 0.000000000000000000 ) ;
#77 = FILL_AREA_STYLE_COLOUR ( '', #288 ) ;
#78 = ORIENTED_EDGE ( 'NONE', *, *, #182, .F. ) ;
#79 =( NAMED_UNIT ( * ) PLANE_ANGLE_UNIT ( ) SI_UNIT ( $, .RADIAN. ) );
#80 = AXIS2_PLACEMENT_3D ( 'NONE', #232, #126, #283 ) ;
#81 = CARTESIAN_POINT ( 'NONE',  ( 0.2499999999999998057, 3.000000000000000444, 3.061616997868381785E-17 ) ) ;
#82 = EDGE_CURVE ( 'NONE', #39, #259, #45, .T. ) ;
#83 = DIRECTION ( 'NONE',  ( -1.206665185214025874E-16, 1.000000000000000000, -0.000000000000000000 ) ) ;
#84 = ORIENTED_EDGE ( 'NONE', *, *, #144, .T. ) ;
#85 = LINE ( 'NONE', #81, #26 ) ;
#86 =( CONVERSION_BASED_UNIT ( 'INCH', #307 ) LENGTH_UNIT ( ) NAMED_UNIT ( #224 ) );
#87 = DIRECTION ( 'NONE',  ( -1.000000000000000000, -9.808453778935679373E-34, 0.000000000000000000 ) ) ;
#88 = AXIS2_PLACEMENT_3D ( 'NONE', #207, #229, #75 ) ;
#89 = COLOUR_RGB ( '',1.000000000000000000, 0.000000000000000000, 0.000000000000000000 ) ;
#90 = EDGE_CURVE ( 'NONE', #198, #160, #11, .T. ) ;
#91 = DIRECTION ( 'NONE',  ( -1.206665185214025874E-16, 1.000000000000000000, -0.000000000000000000 ) ) ;
#92 = CARTESIAN_POINT ( 'NONE',  ( -6.123233995736772199E-17, 3.000000000000000444, 0.000000000000000000 ) ) ;
#93 = ORIENTED_EDGE ( 'NONE', *, *, #133, .F. ) ;
#94 = CIRCLE ( 'NONE', #145, 0.04000000000000000083 ) ;
#95 =( GEOMETRIC_REPRESENTATION_CONTEXT ( 3 ) GLOBAL_UNCERTAINTY_ASSIGNED_CONTEXT ( ( #141 ) ) GLOBAL_UNIT_ASSIGNED_CONTEXT ( ( #251, #4, #138 ) ) REPRESENTATION_CONTEXT ( 'NONE', 'WORKASPACE' ) );
#96 = DIRECTION ( 'NONE',  ( 0.000000000000000000, 0.000000000000000000, 1.000000000000000000 ) ) ;
#97 = CARTESIAN_POINT ( 'NONE',  ( 0.000000000000000000, 0.000000000000000000, 0.000000000000000000 ) ) ;
#98 = MECHANICAL_DESIGN_GEOMETRIC_PRESENTATION_REPRESENTATION (  '', ( #190 ), #95 ) ;
#99 = SURFACE_STYLE_FILL_AREA ( #132 ) ;
#100 = DIRECTION ( 'NONE',  ( -1.000000000000000000, -9.808453778935677663E-34, 0.000000000000000000 ) ) ;
#101 = CARTESIAN_POINT ( 'NONE',  ( -6.123233995736772199E-17, 3.000000000000000444, 0.000000000000000000 ) ) ;
#102 = DIRECTION ( 'NONE',  ( 9.808453778935677663E-34, -1.000000000000000000, -0.000000000000000000 ) ) ;
#103 = PRESENTATION_STYLE_ASSIGNMENT (( #128 ) ) ;
#104 = CONICAL_SURFACE ( 'NONE', #227, 0.04000000000000000083, 0.7155849933176765543 ) ;
#105 = CARTESIAN_POINT ( 'NONE',  ( -2.369500423704768587E-34, 0.2415773655164111799, 0.000000000000000000 ) ) ;
#106 = MECHANICAL_DESIGN_GEOMETRIC_PRESENTATION_REPRESENTATION (  '', ( #305 ), #143 ) ;
#107 = SURFACE_STYLE_FILL_AREA ( #246 ) ;
#108 = EDGE_LOOP ( 'NONE', ( #42, #279, #183, #199 ) ) ;
#109 = SURFACE_STYLE_USAGE ( .BOTH. , #231 ) ;
#110 = ORIENTED_EDGE ( 'NONE', *, *, #118, .F. ) ;
#111 =( LENGTH_UNIT ( ) NAMED_UNIT ( * ) SI_UNIT ( $, .METRE. ) );
#112 = DIRECTION ( 'NONE',  ( -1.206665185214025874E-16, 1.000000000000000000, -0.000000000000000000 ) ) ;
#113 = FILL_AREA_STYLE ('',( #238 ) ) ;
#114 =( LENGTH_UNIT ( ) NAMED_UNIT ( * ) SI_UNIT ( $, .METRE. ) );
#115 =( CONVERSION_BASED_UNIT ( 'INCH', #297 ) LENGTH_UNIT ( ) NAMED_UNIT ( #72 ) );
#116 =( LENGTH_UNIT ( ) NAMED_UNIT ( * ) SI_UNIT ( $, .METRE. ) );
#117 =( CONVERSION_BASED_UNIT ( 'INCH', #62 ) LENGTH_UNIT ( ) NAMED_UNIT ( #149 ) );
#118 = EDGE_CURVE ( 'NONE', #151, #53, #50, .T. ) ;
#119 = CONICAL_SURFACE ( 'NONE', #37, 0.04000000000000000083, 0.7155849933176765543 ) ;
#120 = FACE_OUTER_BOUND ( 'NONE', #208, .T. ) ;
#121 = APPLICATION_PROTOCOL_DEFINITION ( 'draft international standard', 'automotive_design', 1998, #273 ) ;
#122 = DIRECTION ( 'NONE',  ( -1.000000000000000000, -9.808453778935679373E-34, 0.000000000000000000 ) ) ;
#123 = CARTESIAN_POINT ( 'NONE',  ( -0.2499999999999999167, 0.2415773655164111799, 0.000000000000000000 ) ) ;
#124 = CIRCLE ( 'NONE', #172, 0.2499999999999999722 ) ;
#125 = AXIS2_PLACEMENT_3D ( 'NONE', #58, #91, #40 ) ;
#126 = DIRECTION ( 'NONE',  ( -1.206665185214025874E-16, 1.000000000000000000, -0.000000000000000000 ) ) ;
#127 =( NAMED_UNIT ( * ) SI_UNIT ( $, .STERADIAN. ) SOLID_ANGLE_UNIT ( ) );
#128 = SURFACE_STYLE_USAGE ( .BOTH. , #275 ) ;
#129 = DIRECTION ( 'NONE',  ( 1.000000000000000000, 1.206665185214025874E-16, 0.000000000000000000 ) ) ;
#130 = CLOSED_SHELL ( 'NONE', ( #269, #244, #60, #170 ) ) ;
#131 = PRESENTATION_LAYER_ASSIGNMENT (  '', '', ( #190 ) ) ;
#132 = FILL_AREA_STYLE ('',( #257 ) ) ;
#133 = EDGE_CURVE ( 'NONE', #53, #151, #124, .T. ) ;
#134 = VERTEX_POINT ( 'NONE', #300 ) ;
#135 = FACE_OUTER_BOUND ( 'NONE', #157, .T. ) ;
#136 = CARTESIAN_POINT ( 'NONE',  ( 0.2499999999999999722, 3.000000000000000444, 3.061616997868383018E-17 ) ) ;
#137 = PRESENTATION_LAYER_ASSIGNMENT (  '', '', ( #184 ) ) ;
#138 =( NAMED_UNIT ( * ) SI_UNIT ( $, .STERADIAN. ) SOLID_ANGLE_UNIT ( ) );
#139 =( NAMED_UNIT ( * ) SI_UNIT ( $, .STERADIAN. ) SOLID_ANGLE_UNIT ( ) );
#140 = DIRECTION ( 'NONE',  ( -9.808453778935677663E-34, 1.000000000000000000, 0.000000000000000000 ) ) ;
#141 = UNCERTAINTY_MEASURE_WITH_UNIT (LENGTH_MEASURE( 1.000000000000000082E-05 ), #251, 'distance_accuracy_value', 'NONE');
#142 = PRESENTATION_LAYER_ASSIGNMENT (  '', '', ( #287 ) ) ;
#143 =( GEOMETRIC_REPRESENTATION_CONTEXT ( 3 ) GLOBAL_UNCERTAINTY_ASSIGNED_CONTEXT ( ( #18 ) ) GLOBAL_UNIT_ASSIGNED_CONTEXT ( ( #86, #41, #242 ) ) REPRESENTATION_CONTEXT ( 'NONE', 'WORKASPACE' ) );
#144 = EDGE_CURVE ( 'NONE', #272, #198, #85, .T. ) ;
#145 = AXIS2_PLACEMENT_3D ( 'NONE', #235, #102, #187 ) ;
#146 = STYLED_ITEM ( 'NONE', ( #103 ), #244 ) ;
#147 = ORIENTED_EDGE ( 'NONE', *, *, #289, .F. ) ;
#148 = FILL_AREA_STYLE_COLOUR ( '', #286 ) ;
#149 = DIMENSIONAL_EXPONENTS ( 1.000000000000000000, 0.000000000000000000, 0.000000000000000000, 0.000000000000000000, 0.000000000000000000, 0.000000000000000000, 0.000000000000000000 ) ;
#150 = CARTESIAN_POINT ( 'NONE',  ( 0.2499999999999999722, 3.000000000000000444, 0.000000000000000000 ) ) ;
#151 = VERTEX_POINT ( 'NONE', #281 ) ;
#152 =( NAMED_UNIT ( * ) SI_UNIT ( $, .STERADIAN. ) SOLID_ANGLE_UNIT ( ) );
#153 = CARTESIAN_POINT ( 'NONE',  ( 2.716169159564024159E-16, 0.2415773655164111799, 0.000000000000000000 ) ) ;
#154 =( LENGTH_UNIT ( ) NAMED_UNIT ( * ) SI_UNIT ( $, .METRE. ) );
#155 = MANIFOLD_SOLID_BREP ( 'Revolve - Tool Body (Tipped Off)', #303 ) ;
#156 = CARTESIAN_POINT ( 'NONE',  ( -0.04000000000000000083, -7.846763023148542985E-35, 0.000000000000000000 ) ) ;
#157 = EDGE_LOOP ( 'NONE', ( #70, #84, #176, #147 ) ) ;
#158 = PRESENTATION_STYLE_ASSIGNMENT (( #241 ) ) ;
#159 = FILL_AREA_STYLE ('',( #282 ) ) ;
#160 = VERTEX_POINT ( 'NONE', #284 ) ;
#161 = SURFACE_SIDE_STYLE ('',( #258 ) ) ;
#162 = LINE ( 'NONE', #194, #195 ) ;
#163 = FILL_AREA_STYLE ('',( #10 ) ) ;
#164 = AXIS2_PLACEMENT_3D ( 'NONE', #200, #225, #6 ) ;
#165 = PRODUCT_DEFINITION ( 'UNKNOWN', '', #64, #292 ) ;
#166 = LENGTH_MEASURE_WITH_UNIT ( LENGTH_MEASURE( 0.02539999999999999897 ), #214 );
#167 = PRESENTATION_STYLE_ASSIGNMENT (( #44 ) ) ;
#168 = DIRECTION ( 'NONE',  ( -1.000000000000000000, 0.000000000000000000, 0.000000000000000000 ) ) ;
#169 = STYLED_ITEM ( 'NONE', ( #261 ), #170 ) ;
#170 = ADVANCED_FACE ( 'NONE', ( #233 ), #15, .T. ) ;
#171 = DIRECTION ( 'NONE',  ( 1.000000000000000000, 0.000000000000000000, 0.000000000000000000 ) ) ;
#172 = AXIS2_PLACEMENT_3D ( 'NONE', #105, #236, #213 ) ;
#173 = PRESENTATION_LAYER_ASSIGNMENT (  '', '', ( #146 ) ) ;
#174 = UNCERTAINTY_MEASURE_WITH_UNIT (LENGTH_MEASURE( 1.000000000000000082E-05 ), #179, 'distance_accuracy_value', 'NONE');
#175 = DIRECTION ( 'NONE',  ( -9.808453778935677663E-34, 1.000000000000000000, 0.000000000000000000 ) ) ;
#176 = ORIENTED_EDGE ( 'NONE', *, *, #277, .F. ) ;
#177 = ORIENTED_EDGE ( 'NONE', *, *, #277, .T. ) ;
#178 = PRODUCT_RELATED_PRODUCT_CATEGORY ( 'part', '', ( #19 ) ) ;
#179 =( CONVERSION_BASED_UNIT ( 'INCH', #74 ) LENGTH_UNIT ( ) NAMED_UNIT ( #249 ) );
#180 = PLANE ( 'NONE',  #298 ) ;
#181 =( LENGTH_UNIT ( ) NAMED_UNIT ( * ) SI_UNIT ( $, .METRE. ) );
#182 = EDGE_CURVE ( 'NONE', #134, #272, #299, .T. ) ;
#183 = ORIENTED_EDGE ( 'NONE', *, *, #234, .T. ) ;
#184 = STYLED_ITEM ( 'NONE', ( #66 ), #155 ) ;
#185 = SURFACE_STYLE_USAGE ( .BOTH. , #161 ) ;
#186 = SURFACE_STYLE_FILL_AREA ( #159 ) ;
#187 = DIRECTION ( 'NONE',  ( 1.000000000000000000, 9.808453778935679373E-34, 0.000000000000000000 ) ) ;
#188 = DIRECTION ( 'NONE',  ( -1.206665185214025874E-16, 1.000000000000000000, -0.000000000000000000 ) ) ;
#189 = DIRECTION ( 'NONE',  ( -1.000000000000000000, 0.000000000000000000, 0.000000000000000000 ) ) ;
#190 = STYLED_ITEM ( 'NONE', ( #206 ), #265 ) ;
#191 = UNCERTAINTY_MEASURE_WITH_UNIT (LENGTH_MEASURE( 1.000000000000000082E-05 ), #117, 'distance_accuracy_value', 'NONE');
#192 = DIRECTION ( 'NONE',  ( 9.808453778935677663E-34, -1.000000000000000000, -0.000000000000000000 ) ) ;
#193 =( NAMED_UNIT ( * ) PLANE_ANGLE_UNIT ( ) SI_UNIT ( $, .RADIAN. ) );
#194 = CARTESIAN_POINT ( 'NONE',  ( -0.2499999999999999167, 3.000000000000000444, 0.000000000000000000 ) ) ;
#195 = VECTOR ( 'NONE', #14, 39.37007874015748143 ) ;
#196 = COLOUR_RGB ( '',0.7921568627450980005, 0.8196078431372548767, 0.9333333333333333481 ) ;
#197 = PRODUCT_CONTEXT ( 'NONE', #273, 'mechanical' ) ;
#198 = VERTEX_POINT ( 'NONE', #136 ) ;
#199 = ORIENTED_EDGE ( 'NONE', *, *, #133, .T. ) ;
#200 = CARTESIAN_POINT ( 'NONE',  ( -2.369500423704768587E-34, 0.2415773655164111799, 0.000000000000000000 ) ) ;
#201 = FILL_AREA_STYLE ('',( #77 ) ) ;
#202 = APPLICATION_CONTEXT ( 'automotive_design' ) ;
#203 = MECHANICAL_DESIGN_GEOMETRIC_PRESENTATION_REPRESENTATION (  '', ( #169 ), #35 ) ;
#204 = CARTESIAN_POINT ( 'NONE',  ( 0.04000000000000000083, 0.000000000000000000, 4.898587196589413537E-18 ) ) ;
#205 = DIMENSIONAL_EXPONENTS ( 1.000000000000000000, 0.000000000000000000, 0.000000000000000000, 0.000000000000000000, 0.000000000000000000, 0.000000000000000000, 0.000000000000000000 ) ;
#206 = PRESENTATION_STYLE_ASSIGNMENT (( #52 ) ) ;
#207 = CARTESIAN_POINT ( 'NONE',  ( 3.848230621340703528E-68, -3.923381511574271493E-35, 0.000000000000000000 ) ) ;
#208 = EDGE_LOOP ( 'NONE', ( #93, #110 ) ) ;
#209 = CARTESIAN_POINT ( 'NONE',  ( 1.924115310670351764E-68, -1.961690755787135746E-35, 0.000000000000000000 ) ) ;
#210 = ORIENTED_EDGE ( 'NONE', *, *, #82, .T. ) ;
#211 = EDGE_LOOP ( 'NONE', ( #210, #24 ) ) ;
#212 = SURFACE_SIDE_STYLE ('',( #99 ) ) ;
#213 = DIRECTION ( 'NONE',  ( 1.000000000000000000, 0.000000000000000000, 0.000000000000000000 ) ) ;
#214 =( LENGTH_UNIT ( ) NAMED_UNIT ( * ) SI_UNIT ( $, .METRE. ) );
#215 = CYLINDRICAL_SURFACE ( 'NONE', #228, 0.2499999999999998612 ) ;
#216 = ADVANCED_FACE ( 'NONE', ( #13 ), #302, .F. ) ;
#217 = CARTESIAN_POINT ( 'NONE',  ( 3.848230621340703528E-68, -3.923381511574271493E-35, 0.000000000000000000 ) ) ;
#218 = ORIENTED_EDGE ( 'NONE', *, *, #144, .F. ) ;
#219 = PRESENTATION_LAYER_ASSIGNMENT (  '', '', ( #305 ) ) ;
#220 = DIRECTION ( 'NONE',  ( 1.206665185214025874E-16, -1.000000000000000000, 0.000000000000000000 ) ) ;
#221 = CARTESIAN_POINT ( 'NONE',  ( 3.848230621340703528E-68, -3.923381511574271493E-35, 0.000000000000000000 ) ) ;
#222 = VECTOR ( 'NONE', #252, 39.37007874015748143 ) ;
#223 = UNCERTAINTY_MEASURE_WITH_UNIT (LENGTH_MEASURE( 1.000000000000000082E-05 ), #115, 'distance_accuracy_value', 'NONE');
#224 = DIMENSIONAL_EXPONENTS ( 1.000000000000000000, 0.000000000000000000, 0.000000000000000000, 0.000000000000000000, 0.000000000000000000, 0.000000000000000000, 0.000000000000000000 ) ;
#225 = DIRECTION ( 'NONE',  ( 9.808453778935677663E-34, -1.000000000000000000, -0.000000000000000000 ) ) ;
#226 = CARTESIAN_POINT ( 'NONE',  ( 0.04000000000000000083, 0.000000000000000000, 1.775737858763661608E-17 ) ) ;
#227 = AXIS2_PLACEMENT_3D ( 'NONE', #221, #33, #122 ) ;
#228 = AXIS2_PLACEMENT_3D ( 'NONE', #239, #262, #168 ) ;
#229 = DIRECTION ( 'NONE',  ( 9.808453778935677663E-34, -1.000000000000000000, -0.000000000000000000 ) ) ;
#230 = ORIENTED_EDGE ( 'NONE', *, *, #34, .F. ) ;
#231 = SURFACE_SIDE_STYLE ('',( #61 ) ) ;
#232 = CARTESIAN_POINT ( 'NONE',  ( -6.123233995736772199E-17, 3.000000000000000444, 0.000000000000000000 ) ) ;
#233 = FACE_OUTER_BOUND ( 'NONE', #211, .T. ) ;
#234 = EDGE_CURVE ( 'NONE', #39, #53, #31, .T. ) ;
#235 = CARTESIAN_POINT ( 'NONE',  ( 3.848230621340703528E-68, -3.923381511574271493E-35, 0.000000000000000000 ) ) ;
#236 = DIRECTION ( 'NONE',  ( 9.808453778935677663E-34, -1.000000000000000000, -0.000000000000000000 ) ) ;
#237 = AXIS2_PLACEMENT_3D ( 'NONE', #16, #112, #57 ) ;
#238 = FILL_AREA_STYLE_COLOUR ( '', #196 ) ;
#239 = CARTESIAN_POINT ( 'NONE',  ( -6.123233995736772199E-17, 3.000000000000000444, 0.000000000000000000 ) ) ;
#240 = CARTESIAN_POINT ( 'NONE',  ( 0.2499999999999999722, 0.2415773655164114020, 3.061616997868383018E-17 ) ) ;
#241 = SURFACE_STYLE_USAGE ( .BOTH. , #212 ) ;
#242 =( NAMED_UNIT ( * ) SI_UNIT ( $, .STERADIAN. ) SOLID_ANGLE_UNIT ( ) );
#243 = ORIENTED_EDGE ( 'NONE', *, *, #234, .F. ) ;
#244 = ADVANCED_FACE ( 'NONE', ( #120 ), #69, .T. ) ;
#245 = ADVANCED_BREP_SHAPE_REPRESENTATION ( '84606', ( #265, #155, #21 ), #295 ) ;
#246 = FILL_AREA_STYLE ('',( #148 ) ) ;
#247 = LENGTH_MEASURE_WITH_UNIT ( LENGTH_MEASURE( 0.02539999999999999897 ), #114 );
#248 = ORIENTED_EDGE ( 'NONE', *, *, #290, .F. ) ;
#249 = DIMENSIONAL_EXPONENTS ( 1.000000000000000000, 0.000000000000000000, 0.000000000000000000, 0.000000000000000000, 0.000000000000000000, 0.000000000000000000, 0.000000000000000000 ) ;
#250 =( GEOMETRIC_REPRESENTATION_CONTEXT ( 3 ) GLOBAL_UNCERTAINTY_ASSIGNED_CONTEXT ( ( #191 ) ) GLOBAL_UNIT_ASSIGNED_CONTEXT ( ( #117, #193, #152 ) ) REPRESENTATION_CONTEXT ( 'NONE', 'WORKASPACE' ) );
#251 =( CONVERSION_BASED_UNIT ( 'INCH', #48 ) LENGTH_UNIT ( ) NAMED_UNIT ( #205 ) );
#252 = DIRECTION ( 'NONE',  ( 0.6560590289905083861, 0.7547095802227710148, 8.034405899049467357E-17 ) ) ;
#253 = CARTESIAN_POINT ( 'NONE',  ( -0.04000000000000000083, -7.846763023148542985E-35, 0.000000000000000000 ) ) ;
#254 = FACE_OUTER_BOUND ( 'NONE', #56, .T. ) ;
#255 = DIRECTION ( 'NONE',  ( -0.6560590289905083861, 0.7547095802227710148, 0.000000000000000000 ) ) ;
#256 = MECHANICAL_DESIGN_GEOMETRIC_PRESENTATION_REPRESENTATION (  '', ( #146 ), #308 ) ;
#257 = FILL_AREA_STYLE_COLOUR ( '', #68 ) ;
#258 = SURFACE_STYLE_FILL_AREA ( #113 ) ;
#259 = VERTEX_POINT ( 'NONE', #226 ) ;
#260 = ORIENTED_EDGE ( 'NONE', *, *, #290, .T. ) ;
#261 = PRESENTATION_STYLE_ASSIGNMENT (( #109 ) ) ;
#262 = DIRECTION ( 'NONE',  ( -1.206665185214025874E-16, 1.000000000000000000, -0.000000000000000000 ) ) ;
#263 = AXIS2_PLACEMENT_3D ( 'NONE', #278, #175, #100 ) ;
#264 = FACE_OUTER_BOUND ( 'NONE', #28, .T. ) ;
#265 = MANIFOLD_SOLID_BREP ( 'Revolve - Cutting Edge', #130 ) ;
#266 = UNCERTAINTY_MEASURE_WITH_UNIT (LENGTH_MEASURE( 1.000000000000000082E-05 ), #65, 'distance_accuracy_value', 'NONE');
#267 = SURFACE_SIDE_STYLE ('',( #186 ) ) ;
#268 = ADVANCED_FACE ( 'NONE', ( #264 ), #215, .T. ) ;
#269 = ADVANCED_FACE ( 'NONE', ( #63 ), #119, .T. ) ;
#270 = SURFACE_STYLE_FILL_AREA ( #201 ) ;
#271 = APPLICATION_PROTOCOL_DEFINITION ( 'draft international standard', 'automotive_design', 1998, #202 ) ;
#272 = VERTEX_POINT ( 'NONE', #240 ) ;
#273 = APPLICATION_CONTEXT ( 'automotive_design' ) ;
#274 = MECHANICAL_DESIGN_GEOMETRIC_PRESENTATION_REPRESENTATION (  '', ( #287 ), #250 ) ;
#275 = SURFACE_SIDE_STYLE ('',( #270 ) ) ;
#276 = AXIS2_PLACEMENT_3D ( 'NONE', #153, #309, #32 ) ;
#277 = EDGE_CURVE ( 'NONE', #160, #198, #12, .T. ) ;
#278 = CARTESIAN_POINT ( 'NONE',  ( -2.369500423704768587E-34, 0.2415773655164111799, 0.000000000000000000 ) ) ;
#279 = ORIENTED_EDGE ( 'NONE', *, *, #82, .F. ) ;
#280 = ORIENTED_EDGE ( 'NONE', *, *, #90, .F. ) ;
#281 = CARTESIAN_POINT ( 'NONE',  ( 0.2499999999999999167, 0.2415773655164111799, 3.061616997868382402E-17 ) ) ;
#282 = FILL_AREA_STYLE_COLOUR ( '', #89 ) ;
#283 = DIRECTION ( 'NONE',  ( -1.000000000000000000, 0.000000000000000000, 0.000000000000000000 ) ) ;
#284 = CARTESIAN_POINT ( 'NONE',  ( -0.2500000000000001110, 3.000000000000000444, 0.000000000000000000 ) ) ;
#285 =( NAMED_UNIT ( * ) PLANE_ANGLE_UNIT ( ) SI_UNIT ( $, .RADIAN. ) );
#286 = COLOUR_RGB ( '',0.7921568627450980005, 0.8196078431372548767, 0.9333333333333333481 ) ;
#287 = STYLED_ITEM ( 'NONE', ( #158 ), #60 ) ;
#288 = COLOUR_RGB ( '',1.000000000000000000, 0.000000000000000000, 0.000000000000000000 ) ;
#289 = EDGE_CURVE ( 'NONE', #134, #160, #162, .T. ) ;
#290 = EDGE_CURVE ( 'NONE', #272, #134, #43, .T. ) ;
#291 = EDGE_LOOP ( 'NONE', ( #230, #9, #22, #243 ) ) ;
#292 = PRODUCT_DEFINITION_CONTEXT ( 'detailed design', #202, 'design' ) ;
#293 =( NAMED_UNIT ( * ) SI_UNIT ( $, .STERADIAN. ) SOLID_ANGLE_UNIT ( ) );
#294 = PRESENTATION_LAYER_ASSIGNMENT (  '', '', ( #169 ) ) ;
#295 =( GEOMETRIC_REPRESENTATION_CONTEXT ( 3 ) GLOBAL_UNCERTAINTY_ASSIGNED_CONTEXT ( ( #304 ) ) GLOBAL_UNIT_ASSIGNED_CONTEXT ( ( #25, #71, #293 ) ) REPRESENTATION_CONTEXT ( 'NONE', 'WORKASPACE' ) );
#296 = DIRECTION ( 'NONE',  ( -1.000000000000000000, 0.000000000000000000, 0.000000000000000000 ) ) ;
#297 = LENGTH_MEASURE_WITH_UNIT ( LENGTH_MEASURE( 0.02539999999999999897 ), #116 );
#298 = AXIS2_PLACEMENT_3D ( 'NONE', #150, #220, #129 ) ;
#299 = CIRCLE ( 'NONE', #125, 0.2499999999999996947 ) ;
#300 = CARTESIAN_POINT ( 'NONE',  ( -0.2499999999999994171, 0.2415773655164113187, 0.000000000000000000 ) ) ;
#301 = ORIENTED_EDGE ( 'NONE', *, *, #289, .T. ) ;
#302 = PLANE ( 'NONE',  #276 ) ;
#303 = CLOSED_SHELL ( 'NONE', ( #30, #216, #268, #67 ) ) ;
#304 = UNCERTAINTY_MEASURE_WITH_UNIT (LENGTH_MEASURE( 1.000000000000000082E-05 ), #25, 'distance_accuracy_value', 'NONE');
#305 = STYLED_ITEM ( 'NONE', ( #167 ), #269 ) ;
#306 = DIRECTION ( 'NONE',  ( 1.000000000000000000, 9.808453778935677663E-34, 0.000000000000000000 ) ) ;
#307 = LENGTH_MEASURE_WITH_UNIT ( LENGTH_MEASURE( 0.02539999999999999897 ), #59 );
#308 =( GEOMETRIC_REPRESENTATION_CONTEXT ( 3 ) GLOBAL_UNCERTAINTY_ASSIGNED_CONTEXT ( ( #174 ) ) GLOBAL_UNIT_ASSIGNED_CONTEXT ( ( #179, #5, #127 ) ) REPRESENTATION_CONTEXT ( 'NONE', 'WORKASPACE' ) );
#309 = DIRECTION ( 'NONE',  ( -1.206665185214025874E-16, 1.000000000000000000, 0.000000000000000000 ) ) ;
ENDSEC;
END-ISO-10303-21;
