ISO-10303-21;
HEADER;
FILE_DESCRIPTION (( 'STEP AP214' ),
    '1' );
FILE_NAME ('82454.STEP',
    '2023-06-30T22:38:50',
    ( '' ),
    ( '' ),
    'SwSTEP 2.0',
    'SolidWorks 2023',
    '' );
FILE_SCHEMA (( 'AUTOMOTIVE_DESIGN' ));
ENDSEC;

DATA;
#1 = CARTESIAN_POINT ( 'NONE',  ( 0.000000000000000000, 0.06250000000000001388, 0.000000000000000000 ) ) ;
#2 = LENGTH_MEASURE_WITH_UNIT ( LENGTH_MEASURE( 0.02539999999999999897 ), #370 );
#3 = CARTESIAN_POINT ( 'NONE',  ( 7.654042494670959086E-18, 0.06250000000000001388, 0.06250000000000001388 ) ) ;
#4 = ADVANCED_FACE ( 'NONE', ( #316 ), #151, .T. ) ;
#5 =( CONVERSION_BASED_UNIT ( 'INCH', #122 ) LENGTH_UNIT ( ) NAMED_UNIT ( #355 ) );
#6 = PRESENTATION_LAYER_ASSIGNMENT (  '', '', ( #197 ) ) ;
#7 = SURFACE_STYLE_USAGE ( .BOTH. , #261 ) ;
#8 = EDGE_LOOP ( 'NONE', ( #203, #296 ) ) ;
#9 =( NAMED_UNIT ( * ) PLANE_ANGLE_UNIT ( ) SI_UNIT ( $, .RADIAN. ) );
#10 = FILL_AREA_STYLE_COLOUR ( '', #338 ) ;
#11 = SURFACE_STYLE_FILL_AREA ( #267 ) ;
#12 = EDGE_CURVE ( 'NONE', #22, #305, #82, .T. ) ;
#13 = AXIS2_PLACEMENT_3D ( 'NONE', #257, #306, #254 ) ;
#14 =( CONVERSION_BASED_UNIT ( 'INCH', #34 ) LENGTH_UNIT ( ) NAMED_UNIT ( #275 ) );
#15 = DIRECTION ( 'NONE',  ( 0.000000000000000000, 0.000000000000000000, -1.000000000000000000 ) ) ;
#16 =( NAMED_UNIT ( * ) SI_UNIT ( $, .STERADIAN. ) SOLID_ANGLE_UNIT ( ) );
#17 = DIMENSIONAL_EXPONENTS ( 1.000000000000000000, 0.000000000000000000, 0.000000000000000000, 0.000000000000000000, 0.000000000000000000, 0.000000000000000000, 0.000000000000000000 ) ;
#18 =( GEOMETRIC_REPRESENTATION_CONTEXT ( 3 ) GLOBAL_UNCERTAINTY_ASSIGNED_CONTEXT ( ( #320 ) ) GLOBAL_UNIT_ASSIGNED_CONTEXT ( ( #131, #250, #16 ) ) REPRESENTATION_CONTEXT ( 'NONE', 'WORKASPACE' ) );
#19 = MECHANICAL_DESIGN_GEOMETRIC_PRESENTATION_REPRESENTATION (  '', ( #251 ), #166 ) ;
#20 = DIRECTION ( 'NONE',  ( -0.000000000000000000, -1.000000000000000000, -0.000000000000000000 ) ) ;
#21 = VERTEX_POINT ( 'NONE', #321 ) ;
#22 = VERTEX_POINT ( 'NONE', #271 ) ;
#23 = PRODUCT_DEFINITION_SHAPE ( 'NONE', 'NONE',  #133 ) ;
#24 = CARTESIAN_POINT ( 'NONE',  ( -7.654042494670957545E-18, 0.06250000000000001388, 0.000000000000000000 ) ) ;
#25 = AXIS2_PLACEMENT_3D ( 'NONE', #89, #207, #173 ) ;
#26 = EDGE_LOOP ( 'NONE', ( #218, #206 ) ) ;
#27 = LINE ( 'NONE', #31, #270 ) ;
#28 = CYLINDRICAL_SURFACE ( 'NONE', #13, 0.06249999999999997918 ) ;
#29 = FILL_AREA_STYLE_COLOUR ( '', #331 ) ;
#30 = AXIS2_PLACEMENT_3D ( 'NONE', #113, #169, #269 ) ;
#31 = CARTESIAN_POINT ( 'NONE',  ( 7.654042494670956004E-18, 0.000000000000000000, 0.06249999999999997918 ) ) ;
#32 = CARTESIAN_POINT ( 'NONE',  ( -0.06249999999999932693, 2.500000000000000000, 0.000000000000000000 ) ) ;
#33 = FILL_AREA_STYLE_COLOUR ( '', #364 ) ;
#34 = LENGTH_MEASURE_WITH_UNIT ( LENGTH_MEASURE( 0.02539999999999999897 ), #150 );
#35 = MECHANICAL_DESIGN_GEOMETRIC_PRESENTATION_REPRESENTATION (  '', ( #197 ), #245 ) ;
#36 = APPLICATION_PROTOCOL_DEFINITION ( 'draft international standard', 'automotive_design', 1998, #349 ) ;
#37 = LENGTH_MEASURE_WITH_UNIT ( LENGTH_MEASURE( 0.02539999999999999897 ), #319 );
#38 = SURFACE_STYLE_USAGE ( .BOTH. , #212 ) ;
#39 = SURFACE_STYLE_FILL_AREA ( #94 ) ;
#40 = ORIENTED_EDGE ( 'NONE', *, *, #199, .T. ) ;
#41 = DIRECTION ( 'NONE',  ( -1.413016396060390666E-16, 1.000000000000000000, -0.000000000000000000 ) ) ;
#42 = FACE_OUTER_BOUND ( 'NONE', #86, .T. ) ;
#43 = CARTESIAN_POINT ( 'NONE',  ( 0.06249999999999981959, 2.500000000000000000, 7.654042494670905160E-18 ) ) ;
#44 = DIRECTION ( 'NONE',  ( 0.000000000000000000, 0.000000000000000000, -1.000000000000000000 ) ) ;
#45 =( CONVERSION_BASED_UNIT ( 'INCH', #189 ) LENGTH_UNIT ( ) NAMED_UNIT ( #73 ) );
#46 = STYLED_ITEM ( 'NONE', ( #285 ), #171 ) ;
#47 = CARTESIAN_POINT ( 'NONE',  ( 0.000000000000000000, 0.6250000000000000000, 0.000000000000000000 ) ) ;
#48 = DIMENSIONAL_EXPONENTS ( 1.000000000000000000, 0.000000000000000000, 0.000000000000000000, 0.000000000000000000, 0.000000000000000000, 0.000000000000000000, 0.000000000000000000 ) ;
#49 = LENGTH_MEASURE_WITH_UNIT ( LENGTH_MEASURE( 0.02539999999999999897 ), #302 );
#50 = ORIENTED_EDGE ( 'NONE', *, *, #222, .F. ) ;
#51 = CYLINDRICAL_SURFACE ( 'NONE', #372, 0.06249999999999956979 ) ;
#52 = EDGE_LOOP ( 'NONE', ( #147, #292, #107, #142, #360 ) ) ;
#53 = DIRECTION ( 'NONE',  ( -1.000000000000000000, 0.000000000000000000, 0.000000000000000000 ) ) ;
#54 = SURFACE_SIDE_STYLE ('',( #367 ) ) ;
#55 = COLOUR_RGB ( '',0.7921568627450980005, 0.8196078431372548767, 0.9333333333333333481 ) ;
#56 = EDGE_LOOP ( 'NONE', ( #299, #248, #366, #190 ) ) ;
#57 = CIRCLE ( 'NONE', #159, 0.06249999999999995143 ) ;
#58 = CYLINDRICAL_SURFACE ( 'NONE', #30, 0.06249999999999956979 ) ;
#59 = DIRECTION ( 'NONE',  ( -1.413016396060390666E-16, 1.000000000000000000, -0.000000000000000000 ) ) ;
#60 = FILL_AREA_STYLE ('',( #118 ) ) ;
#61 = FILL_AREA_STYLE_COLOUR ( '', #132 ) ;
#62 = ORIENTED_EDGE ( 'NONE', *, *, #91, .T. ) ;
#63 = AXIS2_PLACEMENT_3D ( 'NONE', #47, #304, #361 ) ;
#64 = PRESENTATION_LAYER_ASSIGNMENT (  '', '', ( #262 ) ) ;
#65 = CARTESIAN_POINT ( 'NONE',  ( 5.098699340907939775E-16, 0.6250000000000000000, 0.000000000000000000 ) ) ;
#66 = DIRECTION ( 'NONE',  ( 0.000000000000000000, 0.000000000000000000, 1.000000000000000000 ) ) ;
#67 = VERTEX_POINT ( 'NONE', #115 ) ;
#68 = EDGE_CURVE ( 'NONE', #307, #79, #318, .T. ) ;
#69 = CIRCLE ( 'NONE', #371, 0.06250000000000001388 ) ;
#70 = AXIS2_PLACEMENT_3D ( 'NONE', #24, #224, #83 ) ;
#71 = MANIFOLD_SOLID_BREP ( 'Revolve - Tool Body (Straight Shanked)', #216 ) ;
#72 = DIRECTION ( 'NONE',  ( -1.000000000000000000, 0.000000000000000000, 0.000000000000000000 ) ) ;
#73 = DIMENSIONAL_EXPONENTS ( 1.000000000000000000, 0.000000000000000000, 0.000000000000000000, 0.000000000000000000, 0.000000000000000000, 0.000000000000000000, 0.000000000000000000 ) ;
#74 = PRESENTATION_STYLE_ASSIGNMENT (( #281 ) ) ;
#75 =( LENGTH_UNIT ( ) NAMED_UNIT ( * ) SI_UNIT ( $, .METRE. ) );
#76 = PRESENTATION_LAYER_ASSIGNMENT (  '', '', ( #236 ) ) ;
#77 = AXIS2_PLACEMENT_3D ( 'NONE', #1, #290, #146 ) ;
#78 = ADVANCED_FACE ( 'NONE', ( #42 ), #243, .T. ) ;
#79 = VERTEX_POINT ( 'NONE', #278 ) ;
#80 = ORIENTED_EDGE ( 'NONE', *, *, #222, .T. ) ;
#81 = DIRECTION ( 'NONE',  ( -0.000000000000000000, -1.000000000000000000, -0.000000000000000000 ) ) ;
#82 = CIRCLE ( 'NONE', #287, 0.06250000000000001388 ) ;
#83 = DIRECTION ( 'NONE',  ( -1.000000000000000000, 0.000000000000000000, 0.000000000000000000 ) ) ;
#84 = DIRECTION ( 'NONE',  ( 1.000000000000000000, 0.000000000000000000, -1.224646799147353207E-16 ) ) ;
#85 = PRESENTATION_STYLE_ASSIGNMENT (( #7 ) ) ;
#86 = EDGE_LOOP ( 'NONE', ( #165, #214 ) ) ;
#87 = VECTOR ( 'NONE', #81, 39.37007874015748143 ) ;
#88 =( NAMED_UNIT ( * ) PLANE_ANGLE_UNIT ( ) SI_UNIT ( $, .RADIAN. ) );
#89 = CARTESIAN_POINT ( 'NONE',  ( 0.000000000000000000, 0.000000000000000000, 0.000000000000000000 ) ) ;
#90 = DIRECTION ( 'NONE',  ( -0.000000000000000000, -1.000000000000000000, -0.000000000000000000 ) ) ;
#91 = EDGE_CURVE ( 'NONE', #120, #22, #69, .T. ) ;
#92 = CARTESIAN_POINT ( 'NONE',  ( 2.449293598294706907E-16, 2.500000000000000000, 0.000000000000000000 ) ) ;
#93 = DIRECTION ( 'NONE',  ( 0.000000000000000000, 0.000000000000000000, -1.000000000000000000 ) ) ;
#94 = FILL_AREA_STYLE ('',( #10 ) ) ;
#95 = CARTESIAN_POINT ( 'NONE',  ( 0.06249999999999995143, 2.500000000000000000, 0.000000000000000000 ) ) ;
#96 = EDGE_CURVE ( 'NONE', #126, #314, #114, .T. ) ;
#97 = DIRECTION ( 'NONE',  ( -0.000000000000000000, -1.000000000000000000, -0.000000000000000000 ) ) ;
#98 = ADVANCED_BREP_SHAPE_REPRESENTATION ( '82454', ( #330, #71, #25 ), #202 ) ;
#99 = PRESENTATION_LAYER_ASSIGNMENT (  '', '', ( #46 ) ) ;
#100 = CARTESIAN_POINT ( 'NONE',  ( 0.000000000000000000, 0.6250000000000000000, 0.000000000000000000 ) ) ;
#101 = SURFACE_STYLE_USAGE ( .BOTH. , #359 ) ;
#102 = APPLICATION_CONTEXT ( 'automotive_design' ) ;
#103 = PRESENTATION_STYLE_ASSIGNMENT (( #101 ) ) ;
#104 = STYLED_ITEM ( 'NONE', ( #182 ), #71 ) ;
#105 = CIRCLE ( 'NONE', #77, 0.06250000000000001388 ) ;
#106 = CARTESIAN_POINT ( 'NONE',  ( 0.000000000000000000, 0.06250000000000001388, 0.000000000000000000 ) ) ;
#107 = ORIENTED_EDGE ( 'NONE', *, *, #241, .T. ) ;
#108 = SURFACE_STYLE_USAGE ( .BOTH. , #54 ) ;
#109 = DIRECTION ( 'NONE',  ( -1.413016396060390666E-16, 1.000000000000000000, 0.000000000000000000 ) ) ;
#110 = AXIS2_PLACEMENT_3D ( 'NONE', #336, #221, #84 ) ;
#111 = DIRECTION ( 'NONE',  ( -0.000000000000000000, -1.000000000000000000, -0.000000000000000000 ) ) ;
#112 = FILL_AREA_STYLE ('',( #29 ) ) ;
#113 = CARTESIAN_POINT ( 'NONE',  ( 2.449293598294706907E-16, 2.500000000000000000, 0.000000000000000000 ) ) ;
#114 = CIRCLE ( 'NONE', #255, 0.06249999999999995143 ) ;
#115 = CARTESIAN_POINT ( 'NONE',  ( -3.827021247335478002E-18, 0.000000000000000000, 0.000000000000000000 ) ) ;
#116 = VECTOR ( 'NONE', #121, 39.37007874015748143 ) ;
#117 = DIRECTION ( 'NONE',  ( -1.000000000000000000, 0.000000000000000000, 0.000000000000000000 ) ) ;
#118 = FILL_AREA_STYLE_COLOUR ( '', #357 ) ;
#119 = ADVANCED_FACE ( 'NONE', ( #135 ), #195, .T. ) ;
#120 = VERTEX_POINT ( 'NONE', #328 ) ;
#121 = DIRECTION ( 'NONE',  ( -1.413016396060390666E-16, 1.000000000000000000, -0.000000000000000000 ) ) ;
#122 = LENGTH_MEASURE_WITH_UNIT ( LENGTH_MEASURE( 0.02539999999999999897 ), #155 );
#123 = AXIS2_PLACEMENT_3D ( 'NONE', #65, #180, #185 ) ;
#124 = AXIS2_PLACEMENT_3D ( 'NONE', #252, #334, #53 ) ;
#125 =( GEOMETRIC_REPRESENTATION_CONTEXT ( 3 ) GLOBAL_UNCERTAINTY_ASSIGNED_CONTEXT ( ( #232 ) ) GLOBAL_UNIT_ASSIGNED_CONTEXT ( ( #333, #286, #309 ) ) REPRESENTATION_CONTEXT ( 'NONE', 'WORKASPACE' ) );
#126 = VERTEX_POINT ( 'NONE', #164 ) ;
#127 =( CONVERSION_BASED_UNIT ( 'INCH', #273 ) LENGTH_UNIT ( ) NAMED_UNIT ( #161 ) );
#128 = PLANE ( 'NONE',  #312 ) ;
#129 = CARTESIAN_POINT ( 'NONE',  ( 0.000000000000000000, 0.6250000000000000000, 0.000000000000000000 ) ) ;
#130 = DIRECTION ( 'NONE',  ( 1.413016396060390666E-16, -1.000000000000000000, 0.000000000000000000 ) ) ;
#131 =( CONVERSION_BASED_UNIT ( 'INCH', #276 ) LENGTH_UNIT ( ) NAMED_UNIT ( #280 ) );
#132 = COLOUR_RGB ( '',0.7921568627450980005, 0.8196078431372548767, 0.9333333333333333481 ) ;
#133 = PRODUCT_DEFINITION ( 'UNKNOWN', '', #326, #188 ) ;
#134 = ORIENTED_EDGE ( 'NONE', *, *, #91, .F. ) ;
#135 = FACE_OUTER_BOUND ( 'NONE', #170, .T. ) ;
#136 = DIMENSIONAL_EXPONENTS ( 1.000000000000000000, 0.000000000000000000, 0.000000000000000000, 0.000000000000000000, 0.000000000000000000, 0.000000000000000000, 0.000000000000000000 ) ;
#137 = ORIENTED_EDGE ( 'NONE', *, *, #335, .F. ) ;
#138 =( NAMED_UNIT ( * ) PLANE_ANGLE_UNIT ( ) SI_UNIT ( $, .RADIAN. ) );
#139 = MECHANICAL_DESIGN_GEOMETRIC_PRESENTATION_REPRESENTATION (  '', ( #300 ), #227 ) ;
#140 = EDGE_CURVE ( 'NONE', #22, #67, #177, .T. ) ;
#141 = DIRECTION ( 'NONE',  ( 1.000000000000000000, 0.000000000000000000, 0.000000000000000000 ) ) ;
#142 = ORIENTED_EDGE ( 'NONE', *, *, #162, .F. ) ;
#143 = FACE_OUTER_BOUND ( 'NONE', #8, .T. ) ;
#144 = CIRCLE ( 'NONE', #348, 0.06249999999999943795 ) ;
#145 = EDGE_CURVE ( 'NONE', #332, #284, #358, .T. ) ;
#146 = DIRECTION ( 'NONE',  ( 0.000000000000000000, 0.000000000000000000, -1.000000000000000000 ) ) ;
#147 = ORIENTED_EDGE ( 'NONE', *, *, #199, .F. ) ;
#148 = CARTESIAN_POINT ( 'NONE',  ( -7.654042494670957545E-18, 0.06250000000000001388, 0.000000000000000000 ) ) ;
#149 =( LENGTH_UNIT ( ) NAMED_UNIT ( * ) SI_UNIT ( $, .METRE. ) );
#150 =( LENGTH_UNIT ( ) NAMED_UNIT ( * ) SI_UNIT ( $, .METRE. ) );
#151 = CYLINDRICAL_SURFACE ( 'NONE', #158, 0.06249999999999997918 ) ;
#152 = AXIS2_PLACEMENT_3D ( 'NONE', #369, #109, #225 ) ;
#153 = CARTESIAN_POINT ( 'NONE',  ( 0.06249999999999995143, 2.500000000000000000, 7.654042494670914404E-18 ) ) ;
#154 = UNCERTAINTY_MEASURE_WITH_UNIT (LENGTH_MEASURE( 1.000000000000000082E-05 ), #14, 'distance_accuracy_value', 'NONE');
#155 =( LENGTH_UNIT ( ) NAMED_UNIT ( * ) SI_UNIT ( $, .METRE. ) );
#156 = ORIENTED_EDGE ( 'NONE', *, *, #140, .F. ) ;
#157 = CARTESIAN_POINT ( 'NONE',  ( 0.000000000000000000, 0.6250000000000000000, -0.06249999999999995143 ) ) ;
#158 = AXIS2_PLACEMENT_3D ( 'NONE', #229, #208, #265 ) ;
#159 = AXIS2_PLACEMENT_3D ( 'NONE', #100, #97, #15 ) ;
#160 =( NAMED_UNIT ( * ) SI_UNIT ( $, .STERADIAN. ) SOLID_ANGLE_UNIT ( ) );
#161 = DIMENSIONAL_EXPONENTS ( 1.000000000000000000, 0.000000000000000000, 0.000000000000000000, 0.000000000000000000, 0.000000000000000000, 0.000000000000000000, 0.000000000000000000 ) ;
#162 = EDGE_CURVE ( 'NONE', #21, #120, #105, .T. ) ;
#163 = FILL_AREA_STYLE_COLOUR ( '', #191 ) ;
#164 = CARTESIAN_POINT ( 'NONE',  ( 7.654042494670954463E-18, 0.6250000000000000000, 0.06249999999999995143 ) ) ;
#165 = ORIENTED_EDGE ( 'NONE', *, *, #352, .F. ) ;
#166 =( GEOMETRIC_REPRESENTATION_CONTEXT ( 3 ) GLOBAL_UNCERTAINTY_ASSIGNED_CONTEXT ( ( #154 ) ) GLOBAL_UNIT_ASSIGNED_CONTEXT ( ( #14, #88, #174 ) ) REPRESENTATION_CONTEXT ( 'NONE', 'WORKASPACE' ) );
#167 = DIRECTION ( 'NONE',  ( 0.000000000000000000, 0.000000000000000000, 1.000000000000000000 ) ) ;
#168 = MECHANICAL_DESIGN_GEOMETRIC_PRESENTATION_REPRESENTATION (  '', ( #46 ), #125 ) ;
#169 = DIRECTION ( 'NONE',  ( -1.413016396060390666E-16, 1.000000000000000000, -0.000000000000000000 ) ) ;
#170 = EDGE_LOOP ( 'NONE', ( #253, #80, #156, #210 ) ) ;
#171 = ADVANCED_FACE ( 'NONE', ( #258 ), #28, .T. ) ;
#172 = SURFACE_SIDE_STYLE ('',( #39 ) ) ;
#173 = DIRECTION ( 'NONE',  ( 1.000000000000000000, 0.000000000000000000, 0.000000000000000000 ) ) ;
#174 =( NAMED_UNIT ( * ) SI_UNIT ( $, .STERADIAN. ) SOLID_ANGLE_UNIT ( ) );
#175 = PRESENTATION_LAYER_ASSIGNMENT (  '', '', ( #104 ) ) ;
#176 = EDGE_LOOP ( 'NONE', ( #311, #40, #368, #134, #239 ) ) ;
#177 = CIRCLE ( 'NONE', #70, 0.06250000000000001388 ) ;
#178 = FACE_OUTER_BOUND ( 'NONE', #56, .T. ) ;
#179 = UNCERTAINTY_MEASURE_WITH_UNIT (LENGTH_MEASURE( 1.000000000000000082E-05 ), #45, 'distance_accuracy_value', 'NONE');
#180 = DIRECTION ( 'NONE',  ( -1.413016396060390666E-16, 1.000000000000000000, -0.000000000000000000 ) ) ;
#181 = DIRECTION ( 'NONE',  ( 0.000000000000000000, 0.000000000000000000, -1.000000000000000000 ) ) ;
#182 = PRESENTATION_STYLE_ASSIGNMENT (( #323 ) ) ;
#183 =( NAMED_UNIT ( * ) SI_UNIT ( $, .STERADIAN. ) SOLID_ANGLE_UNIT ( ) );
#184 = UNCERTAINTY_MEASURE_WITH_UNIT (LENGTH_MEASURE( 1.000000000000000082E-05 ), #240, 'distance_accuracy_value', 'NONE');
#185 = DIRECTION ( 'NONE',  ( -1.000000000000000000, 0.000000000000000000, 0.000000000000000000 ) ) ;
#186 = LINE ( 'NONE', #43, #365 ) ;
#187 = DIRECTION ( 'NONE',  ( 0.000000000000000000, 0.000000000000000000, -1.000000000000000000 ) ) ;
#188 = PRODUCT_DEFINITION_CONTEXT ( 'detailed design', #102, 'design' ) ;
#189 = LENGTH_MEASURE_WITH_UNIT ( LENGTH_MEASURE( 0.02539999999999999897 ), #75 );
#190 = ORIENTED_EDGE ( 'NONE', *, *, #308, .F. ) ;
#191 = COLOUR_RGB ( '',1.000000000000000000, 0.000000000000000000, 0.000000000000000000 ) ;
#192 =( GEOMETRIC_REPRESENTATION_CONTEXT ( 3 ) GLOBAL_UNCERTAINTY_ASSIGNED_CONTEXT ( ( #179 ) ) GLOBAL_UNIT_ASSIGNED_CONTEXT ( ( #45, #138, #200 ) ) REPRESENTATION_CONTEXT ( 'NONE', 'WORKASPACE' ) );
#193 = ORIENTED_EDGE ( 'NONE', *, *, #373, .F. ) ;
#194 = PRODUCT ( '82454', '82454', '', ( #230 ) ) ;
#195 = SPHERICAL_SURFACE ( 'NONE', #289, 0.06250000000000001388 ) ;
#196 = ORIENTED_EDGE ( 'NONE', *, *, #308, .T. ) ;
#197 = STYLED_ITEM ( 'NONE', ( #353 ), #4 ) ;
#198 = CIRCLE ( 'NONE', #110, 0.06250000000000001388 ) ;
#199 = EDGE_CURVE ( 'NONE', #126, #305, #27, .T. ) ;
#200 =( NAMED_UNIT ( * ) SI_UNIT ( $, .STERADIAN. ) SOLID_ANGLE_UNIT ( ) );
#201 = LINE ( 'NONE', #310, #87 ) ;
#202 =( GEOMETRIC_REPRESENTATION_CONTEXT ( 3 ) GLOBAL_UNCERTAINTY_ASSIGNED_CONTEXT ( ( #242 ) ) GLOBAL_UNIT_ASSIGNED_CONTEXT ( ( #127, #268, #209 ) ) REPRESENTATION_CONTEXT ( 'NONE', 'WORKASPACE' ) );
#203 = ORIENTED_EDGE ( 'NONE', *, *, #272, .F. ) ;
#204 = ADVANCED_FACE ( 'NONE', ( #143 ), #226, .F. ) ;
#205 = FILL_AREA_STYLE ('',( #61 ) ) ;
#206 = ORIENTED_EDGE ( 'NONE', *, *, #335, .T. ) ;
#207 = DIRECTION ( 'NONE',  ( 0.000000000000000000, 0.000000000000000000, 1.000000000000000000 ) ) ;
#208 = DIRECTION ( 'NONE',  ( -0.000000000000000000, -1.000000000000000000, -0.000000000000000000 ) ) ;
#209 =( NAMED_UNIT ( * ) SI_UNIT ( $, .STERADIAN. ) SOLID_ANGLE_UNIT ( ) );
#210 = ORIENTED_EDGE ( 'NONE', *, *, #12, .T. ) ;
#211 = AXIS2_PLACEMENT_3D ( 'NONE', #148, #66, #315 ) ;
#212 = SURFACE_SIDE_STYLE ('',( #324 ) ) ;
#213 =( LENGTH_UNIT ( ) NAMED_UNIT ( * ) SI_UNIT ( $, .METRE. ) );
#214 = ORIENTED_EDGE ( 'NONE', *, *, #96, .F. ) ;
#215 = DIRECTION ( 'NONE',  ( -0.000000000000000000, -1.000000000000000000, -0.000000000000000000 ) ) ;
#216 = CLOSED_SHELL ( 'NONE', ( #329, #204, #249, #341 ) ) ;
#217 = MECHANICAL_DESIGN_GEOMETRIC_PRESENTATION_REPRESENTATION (  '', ( #262 ), #238 ) ;
#218 = ORIENTED_EDGE ( 'NONE', *, *, #145, .T. ) ;
#219 = AXIS2_PLACEMENT_3D ( 'NONE', #260, #90, #181 ) ;
#220 = SURFACE_STYLE_FILL_AREA ( #363 ) ;
#221 = DIRECTION ( 'NONE',  ( 1.224646799147353207E-16, -0.000000000000000000, 1.000000000000000000 ) ) ;
#222 = EDGE_CURVE ( 'NONE', #21, #67, #198, .T. ) ;
#223 = CIRCLE ( 'NONE', #277, 0.06249999999999970163 ) ;
#224 = DIRECTION ( 'NONE',  ( 0.000000000000000000, 0.000000000000000000, -1.000000000000000000 ) ) ;
#225 = DIRECTION ( 'NONE',  ( -1.000000000000000000, -1.413016396060390666E-16, 0.000000000000000000 ) ) ;
#226 = PLANE ( 'NONE',  #152 ) ;
#227 =( GEOMETRIC_REPRESENTATION_CONTEXT ( 3 ) GLOBAL_UNCERTAINTY_ASSIGNED_CONTEXT ( ( #184 ) ) GLOBAL_UNIT_ASSIGNED_CONTEXT ( ( #240, #246, #160 ) ) REPRESENTATION_CONTEXT ( 'NONE', 'WORKASPACE' ) );
#228 = DIRECTION ( 'NONE',  ( -1.000000000000000000, 0.000000000000000000, 0.000000000000000000 ) ) ;
#229 = CARTESIAN_POINT ( 'NONE',  ( 0.000000000000000000, 0.000000000000000000, 0.000000000000000000 ) ) ;
#230 = PRODUCT_CONTEXT ( 'NONE', #349, 'mechanical' ) ;
#231 = CARTESIAN_POINT ( 'NONE',  ( 2.449293598294706907E-16, 2.500000000000000000, 0.000000000000000000 ) ) ;
#232 = UNCERTAINTY_MEASURE_WITH_UNIT (LENGTH_MEASURE( 1.000000000000000082E-05 ), #333, 'distance_accuracy_value', 'NONE');
#233 = CARTESIAN_POINT ( 'NONE',  ( 0.000000000000000000, 0.06250000000000001388, 0.000000000000000000 ) ) ;
#234 =( CONVERSION_BASED_UNIT ( 'INCH', #37 ) LENGTH_UNIT ( ) NAMED_UNIT ( #136 ) );
#235 = MECHANICAL_DESIGN_GEOMETRIC_PRESENTATION_REPRESENTATION (  '', ( #236 ), #192 ) ;
#236 = STYLED_ITEM ( 'NONE', ( #103 ), #119 ) ;
#237 = ORIENTED_EDGE ( 'NONE', *, *, #68, .T. ) ;
#238 =( GEOMETRIC_REPRESENTATION_CONTEXT ( 3 ) GLOBAL_UNCERTAINTY_ASSIGNED_CONTEXT ( ( #274 ) ) GLOBAL_UNIT_ASSIGNED_CONTEXT ( ( #234, #356, #183 ) ) REPRESENTATION_CONTEXT ( 'NONE', 'WORKASPACE' ) );
#239 = ORIENTED_EDGE ( 'NONE', *, *, #241, .F. ) ;
#240 =( CONVERSION_BASED_UNIT ( 'INCH', #49 ) LENGTH_UNIT ( ) NAMED_UNIT ( #17 ) );
#241 = EDGE_CURVE ( 'NONE', #314, #120, #201, .T. ) ;
#242 = UNCERTAINTY_MEASURE_WITH_UNIT (LENGTH_MEASURE( 1.000000000000000082E-05 ), #127, 'distance_accuracy_value', 'NONE');
#243 = PLANE ( 'NONE',  #63 ) ;
#244 = CLOSED_SHELL ( 'NONE', ( #119, #171, #78, #4, #266 ) ) ;
#245 =( GEOMETRIC_REPRESENTATION_CONTEXT ( 3 ) GLOBAL_UNCERTAINTY_ASSIGNED_CONTEXT ( ( #295 ) ) GLOBAL_UNIT_ASSIGNED_CONTEXT ( ( #5, #9, #344 ) ) REPRESENTATION_CONTEXT ( 'NONE', 'WORKASPACE' ) );
#246 =( NAMED_UNIT ( * ) PLANE_ANGLE_UNIT ( ) SI_UNIT ( $, .RADIAN. ) );
#247 = FILL_AREA_STYLE ('',( #163 ) ) ;
#248 = ORIENTED_EDGE ( 'NONE', *, *, #373, .T. ) ;
#249 = ADVANCED_FACE ( 'NONE', ( #337 ), #51, .T. ) ;
#250 =( NAMED_UNIT ( * ) PLANE_ANGLE_UNIT ( ) SI_UNIT ( $, .RADIAN. ) );
#251 = STYLED_ITEM ( 'NONE', ( #313 ), #266 ) ;
#252 = CARTESIAN_POINT ( 'NONE',  ( 2.449293598294706907E-16, 2.500000000000000000, 0.000000000000000000 ) ) ;
#253 = ORIENTED_EDGE ( 'NONE', *, *, #279, .T. ) ;
#254 = DIRECTION ( 'NONE',  ( 0.000000000000000000, 0.000000000000000000, -1.000000000000000000 ) ) ;
#255 = AXIS2_PLACEMENT_3D ( 'NONE', #129, #215, #187 ) ;
#256 = CIRCLE ( 'NONE', #219, 0.06250000000000001388 ) ;
#257 = CARTESIAN_POINT ( 'NONE',  ( 0.000000000000000000, 0.000000000000000000, 0.000000000000000000 ) ) ;
#258 = FACE_OUTER_BOUND ( 'NONE', #176, .T. ) ;
#259 = ORIENTED_EDGE ( 'NONE', *, *, #140, .T. ) ;
#260 = CARTESIAN_POINT ( 'NONE',  ( 0.000000000000000000, 0.06250000000000001388, 0.000000000000000000 ) ) ;
#261 = SURFACE_SIDE_STYLE ('',( #345 ) ) ;
#262 = STYLED_ITEM ( 'NONE', ( #85 ), #330 ) ;
#263 = EDGE_LOOP ( 'NONE', ( #193, #237, #196, #137 ) ) ;
#264 = CARTESIAN_POINT ( 'NONE',  ( 0.06249999999999995143, 0.6250000000000000000, 7.654042494670914404E-18 ) ) ;
#265 = DIRECTION ( 'NONE',  ( 0.000000000000000000, 0.000000000000000000, -1.000000000000000000 ) ) ;
#266 = ADVANCED_FACE ( 'NONE', ( #339 ), #322, .T. ) ;
#267 = FILL_AREA_STYLE ('',( #297 ) ) ;
#268 =( NAMED_UNIT ( * ) PLANE_ANGLE_UNIT ( ) SI_UNIT ( $, .RADIAN. ) );
#269 = DIRECTION ( 'NONE',  ( -1.000000000000000000, 0.000000000000000000, 0.000000000000000000 ) ) ;
#270 = VECTOR ( 'NONE', #111, 39.37007874015748143 ) ;
#271 = CARTESIAN_POINT ( 'NONE',  ( 0.06250000000000001388, 0.06250000000000001388, 0.000000000000000000 ) ) ;
#272 = EDGE_CURVE ( 'NONE', #79, #307, #144, .T. ) ;
#273 = LENGTH_MEASURE_WITH_UNIT ( LENGTH_MEASURE( 0.02539999999999999897 ), #213 );
#274 = UNCERTAINTY_MEASURE_WITH_UNIT (LENGTH_MEASURE( 1.000000000000000082E-05 ), #234, 'distance_accuracy_value', 'NONE');
#275 = DIMENSIONAL_EXPONENTS ( 1.000000000000000000, 0.000000000000000000, 0.000000000000000000, 0.000000000000000000, 0.000000000000000000, 0.000000000000000000, 0.000000000000000000 ) ;
#276 = LENGTH_MEASURE_WITH_UNIT ( LENGTH_MEASURE( 0.02539999999999999897 ), #149 );
#277 = AXIS2_PLACEMENT_3D ( 'NONE', #231, #351, #72 ) ;
#278 = CARTESIAN_POINT ( 'NONE',  ( -0.06249999999999892447, 0.6250000000000000000, 0.000000000000000000 ) ) ;
#279 = EDGE_CURVE ( 'NONE', #305, #21, #256, .T. ) ;
#280 = DIMENSIONAL_EXPONENTS ( 1.000000000000000000, 0.000000000000000000, 0.000000000000000000, 0.000000000000000000, 0.000000000000000000, 0.000000000000000000, 0.000000000000000000 ) ;
#281 = SURFACE_STYLE_USAGE ( .BOTH. , #327 ) ;
#282 = CARTESIAN_POINT ( 'NONE',  ( -7.654042494670957545E-18, 0.06250000000000001388, 0.000000000000000000 ) ) ;
#283 = PRESENTATION_LAYER_ASSIGNMENT (  '', '', ( #300 ) ) ;
#284 = VERTEX_POINT ( 'NONE', #153 ) ;
#285 = PRESENTATION_STYLE_ASSIGNMENT (( #108 ) ) ;
#286 =( NAMED_UNIT ( * ) PLANE_ANGLE_UNIT ( ) SI_UNIT ( $, .RADIAN. ) );
#287 = AXIS2_PLACEMENT_3D ( 'NONE', #233, #346, #93 ) ;
#288 = PRESENTATION_LAYER_ASSIGNMENT (  '', '', ( #251 ) ) ;
#289 = AXIS2_PLACEMENT_3D ( 'NONE', #282, #167, #141 ) ;
#290 = DIRECTION ( 'NONE',  ( -0.000000000000000000, -1.000000000000000000, -0.000000000000000000 ) ) ;
#291 = EDGE_LOOP ( 'NONE', ( #50, #340, #62, #259 ) ) ;
#292 = ORIENTED_EDGE ( 'NONE', *, *, #96, .T. ) ;
#293 = MECHANICAL_DESIGN_GEOMETRIC_PRESENTATION_REPRESENTATION (  '', ( #104 ), #18 ) ;
#294 = SURFACE_STYLE_USAGE ( .BOTH. , #172 ) ;
#295 = UNCERTAINTY_MEASURE_WITH_UNIT (LENGTH_MEASURE( 1.000000000000000082E-05 ), #5, 'distance_accuracy_value', 'NONE');
#296 = ORIENTED_EDGE ( 'NONE', *, *, #68, .F. ) ;
#297 = FILL_AREA_STYLE_COLOUR ( '', #55 ) ;
#298 = DIRECTION ( 'NONE',  ( -1.413016396060390666E-16, 1.000000000000000000, -0.000000000000000000 ) ) ;
#299 = ORIENTED_EDGE ( 'NONE', *, *, #272, .T. ) ;
#300 = STYLED_ITEM ( 'NONE', ( #74 ), #78 ) ;
#301 = FACE_OUTER_BOUND ( 'NONE', #26, .T. ) ;
#302 =( LENGTH_UNIT ( ) NAMED_UNIT ( * ) SI_UNIT ( $, .METRE. ) );
#303 = SURFACE_STYLE_FILL_AREA ( #247 ) ;
#304 = DIRECTION ( 'NONE',  ( 0.000000000000000000, 1.000000000000000000, 0.000000000000000000 ) ) ;
#305 = VERTEX_POINT ( 'NONE', #3 ) ;
#306 = DIRECTION ( 'NONE',  ( -0.000000000000000000, -1.000000000000000000, -0.000000000000000000 ) ) ;
#307 = VERTEX_POINT ( 'NONE', #264 ) ;
#308 = EDGE_CURVE ( 'NONE', #79, #332, #317, .T. ) ;
#309 =( NAMED_UNIT ( * ) SI_UNIT ( $, .STERADIAN. ) SOLID_ANGLE_UNIT ( ) );
#310 = CARTESIAN_POINT ( 'NONE',  ( 0.000000000000000000, 0.000000000000000000, -0.06249999999999997918 ) ) ;
#311 = ORIENTED_EDGE ( 'NONE', *, *, #352, .T. ) ;
#312 = AXIS2_PLACEMENT_3D ( 'NONE', #95, #130, #354 ) ;
#313 = PRESENTATION_STYLE_ASSIGNMENT (( #294 ) ) ;
#314 = VERTEX_POINT ( 'NONE', #157 ) ;
#315 = DIRECTION ( 'NONE',  ( 1.000000000000000000, 0.000000000000000000, 0.000000000000000000 ) ) ;
#316 = FACE_OUTER_BOUND ( 'NONE', #52, .T. ) ;
#317 = LINE ( 'NONE', #32, #116 ) ;
#318 = CIRCLE ( 'NONE', #123, 0.06249999999999943795 ) ;
#319 =( LENGTH_UNIT ( ) NAMED_UNIT ( * ) SI_UNIT ( $, .METRE. ) );
#320 = UNCERTAINTY_MEASURE_WITH_UNIT (LENGTH_MEASURE( 1.000000000000000082E-05 ), #131, 'distance_accuracy_value', 'NONE');
#321 = CARTESIAN_POINT ( 'NONE',  ( -0.06250000000000001388, 0.06250000000000001388, 7.654042494670959086E-18 ) ) ;
#322 = SPHERICAL_SURFACE ( 'NONE', #211, 0.06250000000000001388 ) ;
#323 = SURFACE_STYLE_USAGE ( .BOTH. , #350 ) ;
#324 = SURFACE_STYLE_FILL_AREA ( #60 ) ;
#325 = CARTESIAN_POINT ( 'NONE',  ( -0.06249999999999945183, 2.500000000000000000, 0.000000000000000000 ) ) ;
#326 = PRODUCT_DEFINITION_FORMATION_WITH_SPECIFIED_SOURCE ( 'ANY', '', #194, .NOT_KNOWN. ) ;
#327 = SURFACE_SIDE_STYLE ('',( #220 ) ) ;
#328 = CARTESIAN_POINT ( 'NONE',  ( 0.000000000000000000, 0.06250000000000001388, -0.06250000000000001388 ) ) ;
#329 = ADVANCED_FACE ( 'NONE', ( #178 ), #58, .T. ) ;
#330 = MANIFOLD_SOLID_BREP ( 'Revolve - Cutting Edge', #244 ) ;
#331 = COLOUR_RGB ( '',1.000000000000000000, 0.000000000000000000, 0.000000000000000000 ) ;
#332 = VERTEX_POINT ( 'NONE', #325 ) ;
#333 =( CONVERSION_BASED_UNIT ( 'INCH', #2 ) LENGTH_UNIT ( ) NAMED_UNIT ( #48 ) );
#334 = DIRECTION ( 'NONE',  ( -1.413016396060390666E-16, 1.000000000000000000, -0.000000000000000000 ) ) ;
#335 = EDGE_CURVE ( 'NONE', #284, #332, #223, .T. ) ;
#336 = CARTESIAN_POINT ( 'NONE',  ( -7.654042494670957545E-18, 0.06250000000000001388, 0.000000000000000000 ) ) ;
#337 = FACE_OUTER_BOUND ( 'NONE', #263, .T. ) ;
#338 = COLOUR_RGB ( '',1.000000000000000000, 0.000000000000000000, 0.000000000000000000 ) ;
#339 = FACE_OUTER_BOUND ( 'NONE', #291, .T. ) ;
#340 = ORIENTED_EDGE ( 'NONE', *, *, #162, .T. ) ;
#341 = ADVANCED_FACE ( 'NONE', ( #301 ), #128, .F. ) ;
#342 = SHAPE_DEFINITION_REPRESENTATION ( #23, #98 ) ;
#343 = CARTESIAN_POINT ( 'NONE',  ( 5.098699340907939775E-16, 0.6250000000000000000, 0.000000000000000000 ) ) ;
#344 =( NAMED_UNIT ( * ) SI_UNIT ( $, .STERADIAN. ) SOLID_ANGLE_UNIT ( ) );
#345 = SURFACE_STYLE_FILL_AREA ( #205 ) ;
#346 = DIRECTION ( 'NONE',  ( -0.000000000000000000, -1.000000000000000000, -0.000000000000000000 ) ) ;
#347 = APPLICATION_PROTOCOL_DEFINITION ( 'draft international standard', 'automotive_design', 1998, #102 ) ;
#348 = AXIS2_PLACEMENT_3D ( 'NONE', #343, #59, #117 ) ;
#349 = APPLICATION_CONTEXT ( 'automotive_design' ) ;
#350 = SURFACE_SIDE_STYLE ('',( #11 ) ) ;
#351 = DIRECTION ( 'NONE',  ( -1.413016396060390666E-16, 1.000000000000000000, -0.000000000000000000 ) ) ;
#352 = EDGE_CURVE ( 'NONE', #314, #126, #57, .T. ) ;
#353 = PRESENTATION_STYLE_ASSIGNMENT (( #38 ) ) ;
#354 = DIRECTION ( 'NONE',  ( 1.000000000000000000, 1.413016396060390666E-16, 0.000000000000000000 ) ) ;
#355 = DIMENSIONAL_EXPONENTS ( 1.000000000000000000, 0.000000000000000000, 0.000000000000000000, 0.000000000000000000, 0.000000000000000000, 0.000000000000000000, 0.000000000000000000 ) ;
#356 =( NAMED_UNIT ( * ) PLANE_ANGLE_UNIT ( ) SI_UNIT ( $, .RADIAN. ) );
#357 = COLOUR_RGB ( '',1.000000000000000000, 0.000000000000000000, 0.000000000000000000 ) ;
#358 = CIRCLE ( 'NONE', #124, 0.06249999999999970163 ) ;
#359 = SURFACE_SIDE_STYLE ('',( #303 ) ) ;
#360 = ORIENTED_EDGE ( 'NONE', *, *, #279, .F. ) ;
#361 = DIRECTION ( 'NONE',  ( 0.000000000000000000, -0.000000000000000000, 1.000000000000000000 ) ) ;
#362 = PRODUCT_RELATED_PRODUCT_CATEGORY ( 'part', '', ( #194 ) ) ;
#363 = FILL_AREA_STYLE ('',( #33 ) ) ;
#364 = COLOUR_RGB ( '',1.000000000000000000, 0.000000000000000000, 0.000000000000000000 ) ;
#365 = VECTOR ( 'NONE', #41, 39.37007874015748143 ) ;
#366 = ORIENTED_EDGE ( 'NONE', *, *, #145, .F. ) ;
#367 = SURFACE_STYLE_FILL_AREA ( #112 ) ;
#368 = ORIENTED_EDGE ( 'NONE', *, *, #12, .F. ) ;
#369 = CARTESIAN_POINT ( 'NONE',  ( 5.098699340907939775E-16, 0.6250000000000000000, 0.000000000000000000 ) ) ;
#370 =( LENGTH_UNIT ( ) NAMED_UNIT ( * ) SI_UNIT ( $, .METRE. ) );
#371 = AXIS2_PLACEMENT_3D ( 'NONE', #106, #20, #44 ) ;
#372 = AXIS2_PLACEMENT_3D ( 'NONE', #92, #298, #228 ) ;
#373 = EDGE_CURVE ( 'NONE', #307, #284, #186, .T. ) ;
ENDSEC;
END-ISO-10303-21;
