ISO-10303-21;
HEADER;
FILE_DESCRIPTION (( 'STEP AP214' ),
    '1' );
FILE_NAME ('Micro_DMM-100-290X.STEP',
    '2021-09-02T16:29:23',
    ( '' ),
    ( '' ),
    'SwSTEP 2.0',
    'SolidWorks 2020',
    '' );
FILE_SCHEMA (( 'AUTOMOTIVE_DESIGN' ));
ENDSEC;

DATA;
#1 = DIRECTION ( 'NONE',  ( -1.000000000000000000, 0.0000000000000000000, 0.0000000000000000000 ) ) ;
#2 = APPLICATION_CONTEXT ( 'automotive_design' ) ;
#3 = DIRECTION ( 'NONE',  ( 1.000000000000000000, 0.0000000000000000000, 0.0000000000000000000 ) ) ;
#4 = LINE ( 'NONE', #294, #255 ) ;
#5 = CARTESIAN_POINT ( 'NONE',  ( -0.1968504999999999838, 0.0000000000000000000, 0.9842519999999999047 ) ) ;
#6 = ORIENTED_EDGE ( 'NONE', *, *, #278, .T. ) ;
#7 = VERTEX_POINT ( 'NONE', #252 ) ;
#8 = EDGE_LOOP ( 'NONE', ( #37, #299, #323, #293 ) ) ;
#9 = AXIS2_PLACEMENT_3D ( 'NONE', #285, #313, #171 ) ;
#10 = LINE ( 'NONE', #162, #203 ) ;
#11 = ADVANCED_FACE ( 'NONE', ( #304 ), #21, .T. ) ;
#12 = VERTEX_POINT ( 'NONE', #50 ) ;
#13 = VERTEX_POINT ( 'NONE', #201 ) ;
#14 = DIRECTION ( 'NONE',  ( -1.000000000000000000, 0.0000000000000000000, 0.0000000000000000000 ) ) ;
#15 = PRODUCT_DEFINITION ( 'UNKNOWN', '', #272, #118 ) ;
#16 = FACE_OUTER_BOUND ( 'NONE', #145, .T. ) ;
#17 = LENGTH_MEASURE_WITH_UNIT ( LENGTH_MEASURE( 0.02539999999999999897 ), #79 );
#18 = APPLICATION_CONTEXT ( 'automotive_design' ) ;
#19 = DIRECTION ( 'NONE',  ( -0.0000000000000000000, -0.0000000000000000000, -1.000000000000000000 ) ) ;
#20 = PRODUCT_RELATED_PRODUCT_CATEGORY ( 'part', '', ( #172 ) ) ;
#21 = CYLINDRICAL_SURFACE ( 'NONE', #202, 0.1968504999999999838 ) ;
#22 = COLOUR_RGB ( '',0.7921568627450980005, 0.8196078431372548767, 0.9333333333333333481 ) ;
#23 = MANIFOLD_SOLID_BREP ( 'Cut-Revolve4', #74 ) ;
#24 = LINE ( 'NONE', #219, #224 ) ;
#25 = ORIENTED_EDGE ( 'NONE', *, *, #206, .T. ) ;
#26 = DIRECTION ( 'NONE',  ( -0.7071067811865489050, 8.659560562354950115E-17, 0.7071067811865461294 ) ) ;
#27 = DIRECTION ( 'NONE',  ( 1.000000000000000000, 0.0000000000000000000, 0.0000000000000000000 ) ) ;
#28 = FILL_AREA_STYLE ('',( #57 ) ) ;
#29 = PRESENTATION_LAYER_ASSIGNMENT (  '', '', ( #39 ) ) ;
#30 = CARTESIAN_POINT ( 'NONE',  ( 0.0000000000000000000, 0.0000000000000000000, 0.9842519999999999047 ) ) ;
#31 = ADVANCED_FACE ( 'NONE', ( #128 ), #159, .F. ) ;
#32 = DIRECTION ( 'NONE',  ( 0.0000000000000000000, 0.0000000000000000000, -1.000000000000000000 ) ) ;
#33 = MECHANICAL_DESIGN_GEOMETRIC_PRESENTATION_REPRESENTATION (  '', ( #191 ), #223 ) ;
#34 = DIRECTION ( 'NONE',  ( -0.0000000000000000000, -0.0000000000000000000, -1.000000000000000000 ) ) ;
#35 = EDGE_CURVE ( 'NONE', #143, #12, #148, .T. ) ;
#36 = EDGE_LOOP ( 'NONE', ( #244, #221 ) ) ;
#37 = ORIENTED_EDGE ( 'NONE', *, *, #270, .F. ) ;
#38 = ORIENTED_EDGE ( 'NONE', *, *, #298, .T. ) ;
#39 = STYLED_ITEM ( 'NONE', ( #132 ), #261 ) ;
#40 = ORIENTED_EDGE ( 'NONE', *, *, #185, .T. ) ;
#41 = DIRECTION ( 'NONE',  ( 1.000000000000000000, 0.0000000000000000000, -0.0000000000000000000 ) ) ;
#42 = DIRECTION ( 'NONE',  ( -1.000000000000000000, 0.0000000000000000000, 0.0000000000000000000 ) ) ;
#43 =( NAMED_UNIT ( * ) SI_UNIT ( $, .STERADIAN. ) SOLID_ANGLE_UNIT ( ) );
#44 = FACE_OUTER_BOUND ( 'NONE', #8, .T. ) ;
#45 = CONICAL_SURFACE ( 'NONE', #199, 0.007499999999999999722, 0.7853981633974502774 ) ;
#46 = AXIS2_PLACEMENT_3D ( 'NONE', #47, #99, #102 ) ;
#47 = CARTESIAN_POINT ( 'NONE',  ( 0.0000000000000000000, 0.0000000000000000000, 2.834646000000000665 ) ) ;
#48 = ADVANCED_FACE ( 'NONE', ( #103, #16 ), #207, .T. ) ;
#49 = ADVANCED_FACE ( 'NONE', ( #277 ), #54, .T. ) ;
#50 = CARTESIAN_POINT ( 'NONE',  ( -0.1968005000000000448, 2.410111023955987463E-17, 0.1893004999999993165 ) ) ;
#51 =( CONVERSION_BASED_UNIT ( 'INCH', #17 ) LENGTH_UNIT ( ) NAMED_UNIT ( #316 ) );
#52 = CARTESIAN_POINT ( 'NONE',  ( 0.0000000000000000000, 0.0000000000000000000, 0.0000000000000000000 ) ) ;
#53 = ADVANCED_FACE ( 'NONE', ( #44 ), #45, .T. ) ;
#54 = CONICAL_SURFACE ( 'NONE', #280, 0.1818505000000002481, 0.7853981633974312926 ) ;
#55 =( CONVERSION_BASED_UNIT ( 'INCH', #83 ) LENGTH_UNIT ( ) NAMED_UNIT ( #113 ) );
#56 = AXIS2_PLACEMENT_3D ( 'NONE', #289, #257, #119 ) ;
#57 = FILL_AREA_STYLE_COLOUR ( '', #192 ) ;
#58 = DIRECTION ( 'NONE',  ( 0.0000000000000000000, 0.0000000000000000000, 1.000000000000000000 ) ) ;
#59 = CARTESIAN_POINT ( 'NONE',  ( 0.0000000000000000000, 0.0000000000000000000, 2.834646000000000665 ) ) ;
#60 = CARTESIAN_POINT ( 'NONE',  ( 0.0000000000000000000, 0.0000000000000000000, 0.0000000000000000000 ) ) ;
#61 = DIRECTION ( 'NONE',  ( -1.000000000000000000, 0.0000000000000000000, 0.0000000000000000000 ) ) ;
#62 = CARTESIAN_POINT ( 'NONE',  ( 0.1818505000000002481, 2.227026327483460228E-17, 2.834646000000000665 ) ) ;
#63 = ORIENTED_EDGE ( 'NONE', *, *, #72, .F. ) ;
#64 = ORIENTED_EDGE ( 'NONE', *, *, #35, .T. ) ;
#65 = PRODUCT_CONTEXT ( 'NONE', #2, 'mechanical' ) ;
#66 = ORIENTED_EDGE ( 'NONE', *, *, #185, .F. ) ;
#67 = ORIENTED_EDGE ( 'NONE', *, *, #151, .F. ) ;
#68 = AXIS2_PLACEMENT_3D ( 'NONE', #30, #312, #84 ) ;
#69 = CARTESIAN_POINT ( 'NONE',  ( 0.0000000000000000000, 0.0000000000000000000, 2.834646000000000665 ) ) ;
#70 = ORIENTED_EDGE ( 'NONE', *, *, #305, .F. ) ;
#71 = DIRECTION ( 'NONE',  ( 1.000000000000000000, 0.0000000000000000000, 0.0000000000000000000 ) ) ;
#72 = EDGE_CURVE ( 'NONE', #225, #12, #253, .T. ) ;
#73 = CARTESIAN_POINT ( 'NONE',  ( 0.0000000000000000000, 0.0000000000000000000, 0.1893004999999993165 ) ) ;
#74 = CLOSED_SHELL ( 'NONE', ( #169, #53, #89, #227, #11, #263, #49, #48, #80, #217, #31 ) ) ;
#75 = CIRCLE ( 'NONE', #110, 0.1968504999999999838 ) ;
#76 =( NAMED_UNIT ( * ) PLANE_ANGLE_UNIT ( ) SI_UNIT ( $, .RADIAN. ) );
#77 = EDGE_CURVE ( 'NONE', #225, #7, #324, .T. ) ;
#78 = DIRECTION ( 'NONE',  ( -1.000000000000000000, 0.0000000000000000000, 0.0000000000000000000 ) ) ;
#79 =( LENGTH_UNIT ( ) NAMED_UNIT ( * ) SI_UNIT ( $, .METRE. ) );
#80 = ADVANCED_FACE ( 'NONE', ( #112 ), #310, .T. ) ;
#81 = AXIS2_PLACEMENT_3D ( 'NONE', #60, #264, #262 ) ;
#82 = DIRECTION ( 'NONE',  ( -0.0000000000000000000, -0.0000000000000000000, -1.000000000000000000 ) ) ;
#83 = LENGTH_MEASURE_WITH_UNIT ( LENGTH_MEASURE( 0.02539999999999999897 ), #134 );
#84 = DIRECTION ( 'NONE',  ( -1.000000000000000000, 0.0000000000000000000, 0.0000000000000000000 ) ) ;
#85 = DIRECTION ( 'NONE',  ( -1.000000000000000000, 0.0000000000000000000, 0.0000000000000000000 ) ) ;
#86 = CARTESIAN_POINT ( 'NONE',  ( 0.0000000000000000000, 0.0000000000000000000, 1.707404996040164512E-17 ) ) ;
#87 = MECHANICAL_DESIGN_GEOMETRIC_PRESENTATION_REPRESENTATION (  '', ( #39 ), #186 ) ;
#88 = CARTESIAN_POINT ( 'NONE',  ( 0.1968504999999999838, 2.410723347355560646E-17, 0.9842519999999999047 ) ) ;
#89 = ADVANCED_FACE ( 'NONE', ( #140 ), #282, .T. ) ;
#90 = FACE_OUTER_BOUND ( 'NONE', #295, .T. ) ;
#91 = UNCERTAINTY_MEASURE_WITH_UNIT (LENGTH_MEASURE( 1.000000000000000082E-05 ), #51, 'distance_accuracy_value', 'NONE');
#92 = ORIENTED_EDGE ( 'NONE', *, *, #164, .T. ) ;
#93 = AXIS2_PLACEMENT_3D ( 'NONE', #52, #232, #329 ) ;
#94 = VECTOR ( 'NONE', #195, 39.37007874015748143 ) ;
#95 = ORIENTED_EDGE ( 'NONE', *, *, #101, .T. ) ;
#96 = ORIENTED_EDGE ( 'NONE', *, *, #160, .T. ) ;
#97 = EDGE_CURVE ( 'NONE', #13, #121, #196, .T. ) ;
#98 = EDGE_LOOP ( 'NONE', ( #271, #25, #67, #70 ) ) ;
#99 = DIRECTION ( 'NONE',  ( -0.0000000000000000000, -0.0000000000000000000, -1.000000000000000000 ) ) ;
#100 = VERTEX_POINT ( 'NONE', #88 ) ;
#101 = EDGE_CURVE ( 'NONE', #7, #225, #325, .T. ) ;
#102 = DIRECTION ( 'NONE',  ( -1.000000000000000000, 0.0000000000000000000, 0.0000000000000000000 ) ) ;
#103 = FACE_BOUND ( 'NONE', #220, .T. ) ;
#104 = VECTOR ( 'NONE', #26, 39.37007874015748143 ) ;
#105 = EDGE_CURVE ( 'NONE', #100, #197, #291, .T. ) ;
#106 = DIRECTION ( 'NONE',  ( -0.0000000000000000000, -0.0000000000000000000, -1.000000000000000000 ) ) ;
#107 = DIRECTION ( 'NONE',  ( -0.0000000000000000000, -0.0000000000000000000, -1.000000000000000000 ) ) ;
#108 = CARTESIAN_POINT ( 'NONE',  ( 0.0000000000000000000, 0.0000000000000000000, 0.0000000000000000000 ) ) ;
#109 = CARTESIAN_POINT ( 'NONE',  ( 0.0000000000000000000, 0.0000000000000000000, 1.707404996040164512E-17 ) ) ;
#110 = AXIS2_PLACEMENT_3D ( 'NONE', #239, #32, #3 ) ;
#111 = DIRECTION ( 'NONE',  ( 0.0000000000000000000, 0.0000000000000000000, 1.000000000000000000 ) ) ;
#112 = FACE_OUTER_BOUND ( 'NONE', #241, .T. ) ;
#113 = DIMENSIONAL_EXPONENTS ( 1.000000000000000000, 0.0000000000000000000, 0.0000000000000000000, 0.0000000000000000000, 0.0000000000000000000, 0.0000000000000000000, 0.0000000000000000000 ) ;
#114 = DIRECTION ( 'NONE',  ( -1.000000000000000000, 0.0000000000000000000, 0.0000000000000000000 ) ) ;
#115 = AXIS2_PLACEMENT_3D ( 'NONE', #308, #184, #302 ) ;
#116 = EDGE_CURVE ( 'NONE', #12, #143, #260, .T. ) ;
#117 = DIMENSIONAL_EXPONENTS ( 1.000000000000000000, 0.0000000000000000000, 0.0000000000000000000, 0.0000000000000000000, 0.0000000000000000000, 0.0000000000000000000, 0.0000000000000000000 ) ;
#118 = PRODUCT_DEFINITION_CONTEXT ( 'detailed design', #18, 'design' ) ;
#119 = DIRECTION ( 'NONE',  ( 1.000000000000000000, 0.0000000000000000000, 0.0000000000000000000 ) ) ;
#120 = ORIENTED_EDGE ( 'NONE', *, *, #298, .F. ) ;
#121 = VERTEX_POINT ( 'NONE', #137 ) ;
#122 = VECTOR ( 'NONE', #238, 39.37007874015748143 ) ;
#123 = ORIENTED_EDGE ( 'NONE', *, *, #320, .F. ) ;
#124 = ORIENTED_EDGE ( 'NONE', *, *, #278, .F. ) ;
#125 = ORIENTED_EDGE ( 'NONE', *, *, #105, .T. ) ;
#126 = CARTESIAN_POINT ( 'NONE',  ( -0.1968504999999999838, 0.0000000000000000000, 2.819646000000000097 ) ) ;
#127 = SURFACE_SIDE_STYLE ('',( #130 ) ) ;
#128 = FACE_OUTER_BOUND ( 'NONE', #247, .T. ) ;
#129 = FILL_AREA_STYLE_COLOUR ( '', #22 ) ;
#130 = SURFACE_STYLE_FILL_AREA ( #326 ) ;
#131 = AXIS2_PLACEMENT_3D ( 'NONE', #259, #82, #1 ) ;
#132 = PRESENTATION_STYLE_ASSIGNMENT (( #235 ) ) ;
#133 = CARTESIAN_POINT ( 'NONE',  ( -0.1968005000000001281, 0.0000000000000000000, 0.0000000000000000000 ) ) ;
#134 =( LENGTH_UNIT ( ) NAMED_UNIT ( * ) SI_UNIT ( $, .METRE. ) );
#135 = SURFACE_SIDE_STYLE ('',( #163 ) ) ;
#136 = EDGE_CURVE ( 'NONE', #179, #321, #211, .T. ) ;
#137 = CARTESIAN_POINT ( 'NONE',  ( -0.007499999999999999722, 1.250979766946019529E-17, 1.707404996040164512E-17 ) ) ;
#138 = AXIS2_PLACEMENT_3D ( 'NONE', #69, #275, #41 ) ;
#139 =( NAMED_UNIT ( * ) SI_UNIT ( $, .STERADIAN. ) SOLID_ANGLE_UNIT ( ) );
#140 = FACE_OUTER_BOUND ( 'NONE', #176, .T. ) ;
#141 = VECTOR ( 'NONE', #106, 39.37007874015748143 ) ;
#142 = AXIS2_PLACEMENT_3D ( 'NONE', #109, #210, #114 ) ;
#143 = VERTEX_POINT ( 'NONE', #213 ) ;
#144 = LINE ( 'NONE', #62, #246 ) ;
#145 = EDGE_LOOP ( 'NONE', ( #322, #125 ) ) ;
#146 = ORIENTED_EDGE ( 'NONE', *, *, #164, .F. ) ;
#147 = CARTESIAN_POINT ( 'NONE',  ( 0.0000000000000000000, 0.0000000000000000000, 0.0000000000000000000 ) ) ;
#148 = CIRCLE ( 'NONE', #229, 0.1968005000000000448 ) ;
#149 =( GEOMETRIC_REPRESENTATION_CONTEXT ( 3 ) GLOBAL_UNCERTAINTY_ASSIGNED_CONTEXT ( ( #268 ) ) GLOBAL_UNIT_ASSIGNED_CONTEXT ( ( #55, #309, #139 ) ) REPRESENTATION_CONTEXT ( 'NONE', 'WORKASPACE' ) );
#150 = DIRECTION ( 'NONE',  ( -0.7071067811865354713, 0.0000000000000000000, -0.7071067811865594521 ) ) ;
#151 = EDGE_CURVE ( 'NONE', #197, #100, #200, .T. ) ;
#152 = ORIENTED_EDGE ( 'NONE', *, *, #206, .F. ) ;
#153 = CARTESIAN_POINT ( 'NONE',  ( 0.0000000000000000000, 0.0000000000000000000, 1.707404996040164512E-17 ) ) ;
#154 = DIRECTION ( 'NONE',  ( 0.0000000000000000000, 0.0000000000000000000, 1.000000000000000000 ) ) ;
#155 = FACE_OUTER_BOUND ( 'NONE', #98, .T. ) ;
#156 = AXIS2_PLACEMENT_3D ( 'NONE', #147, #154, #274 ) ;
#157 = PRESENTATION_STYLE_ASSIGNMENT (( #228 ) ) ;
#158 = DIRECTION ( 'NONE',  ( 0.0000000000000000000, 0.0000000000000000000, -1.000000000000000000 ) ) ;
#159 = PLANE ( 'NONE',  #93 ) ;
#160 = EDGE_CURVE ( 'NONE', #13, #143, #166, .T. ) ;
#161 = DIRECTION ( 'NONE',  ( 0.7071067811865354713, 8.659560562354783714E-17, -0.7071067811865594521 ) ) ;
#162 = CARTESIAN_POINT ( 'NONE',  ( 0.1968504999999999838, 2.410723347355560646E-17, 2.834646000000000665 ) ) ;
#163 = SURFACE_STYLE_FILL_AREA ( #28 ) ;
#164 = EDGE_CURVE ( 'NONE', #317, #273, #303, .T. ) ;
#165 = LENGTH_MEASURE_WITH_UNIT ( LENGTH_MEASURE( 0.02539999999999999897 ), #307 );
#166 = LINE ( 'NONE', #216, #122 ) ;
#167 = AXIS2_PLACEMENT_3D ( 'NONE', #153, #250, #14 ) ;
#168 = DIRECTION ( 'NONE',  ( -1.000000000000000000, 0.0000000000000000000, 0.0000000000000000000 ) ) ;
#169 = ADVANCED_FACE ( 'NONE', ( #90 ), #190, .T. ) ;
#170 = FACE_OUTER_BOUND ( 'NONE', #290, .T. ) ;
#171 = DIRECTION ( 'NONE',  ( 1.000000000000000000, 0.0000000000000000000, 0.0000000000000000000 ) ) ;
#172 = PRODUCT ( 'Micro_DMM-100-290X', 'Micro_DMM-100-290X', '', ( #65 ) ) ;
#173 = CIRCLE ( 'NONE', #56, 0.1818505000000002481 ) ;
#174 = ORIENTED_EDGE ( 'NONE', *, *, #101, .F. ) ;
#175 = EDGE_CURVE ( 'NONE', #273, #317, #75, .T. ) ;
#176 = EDGE_LOOP ( 'NONE', ( #249, #6, #269, #66 ) ) ;
#177 = EDGE_LOOP ( 'NONE', ( #152, #92, #198, #194 ) ) ;
#178 = AXIS2_PLACEMENT_3D ( 'NONE', #284, #111, #212 ) ;
#179 = VERTEX_POINT ( 'NONE', #215 ) ;
#180 = ORIENTED_EDGE ( 'NONE', *, *, #77, .T. ) ;
#181 = ORIENTED_EDGE ( 'NONE', *, *, #35, .F. ) ;
#182 = PLANE ( 'NONE',  #138 ) ;
#183 = AXIS2_PLACEMENT_3D ( 'NONE', #108, #189, #85 ) ;
#184 = DIRECTION ( 'NONE',  ( -0.0000000000000000000, 0.0000000000000000000, -1.000000000000000000 ) ) ;
#185 = EDGE_CURVE ( 'NONE', #321, #273, #4, .T. ) ;
#186 =( GEOMETRIC_REPRESENTATION_CONTEXT ( 3 ) GLOBAL_UNCERTAINTY_ASSIGNED_CONTEXT ( ( #234 ) ) GLOBAL_UNIT_ASSIGNED_CONTEXT ( ( #266, #242, #43 ) ) REPRESENTATION_CONTEXT ( 'NONE', 'WORKASPACE' ) );
#187 = CARTESIAN_POINT ( 'NONE',  ( -0.007499999999999999722, 9.184850993605147975E-19, 1.707404996040164512E-17 ) ) ;
#188 = DIRECTION ( 'NONE',  ( -0.0000000000000000000, -0.0000000000000000000, -1.000000000000000000 ) ) ;
#189 = DIRECTION ( 'NONE',  ( -0.0000000000000000000, -0.0000000000000000000, -1.000000000000000000 ) ) ;
#190 = CYLINDRICAL_SURFACE ( 'NONE', #81, 0.1968005000000001281 ) ;
#191 = STYLED_ITEM ( 'NONE', ( #157 ), #23 ) ;
#192 = COLOUR_RGB ( '',0.7921568627450980005, 0.8196078431372548767, 0.9333333333333333481 ) ;
#193 = DIRECTION ( 'NONE',  ( 0.0000000000000000000, 0.0000000000000000000, -1.000000000000000000 ) ) ;
#194 = ORIENTED_EDGE ( 'NONE', *, *, #105, .F. ) ;
#195 = DIRECTION ( 'NONE',  ( -0.0000000000000000000, -0.0000000000000000000, -1.000000000000000000 ) ) ;
#196 = CIRCLE ( 'NONE', #142, 0.007499999999999999722 ) ;
#197 = VERTEX_POINT ( 'NONE', #5 ) ;
#198 = ORIENTED_EDGE ( 'NONE', *, *, #305, .T. ) ;
#199 = AXIS2_PLACEMENT_3D ( 'NONE', #256, #328, #71 ) ;
#200 = CIRCLE ( 'NONE', #68, 0.1968504999999999838 ) ;
#201 = CARTESIAN_POINT ( 'NONE',  ( 0.007499999999999999722, 0.0000000000000000000, 1.707404996040164512E-17 ) ) ;
#202 = AXIS2_PLACEMENT_3D ( 'NONE', #226, #306, #251 ) ;
#203 = VECTOR ( 'NONE', #281, 39.37007874015748143 ) ;
#204 =( NAMED_UNIT ( * ) SI_UNIT ( $, .STERADIAN. ) SOLID_ANGLE_UNIT ( ) );
#205 = CARTESIAN_POINT ( 'NONE',  ( 0.0000000000000000000, 0.0000000000000000000, 0.9842519999999999047 ) ) ;
#206 = EDGE_CURVE ( 'NONE', #317, #100, #10, .T. ) ;
#207 = PLANE ( 'NONE',  #115 ) ;
#208 = LINE ( 'NONE', #187, #104 ) ;
#209 = AXIS2_PLACEMENT_3D ( 'NONE', #86, #58, #27 ) ;
#210 = DIRECTION ( 'NONE',  ( -0.0000000000000000000, -0.0000000000000000000, -1.000000000000000000 ) ) ;
#211 = CIRCLE ( 'NONE', #178, 0.1818505000000002481 ) ;
#212 = DIRECTION ( 'NONE',  ( 1.000000000000000000, 0.0000000000000000000, 0.0000000000000000000 ) ) ;
#213 = CARTESIAN_POINT ( 'NONE',  ( 0.1968005000000000448, 0.0000000000000000000, 0.1893004999999993165 ) ) ;
#214 = PRODUCT_DEFINITION_SHAPE ( 'NONE', 'NONE',  #15 ) ;
#215 = CARTESIAN_POINT ( 'NONE',  ( 0.1818505000000002481, 2.318874837419510283E-17, 2.834646000000000665 ) ) ;
#216 = CARTESIAN_POINT ( 'NONE',  ( 0.007499999999999999722, 0.0000000000000000000, 1.707404996040164512E-17 ) ) ;
#217 = ADVANCED_FACE ( 'NONE', ( #170 ), #237, .T. ) ;
#218 = ORIENTED_EDGE ( 'NONE', *, *, #300, .F. ) ;
#219 = CARTESIAN_POINT ( 'NONE',  ( -0.1968504999999999838, 0.0000000000000000000, 2.834646000000000665 ) ) ;
#220 = EDGE_LOOP ( 'NONE', ( #222, #174 ) ) ;
#221 = ORIENTED_EDGE ( 'NONE', *, *, #136, .T. ) ;
#222 = ORIENTED_EDGE ( 'NONE', *, *, #77, .F. ) ;
#223 =( GEOMETRIC_REPRESENTATION_CONTEXT ( 3 ) GLOBAL_UNCERTAINTY_ASSIGNED_CONTEXT ( ( #91 ) ) GLOBAL_UNIT_ASSIGNED_CONTEXT ( ( #51, #76, #204 ) ) REPRESENTATION_CONTEXT ( 'NONE', 'WORKASPACE' ) );
#224 = VECTOR ( 'NONE', #34, 39.37007874015748143 ) ;
#225 = VERTEX_POINT ( 'NONE', #292 ) ;
#226 = CARTESIAN_POINT ( 'NONE',  ( 0.0000000000000000000, 0.0000000000000000000, 2.834646000000000665 ) ) ;
#227 = ADVANCED_FACE ( 'NONE', ( #155 ), #327, .T. ) ;
#228 = SURFACE_STYLE_USAGE ( .BOTH. , #127 ) ;
#229 = AXIS2_PLACEMENT_3D ( 'NONE', #73, #19, #78 ) ;
#230 = AXIS2_PLACEMENT_3D ( 'NONE', #59, #193, #168 ) ;
#231 = APPLICATION_PROTOCOL_DEFINITION ( 'draft international standard', 'automotive_design', 1998, #2 ) ;
#232 = DIRECTION ( 'NONE',  ( 0.0000000000000000000, 0.0000000000000000000, 1.000000000000000000 ) ) ;
#233 = CARTESIAN_POINT ( 'NONE',  ( -0.1818505000000002481, 0.0000000000000000000, 2.834646000000000665 ) ) ;
#234 = UNCERTAINTY_MEASURE_WITH_UNIT (LENGTH_MEASURE( 1.000000000000000082E-05 ), #266, 'distance_accuracy_value', 'NONE');
#235 = SURFACE_STYLE_USAGE ( .BOTH. , #135 ) ;
#236 = CARTESIAN_POINT ( 'NONE',  ( 0.0000000000000000000, 0.0000000000000000000, 0.1893004999999993165 ) ) ;
#237 = CYLINDRICAL_SURFACE ( 'NONE', #183, 0.1968005000000001281 ) ;
#238 = DIRECTION ( 'NONE',  ( 0.7071067811865489050, 0.0000000000000000000, 0.7071067811865461294 ) ) ;
#239 = CARTESIAN_POINT ( 'NONE',  ( 0.0000000000000000000, 0.0000000000000000000, 2.819646000000000097 ) ) ;
#240 = CARTESIAN_POINT ( 'NONE',  ( 0.0000000000000000000, 0.0000000000000000000, 0.9842519999999999047 ) ) ;
#241 = EDGE_LOOP ( 'NONE', ( #123, #267, #96, #64 ) ) ;
#242 =( NAMED_UNIT ( * ) PLANE_ANGLE_UNIT ( ) SI_UNIT ( $, .RADIAN. ) );
#243 = ORIENTED_EDGE ( 'NONE', *, *, #72, .T. ) ;
#244 = ORIENTED_EDGE ( 'NONE', *, *, #300, .T. ) ;
#245 = PRESENTATION_LAYER_ASSIGNMENT (  '', '', ( #191 ) ) ;
#246 = VECTOR ( 'NONE', #161, 39.37007874015748854 ) ;
#247 = EDGE_LOOP ( 'NONE', ( #279, #276 ) ) ;
#248 = SHAPE_DEFINITION_REPRESENTATION ( #214, #261 ) ;
#249 = ORIENTED_EDGE ( 'NONE', *, *, #136, .F. ) ;
#250 = DIRECTION ( 'NONE',  ( -0.0000000000000000000, -0.0000000000000000000, -1.000000000000000000 ) ) ;
#251 = DIRECTION ( 'NONE',  ( -1.000000000000000000, 0.0000000000000000000, 0.0000000000000000000 ) ) ;
#252 = CARTESIAN_POINT ( 'NONE',  ( 0.1968005000000002114, 2.410111023955989620E-17, 0.9842519999999999047 ) ) ;
#253 = LINE ( 'NONE', #133, #141 ) ;
#254 = EDGE_LOOP ( 'NONE', ( #124, #218, #40, #146 ) ) ;
#255 = VECTOR ( 'NONE', #150, 39.37007874015748854 ) ;
#256 = CARTESIAN_POINT ( 'NONE',  ( 0.0000000000000000000, 0.0000000000000000000, 1.707404996040164512E-17 ) ) ;
#257 = DIRECTION ( 'NONE',  ( 0.0000000000000000000, 0.0000000000000000000, 1.000000000000000000 ) ) ;
#258 = CARTESIAN_POINT ( 'NONE',  ( 0.1968005000000001281, 2.410111023955988388E-17, 0.0000000000000000000 ) ) ;
#259 = CARTESIAN_POINT ( 'NONE',  ( 0.0000000000000000000, 0.0000000000000000000, 0.9842519999999999047 ) ) ;
#260 = CIRCLE ( 'NONE', #287, 0.1968005000000000448 ) ;
#261 = ADVANCED_BREP_SHAPE_REPRESENTATION ( 'Micro_DMM-100-290X', ( #23, #156 ), #149 ) ;
#262 = DIRECTION ( 'NONE',  ( -1.000000000000000000, 0.0000000000000000000, 0.0000000000000000000 ) ) ;
#263 = ADVANCED_FACE ( 'NONE', ( #297 ), #182, .T. ) ;
#264 = DIRECTION ( 'NONE',  ( -0.0000000000000000000, -0.0000000000000000000, -1.000000000000000000 ) ) ;
#265 = AXIS2_PLACEMENT_3D ( 'NONE', #205, #107, #286 ) ;
#266 =( CONVERSION_BASED_UNIT ( 'INCH', #165 ) LENGTH_UNIT ( ) NAMED_UNIT ( #117 ) );
#267 = ORIENTED_EDGE ( 'NONE', *, *, #97, .F. ) ;
#268 = UNCERTAINTY_MEASURE_WITH_UNIT (LENGTH_MEASURE( 1.000000000000000082E-05 ), #55, 'distance_accuracy_value', 'NONE');
#269 = ORIENTED_EDGE ( 'NONE', *, *, #175, .F. ) ;
#270 = EDGE_CURVE ( 'NONE', #121, #13, #315, .T. ) ;
#271 = ORIENTED_EDGE ( 'NONE', *, *, #175, .T. ) ;
#272 = PRODUCT_DEFINITION_FORMATION_WITH_SPECIFIED_SOURCE ( 'ANY', '', #172, .NOT_KNOWN. ) ;
#273 = VERTEX_POINT ( 'NONE', #126 ) ;
#274 = DIRECTION ( 'NONE',  ( 1.000000000000000000, 0.0000000000000000000, 0.0000000000000000000 ) ) ;
#275 = DIRECTION ( 'NONE',  ( 0.0000000000000000000, 0.0000000000000000000, 1.000000000000000000 ) ) ;
#276 = ORIENTED_EDGE ( 'NONE', *, *, #270, .T. ) ;
#277 = FACE_OUTER_BOUND ( 'NONE', #254, .T. ) ;
#278 = EDGE_CURVE ( 'NONE', #179, #317, #144, .T. ) ;
#279 = ORIENTED_EDGE ( 'NONE', *, *, #97, .T. ) ;
#280 = AXIS2_PLACEMENT_3D ( 'NONE', #301, #158, #42 ) ;
#281 = DIRECTION ( 'NONE',  ( -0.0000000000000000000, -0.0000000000000000000, -1.000000000000000000 ) ) ;
#282 = CONICAL_SURFACE ( 'NONE', #230, 0.1818505000000002481, 0.7853981633974312926 ) ;
#283 = LINE ( 'NONE', #258, #94 ) ;
#284 = CARTESIAN_POINT ( 'NONE',  ( 0.0000000000000000000, 0.0000000000000000000, 2.834646000000000665 ) ) ;
#285 = CARTESIAN_POINT ( 'NONE',  ( 0.0000000000000000000, 0.0000000000000000000, 2.819646000000000097 ) ) ;
#286 = DIRECTION ( 'NONE',  ( -1.000000000000000000, 0.0000000000000000000, 0.0000000000000000000 ) ) ;
#287 = AXIS2_PLACEMENT_3D ( 'NONE', #236, #188, #61 ) ;
#288 = DIRECTION ( 'NONE',  ( -0.0000000000000000000, -0.0000000000000000000, -1.000000000000000000 ) ) ;
#289 = CARTESIAN_POINT ( 'NONE',  ( 0.0000000000000000000, 0.0000000000000000000, 2.834646000000000665 ) ) ;
#290 = EDGE_LOOP ( 'NONE', ( #120, #95, #243, #181 ) ) ;
#291 = CIRCLE ( 'NONE', #131, 0.1968504999999999838 ) ;
#292 = CARTESIAN_POINT ( 'NONE',  ( -0.1968005000000001836, 0.0000000000000000000, 0.9842519999999999047 ) ) ;
#293 = ORIENTED_EDGE ( 'NONE', *, *, #160, .F. ) ;
#294 = CARTESIAN_POINT ( 'NONE',  ( -0.1818505000000002481, 0.0000000000000000000, 2.834646000000000665 ) ) ;
#295 = EDGE_LOOP ( 'NONE', ( #180, #38, #296, #63 ) ) ;
#296 = ORIENTED_EDGE ( 'NONE', *, *, #116, .F. ) ;
#297 = FACE_OUTER_BOUND ( 'NONE', #36, .T. ) ;
#298 = EDGE_CURVE ( 'NONE', #7, #143, #283, .T. ) ;
#299 = ORIENTED_EDGE ( 'NONE', *, *, #320, .T. ) ;
#300 = EDGE_CURVE ( 'NONE', #321, #179, #173, .T. ) ;
#301 = CARTESIAN_POINT ( 'NONE',  ( 0.0000000000000000000, 0.0000000000000000000, 2.834646000000000665 ) ) ;
#302 = DIRECTION ( 'NONE',  ( -1.000000000000000000, 0.0000000000000000000, 0.0000000000000000000 ) ) ;
#303 = CIRCLE ( 'NONE', #9, 0.1968504999999999838 ) ;
#304 = FACE_OUTER_BOUND ( 'NONE', #177, .T. ) ;
#305 = EDGE_CURVE ( 'NONE', #273, #197, #24, .T. ) ;
#306 = DIRECTION ( 'NONE',  ( -0.0000000000000000000, -0.0000000000000000000, -1.000000000000000000 ) ) ;
#307 =( LENGTH_UNIT ( ) NAMED_UNIT ( * ) SI_UNIT ( $, .METRE. ) );
#308 = CARTESIAN_POINT ( 'NONE',  ( 0.1968005000000001836, 0.0000000000000000000, 0.9842519999999999047 ) ) ;
#309 =( NAMED_UNIT ( * ) PLANE_ANGLE_UNIT ( ) SI_UNIT ( $, .RADIAN. ) );
#310 = CONICAL_SURFACE ( 'NONE', #209, 0.007499999999999999722, 0.7853981633974502774 ) ;
#311 = CARTESIAN_POINT ( 'NONE',  ( 0.1968504999999999838, 2.410723347355560646E-17, 2.819646000000000097 ) ) ;
#312 = DIRECTION ( 'NONE',  ( -0.0000000000000000000, -0.0000000000000000000, -1.000000000000000000 ) ) ;
#313 = DIRECTION ( 'NONE',  ( 0.0000000000000000000, 0.0000000000000000000, -1.000000000000000000 ) ) ;
#314 = DIRECTION ( 'NONE',  ( -1.000000000000000000, 0.0000000000000000000, 0.0000000000000000000 ) ) ;
#315 = CIRCLE ( 'NONE', #167, 0.007499999999999999722 ) ;
#316 = DIMENSIONAL_EXPONENTS ( 1.000000000000000000, 0.0000000000000000000, 0.0000000000000000000, 0.0000000000000000000, 0.0000000000000000000, 0.0000000000000000000, 0.0000000000000000000 ) ;
#317 = VERTEX_POINT ( 'NONE', #311 ) ;
#318 = AXIS2_PLACEMENT_3D ( 'NONE', #240, #288, #314 ) ;
#319 = APPLICATION_PROTOCOL_DEFINITION ( 'draft international standard', 'automotive_design', 1998, #18 ) ;
#320 = EDGE_CURVE ( 'NONE', #121, #12, #208, .T. ) ;
#321 = VERTEX_POINT ( 'NONE', #233 ) ;
#322 = ORIENTED_EDGE ( 'NONE', *, *, #151, .T. ) ;
#323 = ORIENTED_EDGE ( 'NONE', *, *, #116, .T. ) ;
#324 = CIRCLE ( 'NONE', #265, 0.1968005000000001836 ) ;
#325 = CIRCLE ( 'NONE', #318, 0.1968005000000001836 ) ;
#326 = FILL_AREA_STYLE ('',( #129 ) ) ;
#327 = CYLINDRICAL_SURFACE ( 'NONE', #46, 0.1968504999999999838 ) ;
#328 = DIRECTION ( 'NONE',  ( 0.0000000000000000000, 0.0000000000000000000, 1.000000000000000000 ) ) ;
#329 = DIRECTION ( 'NONE',  ( 1.000000000000000000, 0.0000000000000000000, -0.0000000000000000000 ) ) ;
ENDSEC;
END-ISO-10303-21;
