ISO-10303-21;
HEADER;
FILE_DESCRIPTION (( 'STEP AP214' ),
    '1' );
FILE_NAME ('59854.STEP',
    '2023-06-22T23:43:18',
    ( '' ),
    ( '' ),
    'SwSTEP 2.0',
    'SolidWorks 2023',
    '' );
FILE_SCHEMA (( 'AUTOMOTIVE_DESIGN' ));
ENDSEC;

DATA;
#1 =( LENGTH_UNIT ( ) NAMED_UNIT ( * ) SI_UNIT ( $, .METRE. ) );
#2 = PRODUCT_DEFINITION ( 'UNKNOWN', '', #154, #108 ) ;
#3 = DIRECTION ( 'NONE',  ( 0.000000000000000000, 0.000000000000000000, 1.000000000000000000 ) ) ;
#4 = EDGE_CURVE ( 'NONE', #47, #238, #149, .T. ) ;
#5 = SURFACE_STYLE_USAGE ( .BOTH. , #74 ) ;
#6 = ORIENTED_EDGE ( 'NONE', *, *, #90, .F. ) ;
#7 = ORIENTED_EDGE ( 'NONE', *, *, #32, .T. ) ;
#8 = ORIENTED_EDGE ( 'NONE', *, *, #258, .F. ) ;
#9 = FACE_OUTER_BOUND ( 'NONE', #79, .T. ) ;
#10 = DIMENSIONAL_EXPONENTS ( 1.000000000000000000, 0.000000000000000000, 0.000000000000000000, 0.000000000000000000, 0.000000000000000000, 0.000000000000000000, 0.000000000000000000 ) ;
#11 = CYLINDRICAL_SURFACE ( 'NONE', #55, 0.3750000000000001110 ) ;
#12 = DIRECTION ( 'NONE',  ( 0.000000000000000000, -1.000000000000000000, -0.000000000000000000 ) ) ;
#13 = SURFACE_SIDE_STYLE ('',( #247 ) ) ;
#14 = FILL_AREA_STYLE ('',( #250 ) ) ;
#15 = CLOSED_SHELL ( 'NONE', ( #53, #94, #71, #148 ) ) ;
#16 = FACE_OUTER_BOUND ( 'NONE', #291, .T. ) ;
#17 = DIMENSIONAL_EXPONENTS ( 1.000000000000000000, 0.000000000000000000, 0.000000000000000000, 0.000000000000000000, 0.000000000000000000, 0.000000000000000000, 0.000000000000000000 ) ;
#18 =( LENGTH_UNIT ( ) NAMED_UNIT ( * ) SI_UNIT ( $, .METRE. ) );
#19 = CARTESIAN_POINT ( 'NONE',  ( 0.3750000000000000555, 5.000000000000000000, 4.592425496802576684E-17 ) ) ;
#20 = EDGE_CURVE ( 'NONE', #238, #216, #229, .T. ) ;
#21 = PRODUCT_CONTEXT ( 'NONE', #219, 'mechanical' ) ;
#22 = UNCERTAINTY_MEASURE_WITH_UNIT (LENGTH_MEASURE( 1.000000000000000082E-05 ), #307, 'distance_accuracy_value', 'NONE');
#23 = COLOUR_RGB ( '',1.000000000000000000, 0.000000000000000000, 0.000000000000000000 ) ;
#24 = EDGE_LOOP ( 'NONE', ( #7, #288, #6, #169 ) ) ;
#25 = EDGE_LOOP ( 'NONE', ( #293, #69, #73, #26 ) ) ;
#26 = ORIENTED_EDGE ( 'NONE', *, *, #63, .F. ) ;
#27 = AXIS2_PLACEMENT_3D ( 'NONE', #268, #51, #127 ) ;
#28 =( NAMED_UNIT ( * ) PLANE_ANGLE_UNIT ( ) SI_UNIT ( $, .RADIAN. ) );
#29 = CARTESIAN_POINT ( 'NONE',  ( -1.224646799147353207E-16, 5.000000000000000000, 0.000000000000000000 ) ) ;
#30 = DIRECTION ( 'NONE',  ( 0.000000000000000000, -0.000000000000000000, 1.000000000000000000 ) ) ;
#31 = ORIENTED_EDGE ( 'NONE', *, *, #228, .T. ) ;
#32 = EDGE_CURVE ( 'NONE', #121, #100, #185, .T. ) ;
#33 = FACE_OUTER_BOUND ( 'NONE', #24, .T. ) ;
#34 = COLOUR_RGB ( '',1.000000000000000000, 0.000000000000000000, 0.000000000000000000 ) ;
#35 = LENGTH_MEASURE_WITH_UNIT ( LENGTH_MEASURE( 0.02539999999999999897 ), #57 );
#36 = LENGTH_MEASURE_WITH_UNIT ( LENGTH_MEASURE( 0.02539999999999999897 ), #253 );
#37 = DIRECTION ( 'NONE',  ( -4.453261087808557677E-17, 1.000000000000000000, -0.000000000000000000 ) ) ;
#38 = CARTESIAN_POINT ( 'NONE',  ( 4.592425496802575451E-17, 0.000000000000000000, 0.3750000000000000555 ) ) ;
#39 = DIRECTION ( 'NONE',  ( -0.000000000000000000, -1.000000000000000000, -0.000000000000000000 ) ) ;
#40 = PRESENTATION_STYLE_ASSIGNMENT (( #233 ) ) ;
#41 = ADVANCED_FACE ( 'NONE', ( #218 ), #11, .T. ) ;
#42 = CIRCLE ( 'NONE', #215, 0.3750000000000000555 ) ;
#43 = PRESENTATION_LAYER_ASSIGNMENT (  '', '', ( #103 ) ) ;
#44 = SURFACE_STYLE_USAGE ( .BOTH. , #164 ) ;
#45 = SURFACE_STYLE_FILL_AREA ( #183 ) ;
#46 = PRESENTATION_LAYER_ASSIGNMENT (  '', '', ( #186 ) ) ;
#47 = VERTEX_POINT ( 'NONE', #227 ) ;
#48 = FACE_OUTER_BOUND ( 'NONE', #166, .T. ) ;
#49 = ORIENTED_EDGE ( 'NONE', *, *, #258, .T. ) ;
#50 = DIRECTION ( 'NONE',  ( 0.000000000000000000, 0.000000000000000000, -1.000000000000000000 ) ) ;
#51 = DIRECTION ( 'NONE',  ( -4.453261087808557677E-17, 1.000000000000000000, -0.000000000000000000 ) ) ;
#52 = CARTESIAN_POINT ( 'NONE',  ( 0.000000000000000000, 2.250000000000000000, 0.000000000000000000 ) ) ;
#53 = ADVANCED_FACE ( 'NONE', ( #33 ), #299, .T. ) ;
#54 =( CONVERSION_BASED_UNIT ( 'INCH', #246 ) LENGTH_UNIT ( ) NAMED_UNIT ( #244 ) );
#55 = AXIS2_PLACEMENT_3D ( 'NONE', #58, #37, #224 ) ;
#56 = CIRCLE ( 'NONE', #242, 0.3750000000000000555 ) ;
#57 =( LENGTH_UNIT ( ) NAMED_UNIT ( * ) SI_UNIT ( $, .METRE. ) );
#58 = CARTESIAN_POINT ( 'NONE',  ( -1.224646799147353207E-16, 5.000000000000000000, 0.000000000000000000 ) ) ;
#59 = CARTESIAN_POINT ( 'NONE',  ( 0.000000000000000000, 2.250000000000000000, 0.000000000000000000 ) ) ;
#60 = DIMENSIONAL_EXPONENTS ( 1.000000000000000000, 0.000000000000000000, 0.000000000000000000, 0.000000000000000000, 0.000000000000000000, 0.000000000000000000, 0.000000000000000000 ) ;
#61 = MECHANICAL_DESIGN_GEOMETRIC_PRESENTATION_REPRESENTATION (  '', ( #173 ), #234 ) ;
#62 = AXIS2_PLACEMENT_3D ( 'NONE', #110, #12, #255 ) ;
#63 = EDGE_CURVE ( 'NONE', #210, #216, #178, .T. ) ;
#64 = DIRECTION ( 'NONE',  ( -0.000000000000000000, -1.000000000000000000, -0.000000000000000000 ) ) ;
#65 = APPLICATION_PROTOCOL_DEFINITION ( 'draft international standard', 'automotive_design', 1998, #219 ) ;
#66 = MECHANICAL_DESIGN_GEOMETRIC_PRESENTATION_REPRESENTATION (  '', ( #116 ), #309 ) ;
#67 = SURFACE_STYLE_FILL_AREA ( #240 ) ;
#68 =( CONVERSION_BASED_UNIT ( 'INCH', #262 ) LENGTH_UNIT ( ) NAMED_UNIT ( #60 ) );
#69 = ORIENTED_EDGE ( 'NONE', *, *, #4, .T. ) ;
#70 = MECHANICAL_DESIGN_GEOMETRIC_PRESENTATION_REPRESENTATION (  '', ( #207 ), #249 ) ;
#71 = ADVANCED_FACE ( 'NONE', ( #16 ), #112, .T. ) ;
#72 = DIRECTION ( 'NONE',  ( 0.000000000000000000, 1.000000000000000000, 0.000000000000000000 ) ) ;
#73 = ORIENTED_EDGE ( 'NONE', *, *, #202, .F. ) ;
#74 = SURFACE_SIDE_STYLE ('',( #67 ) ) ;
#75 = ORIENTED_EDGE ( 'NONE', *, *, #297, .F. ) ;
#76 = DIRECTION ( 'NONE',  ( 1.000000000000000000, 4.453261087808557677E-17, 0.000000000000000000 ) ) ;
#77 = DIRECTION ( 'NONE',  ( -1.000000000000000000, 0.000000000000000000, 0.000000000000000000 ) ) ;
#78 = PRESENTATION_STYLE_ASSIGNMENT (( #81 ) ) ;
#79 = EDGE_LOOP ( 'NONE', ( #145, #49 ) ) ;
#80 = DIRECTION ( 'NONE',  ( -1.000000000000000000, 0.000000000000000000, 0.000000000000000000 ) ) ;
#81 = SURFACE_STYLE_USAGE ( .BOTH. , #136 ) ;
#82 = FILL_AREA_STYLE ('',( #251 ) ) ;
#83 = PRESENTATION_LAYER_ASSIGNMENT (  '', '', ( #173 ) ) ;
#84 =( GEOMETRIC_REPRESENTATION_CONTEXT ( 3 ) GLOBAL_UNCERTAINTY_ASSIGNED_CONTEXT ( ( #88 ) ) GLOBAL_UNIT_ASSIGNED_CONTEXT ( ( #231, #206, #140 ) ) REPRESENTATION_CONTEXT ( 'NONE', 'WORKASPACE' ) );
#85 = FACE_OUTER_BOUND ( 'NONE', #266, .T. ) ;
#86 = FILL_AREA_STYLE_COLOUR ( '', #34 ) ;
#87 = DIRECTION ( 'NONE',  ( 0.000000000000000000, 0.000000000000000000, -1.000000000000000000 ) ) ;
#88 = UNCERTAINTY_MEASURE_WITH_UNIT (LENGTH_MEASURE( 1.000000000000000082E-05 ), #231, 'distance_accuracy_value', 'NONE');
#89 = PRESENTATION_STYLE_ASSIGNMENT (( #222 ) ) ;
#90 = EDGE_CURVE ( 'NONE', #239, #193, #42, .T. ) ;
#91 = PRESENTATION_STYLE_ASSIGNMENT (( #44 ) ) ;
#92 = AXIS2_PLACEMENT_3D ( 'NONE', #59, #39, #115 ) ;
#93 = LINE ( 'NONE', #138, #280 ) ;
#94 = ADVANCED_FACE ( 'NONE', ( #190 ), #290, .T. ) ;
#95 = APPLICATION_PROTOCOL_DEFINITION ( 'draft international standard', 'automotive_design', 1998, #235 ) ;
#96 = VECTOR ( 'NONE', #217, 39.37007874015748143 ) ;
#97 = VECTOR ( 'NONE', #64, 39.37007874015748143 ) ;
#98 = ADVANCED_BREP_SHAPE_REPRESENTATION ( '59854', ( #282, #177, #257 ), #192 ) ;
#99 = PLANE ( 'NONE',  #303 ) ;
#100 = VERTEX_POINT ( 'NONE', #142 ) ;
#101 =( NAMED_UNIT ( * ) PLANE_ANGLE_UNIT ( ) SI_UNIT ( $, .RADIAN. ) );
#102 = ORIENTED_EDGE ( 'NONE', *, *, #20, .F. ) ;
#103 = STYLED_ITEM ( 'NONE', ( #91 ), #282 ) ;
#104 = DIRECTION ( 'NONE',  ( 0.000000000000000000, 0.000000000000000000, -1.000000000000000000 ) ) ;
#105 = CARTESIAN_POINT ( 'NONE',  ( 0.3750000000000000555, 5.000000000000000000, 0.000000000000000000 ) ) ;
#106 = ORIENTED_EDGE ( 'NONE', *, *, #228, .F. ) ;
#107 = CIRCLE ( 'NONE', #208, 0.3750000000000001665 ) ;
#108 = PRODUCT_DEFINITION_CONTEXT ( 'detailed design', #235, 'design' ) ;
#109 = DIRECTION ( 'NONE',  ( -0.000000000000000000, -1.000000000000000000, -0.000000000000000000 ) ) ;
#110 = CARTESIAN_POINT ( 'NONE',  ( 0.000000000000000000, 0.000000000000000000, 0.000000000000000000 ) ) ;
#111 = PRESENTATION_LAYER_ASSIGNMENT (  '', '', ( #241 ) ) ;
#112 = CYLINDRICAL_SURFACE ( 'NONE', #161, 0.3750000000000000555 ) ;
#113 = DIRECTION ( 'NONE',  ( 1.000000000000000000, 0.000000000000000000, 0.000000000000000000 ) ) ;
#114 = ADVANCED_FACE ( 'NONE', ( #167 ), #120, .T. ) ;
#115 = DIRECTION ( 'NONE',  ( 0.000000000000000000, 0.000000000000000000, -1.000000000000000000 ) ) ;
#116 = STYLED_ITEM ( 'NONE', ( #89 ), #53 ) ;
#117 = ADVANCED_FACE ( 'NONE', ( #48 ), #99, .F. ) ;
#118 = CARTESIAN_POINT ( 'NONE',  ( 0.000000000000000000, 0.000000000000000000, 0.000000000000000000 ) ) ;
#119 = AXIS2_PLACEMENT_3D ( 'NONE', #52, #151, #128 ) ;
#120 = CYLINDRICAL_SURFACE ( 'NONE', #172, 0.3750000000000001110 ) ;
#121 = VERTEX_POINT ( 'NONE', #170 ) ;
#122 = DIRECTION ( 'NONE',  ( -0.000000000000000000, -1.000000000000000000, -0.000000000000000000 ) ) ;
#123 = DIRECTION ( 'NONE',  ( -0.000000000000000000, -1.000000000000000000, -0.000000000000000000 ) ) ;
#124 = ORIENTED_EDGE ( 'NONE', *, *, #130, .F. ) ;
#125 = AXIS2_PLACEMENT_3D ( 'NONE', #194, #72, #30 ) ;
#126 = EDGE_LOOP ( 'NONE', ( #175, #264, #195, #102 ) ) ;
#127 = DIRECTION ( 'NONE',  ( -1.000000000000000000, 0.000000000000000000, 0.000000000000000000 ) ) ;
#128 = DIRECTION ( 'NONE',  ( 0.000000000000000000, 0.000000000000000000, -1.000000000000000000 ) ) ;
#129 = DIRECTION ( 'NONE',  ( -4.453261087808557677E-17, 1.000000000000000000, 0.000000000000000000 ) ) ;
#130 = EDGE_CURVE ( 'NONE', #47, #210, #135, .T. ) ;
#131 = DIRECTION ( 'NONE',  ( -4.453261087808557677E-17, 1.000000000000000000, -0.000000000000000000 ) ) ;
#132 = DIRECTION ( 'NONE',  ( -1.000000000000000000, 0.000000000000000000, 0.000000000000000000 ) ) ;
#133 = PRODUCT_DEFINITION_SHAPE ( 'NONE', 'NONE',  #2 ) ;
#134 = DIRECTION ( 'NONE',  ( -4.453261087808557677E-17, 1.000000000000000000, -0.000000000000000000 ) ) ;
#135 = CIRCLE ( 'NONE', #27, 0.3750000000000000555 ) ;
#136 = SURFACE_SIDE_STYLE ('',( #273 ) ) ;
#137 =( NAMED_UNIT ( * ) PLANE_ANGLE_UNIT ( ) SI_UNIT ( $, .RADIAN. ) );
#138 = CARTESIAN_POINT ( 'NONE',  ( 0.000000000000000000, 0.000000000000000000, -0.3750000000000000555 ) ) ;
#139 = UNCERTAINTY_MEASURE_WITH_UNIT (LENGTH_MEASURE( 1.000000000000000082E-05 ), #54, 'distance_accuracy_value', 'NONE');
#140 =( NAMED_UNIT ( * ) SI_UNIT ( $, .STERADIAN. ) SOLID_ANGLE_UNIT ( ) );
#141 = SURFACE_SIDE_STYLE ('',( #45 ) ) ;
#142 = CARTESIAN_POINT ( 'NONE',  ( 4.592425496802575451E-17, 2.250000000000000000, 0.3750000000000000555 ) ) ;
#143 = AXIS2_PLACEMENT_3D ( 'NONE', #158, #109, #201 ) ;
#144 = CARTESIAN_POINT ( 'NONE',  ( 0.000000000000000000, 0.000000000000000000, 0.000000000000000000 ) ) ;
#145 = ORIENTED_EDGE ( 'NONE', *, *, #90, .T. ) ;
#146 = FILL_AREA_STYLE_COLOUR ( '', #199 ) ;
#147 = EDGE_LOOP ( 'NONE', ( #171, #106 ) ) ;
#148 = ADVANCED_FACE ( 'NONE', ( #9 ), #277, .T. ) ;
#149 = LINE ( 'NONE', #243, #96 ) ;
#150 =( CONVERSION_BASED_UNIT ( 'INCH', #285 ) LENGTH_UNIT ( ) NAMED_UNIT ( #17 ) );
#151 = DIRECTION ( 'NONE',  ( -0.000000000000000000, -1.000000000000000000, -0.000000000000000000 ) ) ;
#152 =( NAMED_UNIT ( * ) SI_UNIT ( $, .STERADIAN. ) SOLID_ANGLE_UNIT ( ) );
#153 = PRESENTATION_LAYER_ASSIGNMENT (  '', '', ( #207 ) ) ;
#154 = PRODUCT_DEFINITION_FORMATION_WITH_SPECIFIED_SOURCE ( 'ANY', '', #254, .NOT_KNOWN. ) ;
#155 =( NAMED_UNIT ( * ) SI_UNIT ( $, .STERADIAN. ) SOLID_ANGLE_UNIT ( ) );
#156 = UNCERTAINTY_MEASURE_WITH_UNIT (LENGTH_MEASURE( 1.000000000000000082E-05 ), #188, 'distance_accuracy_value', 'NONE');
#157 = PLANE ( 'NONE',  #200 ) ;
#158 = CARTESIAN_POINT ( 'NONE',  ( 0.000000000000000000, 0.000000000000000000, 0.000000000000000000 ) ) ;
#159 = SURFACE_STYLE_USAGE ( .BOTH. , #180 ) ;
#160 =( NAMED_UNIT ( * ) SI_UNIT ( $, .STERADIAN. ) SOLID_ANGLE_UNIT ( ) );
#161 = AXIS2_PLACEMENT_3D ( 'NONE', #287, #123, #50 ) ;
#162 = COLOUR_RGB ( '',0.7921568627450980005, 0.8196078431372548767, 0.9333333333333333481 ) ;
#163 = LENGTH_MEASURE_WITH_UNIT ( LENGTH_MEASURE( 0.02539999999999999897 ), #1 );
#164 = SURFACE_SIDE_STYLE ('',( #184 ) ) ;
#165 = UNCERTAINTY_MEASURE_WITH_UNIT (LENGTH_MEASURE( 1.000000000000000082E-05 ), #150, 'distance_accuracy_value', 'NONE');
#166 = EDGE_LOOP ( 'NONE', ( #245, #213 ) ) ;
#167 = FACE_OUTER_BOUND ( 'NONE', #126, .T. ) ;
#168 = EDGE_CURVE ( 'NONE', #210, #47, #289, .T. ) ;
#169 = ORIENTED_EDGE ( 'NONE', *, *, #286, .F. ) ;
#170 = CARTESIAN_POINT ( 'NONE',  ( 0.000000000000000000, 2.250000000000000000, -0.3750000000000000555 ) ) ;
#171 = ORIENTED_EDGE ( 'NONE', *, *, #32, .F. ) ;
#172 = AXIS2_PLACEMENT_3D ( 'NONE', #209, #265, #292 ) ;
#173 = STYLED_ITEM ( 'NONE', ( #214 ), #94 ) ;
#174 = FILL_AREA_STYLE ('',( #295 ) ) ;
#175 = ORIENTED_EDGE ( 'NONE', *, *, #4, .F. ) ;
#176 =( CONVERSION_BASED_UNIT ( 'INCH', #35 ) LENGTH_UNIT ( ) NAMED_UNIT ( #10 ) );
#177 = MANIFOLD_SOLID_BREP ( 'Revolve - Tool Body (Straight Shanked)', #301 ) ;
#178 = LINE ( 'NONE', #275, #269 ) ;
#179 =( GEOMETRIC_REPRESENTATION_CONTEXT ( 3 ) GLOBAL_UNCERTAINTY_ASSIGNED_CONTEXT ( ( #182 ) ) GLOBAL_UNIT_ASSIGNED_CONTEXT ( ( #176, #274, #152 ) ) REPRESENTATION_CONTEXT ( 'NONE', 'WORKASPACE' ) );
#180 = SURFACE_SIDE_STYLE ('',( #248 ) ) ;
#181 = CARTESIAN_POINT ( 'NONE',  ( -1.224646799147353207E-16, 5.000000000000000000, 0.000000000000000000 ) ) ;
#182 = UNCERTAINTY_MEASURE_WITH_UNIT (LENGTH_MEASURE( 1.000000000000000082E-05 ), #176, 'distance_accuracy_value', 'NONE');
#183 = FILL_AREA_STYLE ('',( #86 ) ) ;
#184 = SURFACE_STYLE_FILL_AREA ( #259 ) ;
#185 = CIRCLE ( 'NONE', #119, 0.3750000000000000555 ) ;
#186 = STYLED_ITEM ( 'NONE', ( #221 ), #177 ) ;
#187 = ADVANCED_FACE ( 'NONE', ( #85 ), #157, .F. ) ;
#188 =( CONVERSION_BASED_UNIT ( 'INCH', #189 ) LENGTH_UNIT ( ) NAMED_UNIT ( #263 ) );
#189 = LENGTH_MEASURE_WITH_UNIT ( LENGTH_MEASURE( 0.02539999999999999897 ), #306 );
#190 = FACE_OUTER_BOUND ( 'NONE', #147, .T. ) ;
#191 =( NAMED_UNIT ( * ) SI_UNIT ( $, .STERADIAN. ) SOLID_ANGLE_UNIT ( ) );
#192 =( GEOMETRIC_REPRESENTATION_CONTEXT ( 3 ) GLOBAL_UNCERTAINTY_ASSIGNED_CONTEXT ( ( #156 ) ) GLOBAL_UNIT_ASSIGNED_CONTEXT ( ( #188, #137, #232 ) ) REPRESENTATION_CONTEXT ( 'NONE', 'WORKASPACE' ) );
#193 = VERTEX_POINT ( 'NONE', #38 ) ;
#194 = CARTESIAN_POINT ( 'NONE',  ( 0.000000000000000000, 2.250000000000000000, 0.000000000000000000 ) ) ;
#195 = ORIENTED_EDGE ( 'NONE', *, *, #63, .T. ) ;
#196 = DIRECTION ( 'NONE',  ( 4.453261087808557677E-17, -1.000000000000000000, 0.000000000000000000 ) ) ;
#197 = DIRECTION ( 'NONE',  ( -4.453261087808557677E-17, 1.000000000000000000, -0.000000000000000000 ) ) ;
#198 = CARTESIAN_POINT ( 'NONE',  ( 3.718412684285598933E-34, 2.250000000000000000, 0.000000000000000000 ) ) ;
#199 = COLOUR_RGB ( '',1.000000000000000000, 0.000000000000000000, 0.000000000000000000 ) ;
#200 = AXIS2_PLACEMENT_3D ( 'NONE', #198, #129, #252 ) ;
#201 = DIRECTION ( 'NONE',  ( 0.000000000000000000, 0.000000000000000000, -1.000000000000000000 ) ) ;
#202 = EDGE_CURVE ( 'NONE', #216, #238, #107, .T. ) ;
#203 = COLOUR_RGB ( '',1.000000000000000000, 0.000000000000000000, 0.000000000000000000 ) ;
#204 = CARTESIAN_POINT ( 'NONE',  ( 1.516480271171051896E-32, 2.250000000000000444, 0.000000000000000000 ) ) ;
#205 = DIRECTION ( 'NONE',  ( -0.000000000000000000, -1.000000000000000000, -0.000000000000000000 ) ) ;
#206 =( NAMED_UNIT ( * ) PLANE_ANGLE_UNIT ( ) SI_UNIT ( $, .RADIAN. ) );
#207 = STYLED_ITEM ( 'NONE', ( #40 ), #71 ) ;
#208 = AXIS2_PLACEMENT_3D ( 'NONE', #181, #305, #132 ) ;
#209 = CARTESIAN_POINT ( 'NONE',  ( -1.224646799147353207E-16, 5.000000000000000000, 0.000000000000000000 ) ) ;
#210 = VERTEX_POINT ( 'NONE', #223 ) ;
#211 =( LENGTH_UNIT ( ) NAMED_UNIT ( * ) SI_UNIT ( $, .METRE. ) );
#212 = DIMENSIONAL_EXPONENTS ( 1.000000000000000000, 0.000000000000000000, 0.000000000000000000, 0.000000000000000000, 0.000000000000000000, 0.000000000000000000, 0.000000000000000000 ) ;
#213 = ORIENTED_EDGE ( 'NONE', *, *, #20, .T. ) ;
#214 = PRESENTATION_STYLE_ASSIGNMENT (( #5 ) ) ;
#215 = AXIS2_PLACEMENT_3D ( 'NONE', #144, #122, #104 ) ;
#216 = VERTEX_POINT ( 'NONE', #279 ) ;
#217 = DIRECTION ( 'NONE',  ( -4.453261087808557677E-17, 1.000000000000000000, -0.000000000000000000 ) ) ;
#218 = FACE_OUTER_BOUND ( 'NONE', #25, .T. ) ;
#219 = APPLICATION_CONTEXT ( 'automotive_design' ) ;
#220 =( GEOMETRIC_REPRESENTATION_CONTEXT ( 3 ) GLOBAL_UNCERTAINTY_ASSIGNED_CONTEXT ( ( #139 ) ) GLOBAL_UNIT_ASSIGNED_CONTEXT ( ( #54, #298, #155 ) ) REPRESENTATION_CONTEXT ( 'NONE', 'WORKASPACE' ) );
#221 = PRESENTATION_STYLE_ASSIGNMENT (( #159 ) ) ;
#222 = SURFACE_STYLE_USAGE ( .BOTH. , #13 ) ;
#223 = CARTESIAN_POINT ( 'NONE',  ( -0.3750000000000000555, 2.250000000000000444, 0.000000000000000000 ) ) ;
#224 = DIRECTION ( 'NONE',  ( -1.000000000000000000, 0.000000000000000000, 0.000000000000000000 ) ) ;
#225 = MECHANICAL_DESIGN_GEOMETRIC_PRESENTATION_REPRESENTATION (  '', ( #241 ), #179 ) ;
#226 = DIMENSIONAL_EXPONENTS ( 1.000000000000000000, 0.000000000000000000, 0.000000000000000000, 0.000000000000000000, 0.000000000000000000, 0.000000000000000000, 0.000000000000000000 ) ;
#227 = CARTESIAN_POINT ( 'NONE',  ( 0.3750000000000000555, 2.250000000000000444, 4.592425496802576684E-17 ) ) ;
#228 = EDGE_CURVE ( 'NONE', #100, #121, #276, .T. ) ;
#229 = CIRCLE ( 'NONE', #256, 0.3750000000000001665 ) ;
#230 = CARTESIAN_POINT ( 'NONE',  ( 0.000000000000000000, 0.000000000000000000, -0.3750000000000000555 ) ) ;
#231 =( CONVERSION_BASED_UNIT ( 'INCH', #163 ) LENGTH_UNIT ( ) NAMED_UNIT ( #212 ) );
#232 =( NAMED_UNIT ( * ) SI_UNIT ( $, .STERADIAN. ) SOLID_ANGLE_UNIT ( ) );
#233 = SURFACE_STYLE_USAGE ( .BOTH. , #141 ) ;
#234 =( GEOMETRIC_REPRESENTATION_CONTEXT ( 3 ) GLOBAL_UNCERTAINTY_ASSIGNED_CONTEXT ( ( #278 ) ) GLOBAL_UNIT_ASSIGNED_CONTEXT ( ( #68, #28, #191 ) ) REPRESENTATION_CONTEXT ( 'NONE', 'WORKASPACE' ) );
#235 = APPLICATION_CONTEXT ( 'automotive_design' ) ;
#236 = MECHANICAL_DESIGN_GEOMETRIC_PRESENTATION_REPRESENTATION (  '', ( #186 ), #220 ) ;
#237 =( LENGTH_UNIT ( ) NAMED_UNIT ( * ) SI_UNIT ( $, .METRE. ) );
#238 = VERTEX_POINT ( 'NONE', #19 ) ;
#239 = VERTEX_POINT ( 'NONE', #230 ) ;
#240 = FILL_AREA_STYLE ('',( #146 ) ) ;
#241 = STYLED_ITEM ( 'NONE', ( #78 ), #148 ) ;
#242 = AXIS2_PLACEMENT_3D ( 'NONE', #118, #205, #87 ) ;
#243 = CARTESIAN_POINT ( 'NONE',  ( 0.3749999999999999445, 5.000000000000000000, 4.592425496802576068E-17 ) ) ;
#244 = DIMENSIONAL_EXPONENTS ( 1.000000000000000000, 0.000000000000000000, 0.000000000000000000, 0.000000000000000000, 0.000000000000000000, 0.000000000000000000, 0.000000000000000000 ) ;
#245 = ORIENTED_EDGE ( 'NONE', *, *, #202, .T. ) ;
#246 = LENGTH_MEASURE_WITH_UNIT ( LENGTH_MEASURE( 0.02539999999999999897 ), #18 );
#247 = SURFACE_STYLE_FILL_AREA ( #82 ) ;
#248 = SURFACE_STYLE_FILL_AREA ( #14 ) ;
#249 =( GEOMETRIC_REPRESENTATION_CONTEXT ( 3 ) GLOBAL_UNCERTAINTY_ASSIGNED_CONTEXT ( ( #165 ) ) GLOBAL_UNIT_ASSIGNED_CONTEXT ( ( #150, #101, #267 ) ) REPRESENTATION_CONTEXT ( 'NONE', 'WORKASPACE' ) );
#250 = FILL_AREA_STYLE_COLOUR ( '', #162 ) ;
#251 = FILL_AREA_STYLE_COLOUR ( '', #23 ) ;
#252 = DIRECTION ( 'NONE',  ( -1.000000000000000000, -4.453261087808557677E-17, 0.000000000000000000 ) ) ;
#253 =( LENGTH_UNIT ( ) NAMED_UNIT ( * ) SI_UNIT ( $, .METRE. ) );
#254 = PRODUCT ( '59854', '59854', '', ( #21 ) ) ;
#255 = DIRECTION ( 'NONE',  ( 0.000000000000000000, 0.000000000000000000, -1.000000000000000000 ) ) ;
#256 = AXIS2_PLACEMENT_3D ( 'NONE', #29, #197, #77 ) ;
#257 = AXIS2_PLACEMENT_3D ( 'NONE', #261, #3, #113 ) ;
#258 = EDGE_CURVE ( 'NONE', #193, #239, #56, .T. ) ;
#259 = FILL_AREA_STYLE ('',( #308 ) ) ;
#260 = DIRECTION ( 'NONE',  ( -0.000000000000000000, -1.000000000000000000, -0.000000000000000000 ) ) ;
#261 = CARTESIAN_POINT ( 'NONE',  ( 0.000000000000000000, 0.000000000000000000, 0.000000000000000000 ) ) ;
#262 = LENGTH_MEASURE_WITH_UNIT ( LENGTH_MEASURE( 0.02539999999999999897 ), #211 );
#263 = DIMENSIONAL_EXPONENTS ( 1.000000000000000000, 0.000000000000000000, 0.000000000000000000, 0.000000000000000000, 0.000000000000000000, 0.000000000000000000, 0.000000000000000000 ) ;
#264 = ORIENTED_EDGE ( 'NONE', *, *, #130, .T. ) ;
#265 = DIRECTION ( 'NONE',  ( -4.453261087808557677E-17, 1.000000000000000000, -0.000000000000000000 ) ) ;
#266 = EDGE_LOOP ( 'NONE', ( #271, #124 ) ) ;
#267 =( NAMED_UNIT ( * ) SI_UNIT ( $, .STERADIAN. ) SOLID_ANGLE_UNIT ( ) );
#268 = CARTESIAN_POINT ( 'NONE',  ( 1.516480271171051896E-32, 2.250000000000000444, 0.000000000000000000 ) ) ;
#269 = VECTOR ( 'NONE', #134, 39.37007874015748143 ) ;
#270 = COLOUR_RGB ( '',0.7921568627450980005, 0.8196078431372548767, 0.9333333333333333481 ) ;
#271 = ORIENTED_EDGE ( 'NONE', *, *, #168, .F. ) ;
#272 = ORIENTED_EDGE ( 'NONE', *, *, #286, .T. ) ;
#273 = SURFACE_STYLE_FILL_AREA ( #174 ) ;
#274 =( NAMED_UNIT ( * ) PLANE_ANGLE_UNIT ( ) SI_UNIT ( $, .RADIAN. ) );
#275 = CARTESIAN_POINT ( 'NONE',  ( -0.3750000000000002220, 5.000000000000000000, 0.000000000000000000 ) ) ;
#276 = CIRCLE ( 'NONE', #92, 0.3750000000000000555 ) ;
#277 = PLANE ( 'NONE',  #62 ) ;
#278 = UNCERTAINTY_MEASURE_WITH_UNIT (LENGTH_MEASURE( 1.000000000000000082E-05 ), #68, 'distance_accuracy_value', 'NONE');
#279 = CARTESIAN_POINT ( 'NONE',  ( -0.3750000000000002776, 5.000000000000000000, 0.000000000000000000 ) ) ;
#280 = VECTOR ( 'NONE', #260, 39.37007874015748143 ) ;
#281 = LINE ( 'NONE', #283, #97 ) ;
#282 = MANIFOLD_SOLID_BREP ( 'Revolve - Cutting Edge', #15 ) ;
#283 = CARTESIAN_POINT ( 'NONE',  ( 4.592425496802575451E-17, 0.000000000000000000, 0.3750000000000000555 ) ) ;
#284 = SHAPE_DEFINITION_REPRESENTATION ( #133, #98 ) ;
#285 = LENGTH_MEASURE_WITH_UNIT ( LENGTH_MEASURE( 0.02539999999999999897 ), #237 );
#286 = EDGE_CURVE ( 'NONE', #121, #239, #93, .T. ) ;
#287 = CARTESIAN_POINT ( 'NONE',  ( 0.000000000000000000, 0.000000000000000000, 0.000000000000000000 ) ) ;
#288 = ORIENTED_EDGE ( 'NONE', *, *, #297, .T. ) ;
#289 = CIRCLE ( 'NONE', #296, 0.3750000000000000555 ) ;
#290 = PLANE ( 'NONE',  #125 ) ;
#291 = EDGE_LOOP ( 'NONE', ( #75, #31, #272, #8 ) ) ;
#292 = DIRECTION ( 'NONE',  ( -1.000000000000000000, 0.000000000000000000, 0.000000000000000000 ) ) ;
#293 = ORIENTED_EDGE ( 'NONE', *, *, #168, .T. ) ;
#294 = PRESENTATION_LAYER_ASSIGNMENT (  '', '', ( #116 ) ) ;
#295 = FILL_AREA_STYLE_COLOUR ( '', #203 ) ;
#296 = AXIS2_PLACEMENT_3D ( 'NONE', #204, #131, #80 ) ;
#297 = EDGE_CURVE ( 'NONE', #100, #193, #281, .T. ) ;
#298 =( NAMED_UNIT ( * ) PLANE_ANGLE_UNIT ( ) SI_UNIT ( $, .RADIAN. ) );
#299 = CYLINDRICAL_SURFACE ( 'NONE', #143, 0.3750000000000000555 ) ;
#300 = PRODUCT_RELATED_PRODUCT_CATEGORY ( 'part', '', ( #254 ) ) ;
#301 = CLOSED_SHELL ( 'NONE', ( #41, #187, #114, #117 ) ) ;
#302 =( NAMED_UNIT ( * ) PLANE_ANGLE_UNIT ( ) SI_UNIT ( $, .RADIAN. ) );
#303 = AXIS2_PLACEMENT_3D ( 'NONE', #105, #196, #76 ) ;
#304 = MECHANICAL_DESIGN_GEOMETRIC_PRESENTATION_REPRESENTATION (  '', ( #103 ), #84 ) ;
#305 = DIRECTION ( 'NONE',  ( -4.453261087808557677E-17, 1.000000000000000000, -0.000000000000000000 ) ) ;
#306 =( LENGTH_UNIT ( ) NAMED_UNIT ( * ) SI_UNIT ( $, .METRE. ) );
#307 =( CONVERSION_BASED_UNIT ( 'INCH', #36 ) LENGTH_UNIT ( ) NAMED_UNIT ( #226 ) );
#308 = FILL_AREA_STYLE_COLOUR ( '', #270 ) ;
#309 =( GEOMETRIC_REPRESENTATION_CONTEXT ( 3 ) GLOBAL_UNCERTAINTY_ASSIGNED_CONTEXT ( ( #22 ) ) GLOBAL_UNIT_ASSIGNED_CONTEXT ( ( #307, #302, #160 ) ) REPRESENTATION_CONTEXT ( 'NONE', 'WORKASPACE' ) );
ENDSEC;
END-ISO-10303-21;
