ISO-10303-21;
HEADER;
FILE_DESCRIPTION (( 'STEP AP214' ),
    '1' );
FILE_NAME ('Micro_SBMM-030-321.STEP',
    '2021-09-02T17:07:15',
    ( '' ),
    ( '' ),
    'SwSTEP 2.0',
    'SolidWorks 2020',
    '' );
FILE_SCHEMA (( 'AUTOMOTIVE_DESIGN' ));
ENDSEC;

DATA;
#1 = ORIENTED_EDGE ( 'NONE', *, *, #210, .F. ) ;
#2 = CIRCLE ( 'NONE', #308, 0.1031099999999991745 ) ;
#3 = SURFACE_STYLE_FILL_AREA ( #344 ) ;
#4 = ORIENTED_EDGE ( 'NONE', *, *, #297, .T. ) ;
#5 = ORIENTED_EDGE ( 'NONE', *, *, #59, .F. ) ;
#6 = APPLICATION_CONTEXT ( 'automotive_design' ) ;
#7 = ORIENTED_EDGE ( 'NONE', *, *, #112, .F. ) ;
#8 = AXIS2_PLACEMENT_3D ( 'NONE', #339, #208, #151 ) ;
#9 = DIRECTION ( 'NONE',  ( 0.0000000000000000000, 0.0000000000000000000, 1.000000000000000000 ) ) ;
#10 = DIRECTION ( 'NONE',  ( -0.0000000000000000000, -0.0000000000000000000, -1.000000000000000000 ) ) ;
#11 = DIRECTION ( 'NONE',  ( -0.0000000000000000000, -0.0000000000000000000, -1.000000000000000000 ) ) ;
#12 = AXIS2_PLACEMENT_3D ( 'NONE', #231, #334, #229 ) ;
#13 = CARTESIAN_POINT ( 'NONE',  ( 4.821434448243127714E-18, -0.03936999999999998140, 0.1030719981370833843 ) ) ;
#14 = ORIENTED_EDGE ( 'NONE', *, *, #219, .F. ) ;
#15 = EDGE_CURVE ( 'NONE', #159, #93, #115, .T. ) ;
#16 = DIRECTION ( 'NONE',  ( 1.000000000000000000, 0.0000000000000000000, 0.0000000000000000000 ) ) ;
#17 = DIRECTION ( 'NONE',  ( -0.0000000000000000000, -0.0000000000000000000, -1.000000000000000000 ) ) ;
#18 = LINE ( 'NONE', #123, #64 ) ;
#19 = DIRECTION ( 'NONE',  ( 0.0000000000000000000, 0.0000000000000000000, 1.000000000000000000 ) ) ;
#20 = DIRECTION ( 'NONE',  ( 1.000000000000000000, 0.0000000000000000000, 0.0000000000000000000 ) ) ;
#21 = ADVANCED_FACE ( 'NONE', ( #91 ), #169, .T. ) ;
#22 = VECTOR ( 'NONE', #147, 39.37007874015748143 ) ;
#23 = PRODUCT_DEFINITION_FORMATION_WITH_SPECIFIED_SOURCE ( 'ANY', '', #69, .NOT_KNOWN. ) ;
#24 = CARTESIAN_POINT ( 'NONE',  ( -0.1181100000000000344, 0.0000000000000000000, 2.937755999999999368 ) ) ;
#25 = CARTESIAN_POINT ( 'NONE',  ( 0.0000000000000000000, 0.0000000000000000000, 1.692912999999999890 ) ) ;
#26 = DIRECTION ( 'NONE',  ( -1.000000000000000000, 0.0000000000000000000, 0.0000000000000000000 ) ) ;
#27 = APPLICATION_PROTOCOL_DEFINITION ( 'draft international standard', 'automotive_design', 1998, #6 ) ;
#28 =( CONVERSION_BASED_UNIT ( 'INCH', #186 ) LENGTH_UNIT ( ) NAMED_UNIT ( #100 ) );
#29 = EDGE_LOOP ( 'NONE', ( #268, #269, #216, #105 ) ) ;
#30 = AXIS2_PLACEMENT_3D ( 'NONE', #25, #103, #278 ) ;
#31 = ORIENTED_EDGE ( 'NONE', *, *, #193, .T. ) ;
#32 = AXIS2_PLACEMENT_3D ( 'NONE', #331, #139, #90 ) ;
#33 = ORIENTED_EDGE ( 'NONE', *, *, #86, .F. ) ;
#34 = EDGE_CURVE ( 'NONE', #89, #60, #194, .T. ) ;
#35 = DIRECTION ( 'NONE',  ( 1.000000000000000000, 0.0000000000000000000, 0.0000000000000000000 ) ) ;
#36 = VERTEX_POINT ( 'NONE', #13 ) ;
#37 = DIRECTION ( 'NONE',  ( -1.224646799147353207E-16, 1.000000000000000000, 0.0000000000000000000 ) ) ;
#38 =( CONVERSION_BASED_UNIT ( 'INCH', #272 ) LENGTH_UNIT ( ) NAMED_UNIT ( #312 ) );
#39 = CARTESIAN_POINT ( 'NONE',  ( -0.1181100000000000344, 0.0000000000000000000, 2.952755999999999936 ) ) ;
#40 = CLOSED_SHELL ( 'NONE', ( #185, #152, #75, #291, #284, #173, #51, #333, #215, #21, #206 ) ) ;
#41 = CARTESIAN_POINT ( 'NONE',  ( 0.1299209999999997867, 0.0000000000000000000, 1.822834149999997377 ) ) ;
#42 = FACE_OUTER_BOUND ( 'NONE', #106, .T. ) ;
#43 = DIRECTION ( 'NONE',  ( -1.000000000000000000, 0.0000000000000000000, 0.0000000000000000000 ) ) ;
#44 = CARTESIAN_POINT ( 'NONE',  ( 0.0000000000000000000, 0.0000000000000000000, 0.0000000000000000000 ) ) ;
#45 = FACE_OUTER_BOUND ( 'NONE', #164, .T. ) ;
#46 = CARTESIAN_POINT ( 'NONE',  ( -0.1031099999999991745, 0.0000000000000000000, 2.952755999999999936 ) ) ;
#47 = CYLINDRICAL_SURFACE ( 'NONE', #120, 0.1181100000000000344 ) ;
#48 = PRODUCT_CONTEXT ( 'NONE', #6, 'mechanical' ) ;
#49 = AXIS2_PLACEMENT_3D ( 'NONE', #182, #79, #203 ) ;
#50 = EDGE_CURVE ( 'NONE', #36, #191, #127, .T. ) ;
#51 = ADVANCED_FACE ( 'NONE', ( #246 ), #118, .T. ) ;
#52 =( LENGTH_UNIT ( ) NAMED_UNIT ( * ) SI_UNIT ( $, .METRE. ) );
#53 = ORIENTED_EDGE ( 'NONE', *, *, #108, .F. ) ;
#54 = EDGE_CURVE ( 'NONE', #93, #320, #134, .T. ) ;
#55 =( NAMED_UNIT ( * ) SI_UNIT ( $, .STERADIAN. ) SOLID_ANGLE_UNIT ( ) );
#56 =( GEOMETRIC_REPRESENTATION_CONTEXT ( 3 ) GLOBAL_UNCERTAINTY_ASSIGNED_CONTEXT ( ( #196 ) ) GLOBAL_UNIT_ASSIGNED_CONTEXT ( ( #254, #228, #230 ) ) REPRESENTATION_CONTEXT ( 'NONE', 'WORKASPACE' ) );
#57 = DIRECTION ( 'NONE',  ( 0.0000000000000000000, 0.0000000000000000000, 1.000000000000000000 ) ) ;
#58 = ORIENTED_EDGE ( 'NONE', *, *, #252, .T. ) ;
#59 = EDGE_CURVE ( 'NONE', #93, #345, #248, .T. ) ;
#60 = VERTEX_POINT ( 'NONE', #117 ) ;
#61 = EDGE_LOOP ( 'NONE', ( #53, #212, #110, #247 ) ) ;
#62 = LINE ( 'NONE', #224, #22 ) ;
#63 = COLOUR_RGB ( '',0.7921568627450980005, 0.8196078431372548767, 0.9333333333333333481 ) ;
#64 = VECTOR ( 'NONE', #309, 39.37007874015748143 ) ;
#65 = UNCERTAINTY_MEASURE_WITH_UNIT (LENGTH_MEASURE( 1.000000000000000082E-05 ), #38, 'distance_accuracy_value', 'NONE');
#66 = CONICAL_SURFACE ( 'NONE', #32, 0.1299209999999997867, 0.09065978310229558246 ) ;
#67 = DIRECTION ( 'NONE',  ( -0.7071067811865486830, 0.0000000000000000000, -0.7071067811865462405 ) ) ;
#68 = LENGTH_MEASURE_WITH_UNIT ( LENGTH_MEASURE( 0.02539999999999999897 ), #287 );
#69 = PRODUCT ( 'Micro_SBMM-030-321', 'Micro_SBMM-030-321', '', ( #48 ) ) ;
#70 = MANIFOLD_SOLID_BREP ( 'Cut-Revolve3', #40 ) ;
#71 = DIRECTION ( 'NONE',  ( -1.000000000000000000, 0.0000000000000000000, 0.0000000000000000000 ) ) ;
#72 = DIRECTION ( 'NONE',  ( 1.000000000000000000, 0.0000000000000000000, 0.0000000000000000000 ) ) ;
#73 = DIRECTION ( 'NONE',  ( 0.0000000000000000000, 0.0000000000000000000, -1.000000000000000000 ) ) ;
#74 = CONICAL_SURFACE ( 'NONE', #165, 0.1031099999999991745, 0.7853981633974500554 ) ;
#75 = ADVANCED_FACE ( 'NONE', ( #114 ), #66, .T. ) ;
#76 = DIRECTION ( 'NONE',  ( -0.0000000000000000000, -0.0000000000000000000, -1.000000000000000000 ) ) ;
#77 = CARTESIAN_POINT ( 'NONE',  ( 0.0000000000000000000, 0.0000000000000000000, 0.1030719981370833843 ) ) ;
#78 = CARTESIAN_POINT ( 'NONE',  ( -0.03936999999999998140, 0.0000000000000000000, 0.1030719981370833843 ) ) ;
#79 = DIRECTION ( 'NONE',  ( -0.0000000000000000000, -0.0000000000000000000, -1.000000000000000000 ) ) ;
#80 = CIRCLE ( 'NONE', #280, 0.05905499999999998945 ) ;
#81 = ORIENTED_EDGE ( 'NONE', *, *, #271, .T. ) ;
#82 = EDGE_CURVE ( 'NONE', #218, #222, #62, .T. ) ;
#83 = SURFACE_STYLE_USAGE ( .BOTH. , #188 ) ;
#84 = VERTEX_POINT ( 'NONE', #119 ) ;
#85 = VECTOR ( 'NONE', #209, 39.37007874015748854 ) ;
#86 = EDGE_CURVE ( 'NONE', #89, #218, #94, .T. ) ;
#87 = ORIENTED_EDGE ( 'NONE', *, *, #34, .F. ) ;
#88 =( GEOMETRIC_REPRESENTATION_CONTEXT ( 3 ) GLOBAL_UNCERTAINTY_ASSIGNED_CONTEXT ( ( #65 ) ) GLOBAL_UNIT_ASSIGNED_CONTEXT ( ( #38, #273, #324 ) ) REPRESENTATION_CONTEXT ( 'NONE', 'WORKASPACE' ) );
#89 = VERTEX_POINT ( 'NONE', #145 ) ;
#90 = DIRECTION ( 'NONE',  ( 1.000000000000000000, 0.0000000000000000000, 0.0000000000000000000 ) ) ;
#91 = FACE_OUTER_BOUND ( 'NONE', #136, .T. ) ;
#92 = SURFACE_STYLE_USAGE ( .BOTH. , #226 ) ;
#93 = VERTEX_POINT ( 'NONE', #24 ) ;
#94 = CIRCLE ( 'NONE', #12, 0.03936999999999990507 ) ;
#95 = CARTESIAN_POINT ( 'NONE',  ( 0.0000000000000000000, 0.0000000000000000000, 0.1030719981370833843 ) ) ;
#96 = CARTESIAN_POINT ( 'NONE',  ( 0.03936999999999993977, 4.821434448243122321E-18, 0.0000000000000000000 ) ) ;
#97 = APPLICATION_CONTEXT ( 'automotive_design' ) ;
#98 = DIRECTION ( 'NONE',  ( -0.0000000000000000000, -0.0000000000000000000, -1.000000000000000000 ) ) ;
#99 = CARTESIAN_POINT ( 'NONE',  ( 0.0000000000000000000, 0.0000000000000000000, 0.0000000000000000000 ) ) ;
#100 = DIMENSIONAL_EXPONENTS ( 1.000000000000000000, 0.0000000000000000000, 0.0000000000000000000, 0.0000000000000000000, 0.0000000000000000000, 0.0000000000000000000, 0.0000000000000000000 ) ;
#101 = CARTESIAN_POINT ( 'NONE',  ( 0.0000000000000000000, 0.03936999999999998140, 0.1030719981370833843 ) ) ;
#102 = DIRECTION ( 'NONE',  ( 0.0000000000000000000, 0.0000000000000000000, -1.000000000000000000 ) ) ;
#103 = DIRECTION ( 'NONE',  ( 0.0000000000000000000, 0.0000000000000000000, 1.000000000000000000 ) ) ;
#104 = CARTESIAN_POINT ( 'NONE',  ( 0.0000000000000000000, 0.0000000000000000000, 2.952755999999999936 ) ) ;
#105 = ORIENTED_EDGE ( 'NONE', *, *, #15, .F. ) ;
#106 = EDGE_LOOP ( 'NONE', ( #192, #187, #323, #113, #158 ) ) ;
#107 = EDGE_LOOP ( 'NONE', ( #7, #132, #161, #296, #14 ) ) ;
#108 = EDGE_CURVE ( 'NONE', #111, #320, #149, .T. ) ;
#109 = APPLICATION_PROTOCOL_DEFINITION ( 'draft international standard', 'automotive_design', 1998, #97 ) ;
#110 = ORIENTED_EDGE ( 'NONE', *, *, #15, .T. ) ;
#111 = VERTEX_POINT ( 'NONE', #121 ) ;
#112 = EDGE_CURVE ( 'NONE', #89, #84, #314, .T. ) ;
#113 = ORIENTED_EDGE ( 'NONE', *, *, #146, .F. ) ;
#114 = FACE_OUTER_BOUND ( 'NONE', #242, .T. ) ;
#115 = LINE ( 'NONE', #330, #295 ) ;
#116 = AXIS2_PLACEMENT_3D ( 'NONE', #249, #304, #167 ) ;
#117 = CARTESIAN_POINT ( 'NONE',  ( 0.1181100000000000344, 1.446430334472939084E-17, 1.692912999999999890 ) ) ;
#118 = PLANE ( 'NONE',  #221 ) ;
#119 = CARTESIAN_POINT ( 'NONE',  ( 0.03936999999999998140, 4.821434448243128484E-18, 0.1030719981370833843 ) ) ;
#120 = AXIS2_PLACEMENT_3D ( 'NONE', #104, #10, #232 ) ;
#121 = CARTESIAN_POINT ( 'NONE',  ( 0.1031099999999991745, 1.354581824536882559E-17, 2.952755999999999936 ) ) ;
#122 = DIRECTION ( 'NONE',  ( -1.000000000000000000, 0.0000000000000000000, 0.0000000000000000000 ) ) ;
#123 = CARTESIAN_POINT ( 'NONE',  ( 0.1181100000000000344, 1.446430334472939084E-17, 2.952755999999999936 ) ) ;
#124 = DIRECTION ( 'NONE',  ( 1.000000000000000000, 0.0000000000000000000, 0.0000000000000000000 ) ) ;
#125 = DIRECTION ( 'NONE',  ( -1.000000000000000000, 0.0000000000000000000, 0.0000000000000000000 ) ) ;
#126 = AXIS2_PLACEMENT_3D ( 'NONE', #259, #102, #16 ) ;
#127 = CIRCLE ( 'NONE', #282, 0.05905499999999999639 ) ;
#128 = CYLINDRICAL_SURFACE ( 'NONE', #190, 0.1181100000000000344 ) ;
#129 = CARTESIAN_POINT ( 'NONE',  ( 0.1181100000000000344, 1.446430334472939084E-17, 2.937755999999999368 ) ) ;
#130 = FACE_OUTER_BOUND ( 'NONE', #214, .T. ) ;
#131 = ORIENTED_EDGE ( 'NONE', *, *, #250, .T. ) ;
#132 = ORIENTED_EDGE ( 'NONE', *, *, #86, .T. ) ;
#133 =( GEOMETRIC_REPRESENTATION_CONTEXT ( 3 ) GLOBAL_UNCERTAINTY_ASSIGNED_CONTEXT ( ( #325 ) ) GLOBAL_UNIT_ASSIGNED_CONTEXT ( ( #28, #292, #55 ) ) REPRESENTATION_CONTEXT ( 'NONE', 'WORKASPACE' ) );
#134 = CIRCLE ( 'NONE', #235, 0.1181100000000000344 ) ;
#135 = SHAPE_DEFINITION_REPRESENTATION ( #201, #220 ) ;
#136 = EDGE_LOOP ( 'NONE', ( #294, #243, #244, #81 ) ) ;
#137 = ORIENTED_EDGE ( 'NONE', *, *, #219, .T. ) ;
#138 = CIRCLE ( 'NONE', #30, 0.1181100000000000344 ) ;
#139 = DIRECTION ( 'NONE',  ( 0.0000000000000000000, 0.0000000000000000000, 1.000000000000000000 ) ) ;
#140 = AXIS2_PLACEMENT_3D ( 'NONE', #95, #200, #258 ) ;
#141 = FILL_AREA_STYLE ('',( #328 ) ) ;
#142 = DIRECTION ( 'NONE',  ( 1.000000000000000000, 1.224646799147353207E-16, -0.0000000000000000000 ) ) ;
#143 = ORIENTED_EDGE ( 'NONE', *, *, #181, .T. ) ;
#144 = DIRECTION ( 'NONE',  ( 1.000000000000000000, 0.0000000000000000000, 0.0000000000000000000 ) ) ;
#145 = CARTESIAN_POINT ( 'NONE',  ( 0.03936999999999990507, 0.0000000000000000000, 0.8267719999999999514 ) ) ;
#146 = EDGE_CURVE ( 'NONE', #222, #318, #335, .T. ) ;
#147 = DIRECTION ( 'NONE',  ( -0.0000000000000000000, -0.0000000000000000000, -1.000000000000000000 ) ) ;
#148 = AXIS2_PLACEMENT_3D ( 'NONE', #155, #288, #26 ) ;
#149 = LINE ( 'NONE', #227, #207 ) ;
#150 = DIRECTION ( 'NONE',  ( 0.0000000000000000000, 0.0000000000000000000, 1.000000000000000000 ) ) ;
#151 = DIRECTION ( 'NONE',  ( -1.000000000000000000, 0.0000000000000000000, 0.0000000000000000000 ) ) ;
#152 = ADVANCED_FACE ( 'NONE', ( #337 ), #306, .T. ) ;
#153 = STYLED_ITEM ( 'NONE', ( #217 ), #220 ) ;
#154 = AXIS2_PLACEMENT_3D ( 'NONE', #253, #150, #20 ) ;
#155 = CARTESIAN_POINT ( 'NONE',  ( 0.0000000000000000000, 0.0000000000000000000, 0.1030719981370833843 ) ) ;
#156 = DIMENSIONAL_EXPONENTS ( 1.000000000000000000, 0.0000000000000000000, 0.0000000000000000000, 0.0000000000000000000, 0.0000000000000000000, 0.0000000000000000000, 0.0000000000000000000 ) ;
#157 = CARTESIAN_POINT ( 'NONE',  ( 0.0000000000000000000, 0.0000000000000000000, 0.0000000000000000000 ) ) ;
#158 = ORIENTED_EDGE ( 'NONE', *, *, #82, .F. ) ;
#159 = VERTEX_POINT ( 'NONE', #46 ) ;
#160 = CIRCLE ( 'NONE', #303, 0.1181100000000000344 ) ;
#161 = ORIENTED_EDGE ( 'NONE', *, *, #82, .T. ) ;
#162 = EDGE_CURVE ( 'NONE', #218, #89, #171, .T. ) ;
#163 = EDGE_LOOP ( 'NONE', ( #1, #270, #265, #302 ) ) ;
#164 = EDGE_LOOP ( 'NONE', ( #264, #33, #293, #300 ) ) ;
#165 = AXIS2_PLACEMENT_3D ( 'NONE', #338, #205, #310 ) ;
#166 = DIRECTION ( 'NONE',  ( 0.09053564237157933625, 0.0000000000000000000, 0.9958932158923291533 ) ) ;
#167 = DIRECTION ( 'NONE',  ( 0.0000000000000000000, 1.000000000000000000, 0.0000000000000000000 ) ) ;
#168 = STYLED_ITEM ( 'NONE', ( #199 ), #70 ) ;
#169 = SPHERICAL_SURFACE ( 'NONE', #116, 0.05905499999999999639 ) ;
#170 = CIRCLE ( 'NONE', #332, 0.03936999999999998140 ) ;
#171 = CIRCLE ( 'NONE', #49, 0.03936999999999990507 ) ;
#172 = CARTESIAN_POINT ( 'NONE',  ( 0.0000000000000000000, 0.0000000000000000000, 2.952755999999999936 ) ) ;
#173 = ADVANCED_FACE ( 'NONE', ( #307 ), #128, .T. ) ;
#174 = FACE_OUTER_BOUND ( 'NONE', #61, .T. ) ;
#175 = LINE ( 'NONE', #279, #85 ) ;
#176 = CARTESIAN_POINT ( 'NONE',  ( 0.0000000000000000000, 0.0000000000000000000, 1.692912999999999890 ) ) ;
#177 = CARTESIAN_POINT ( 'NONE',  ( 0.0000000000000000000, 0.0000000000000000000, 0.05905500000000000332 ) ) ;
#178 = COLOUR_RGB ( '',0.7921568627450980005, 0.8196078431372548767, 0.9333333333333333481 ) ;
#179 = CARTESIAN_POINT ( 'NONE',  ( 0.0000000000000000000, 0.0000000000000000000, 2.952755999999999936 ) ) ;
#180 = CARTESIAN_POINT ( 'NONE',  ( -0.1181100000000000344, 0.0000000000000000000, 1.692912999999999890 ) ) ;
#181 = EDGE_CURVE ( 'NONE', #218, #345, #175, .T. ) ;
#182 = CARTESIAN_POINT ( 'NONE',  ( 0.0000000000000000000, 0.0000000000000000000, 0.8267719999999999514 ) ) ;
#183 = DIRECTION ( 'NONE',  ( -1.000000000000000000, 0.0000000000000000000, 0.0000000000000000000 ) ) ;
#184 = ORIENTED_EDGE ( 'NONE', *, *, #297, .F. ) ;
#185 = ADVANCED_FACE ( 'NONE', ( #42 ), #255, .T. ) ;
#186 = LENGTH_MEASURE_WITH_UNIT ( LENGTH_MEASURE( 0.02539999999999999897 ), #52 );
#187 = ORIENTED_EDGE ( 'NONE', *, *, #112, .T. ) ;
#188 = SURFACE_SIDE_STYLE ('',( #3 ) ) ;
#189 = ORIENTED_EDGE ( 'NONE', *, *, #210, .T. ) ;
#190 = AXIS2_PLACEMENT_3D ( 'NONE', #313, #76, #71 ) ;
#191 = VERTEX_POINT ( 'NONE', #236 ) ;
#192 = ORIENTED_EDGE ( 'NONE', *, *, #162, .T. ) ;
#193 = EDGE_CURVE ( 'NONE', #111, #159, #260, .T. ) ;
#194 = LINE ( 'NONE', #41, #267 ) ;
#195 = CARTESIAN_POINT ( 'NONE',  ( 0.0000000000000000000, 0.0000000000000000000, 2.937755999999999368 ) ) ;
#196 = UNCERTAINTY_MEASURE_WITH_UNIT (LENGTH_MEASURE( 1.000000000000000082E-05 ), #254, 'distance_accuracy_value', 'NONE');
#197 = CONICAL_SURFACE ( 'NONE', #154, 0.1299209999999997867, 0.09065978310229558246 ) ;
#198 = CARTESIAN_POINT ( 'NONE',  ( 0.0000000000000000000, 0.0000000000000000000, 0.05905500000000000332 ) ) ;
#199 = PRESENTATION_STYLE_ASSIGNMENT (( #92 ) ) ;
#200 = DIRECTION ( 'NONE',  ( -0.0000000000000000000, -0.0000000000000000000, -1.000000000000000000 ) ) ;
#201 = PRODUCT_DEFINITION_SHAPE ( 'NONE', 'NONE',  #315 ) ;
#202 = PRODUCT_RELATED_PRODUCT_CATEGORY ( 'part', '', ( #69 ) ) ;
#203 = DIRECTION ( 'NONE',  ( -1.000000000000000000, 0.0000000000000000000, 0.0000000000000000000 ) ) ;
#204 = DIRECTION ( 'NONE',  ( 1.000000000000000000, 0.0000000000000000000, 0.0000000000000000000 ) ) ;
#205 = DIRECTION ( 'NONE',  ( 0.0000000000000000000, 0.0000000000000000000, -1.000000000000000000 ) ) ;
#206 = ADVANCED_FACE ( 'NONE', ( #281 ), #277, .T. ) ;
#207 = VECTOR ( 'NONE', #286, 39.37007874015748854 ) ;
#208 = DIRECTION ( 'NONE',  ( -0.0000000000000000000, -0.0000000000000000000, -1.000000000000000000 ) ) ;
#209 = DIRECTION ( 'NONE',  ( -0.09053564237157933625, 1.108741846391041270E-17, 0.9958932158923291533 ) ) ;
#210 = EDGE_CURVE ( 'NONE', #320, #60, #18, .T. ) ;
#211 = CARTESIAN_POINT ( 'NONE',  ( 0.0000000000000000000, 0.0000000000000000000, 2.952755999999999936 ) ) ;
#212 = ORIENTED_EDGE ( 'NONE', *, *, #252, .F. ) ;
#213 = MECHANICAL_DESIGN_GEOMETRIC_PRESENTATION_REPRESENTATION (  '', ( #153 ), #133 ) ;
#214 = EDGE_LOOP ( 'NONE', ( #223, #189, #4, #5 ) ) ;
#215 = ADVANCED_FACE ( 'NONE', ( #45 ), #197, .T. ) ;
#216 = ORIENTED_EDGE ( 'NONE', *, *, #54, .F. ) ;
#217 = PRESENTATION_STYLE_ASSIGNMENT (( #83 ) ) ;
#218 = VERTEX_POINT ( 'NONE', #233 ) ;
#219 = EDGE_CURVE ( 'NONE', #84, #36, #305, .T. ) ;
#220 = ADVANCED_BREP_SHAPE_REPRESENTATION ( 'Micro_SBMM-030-321', ( #70, #326 ), #56 ) ;
#221 = AXIS2_PLACEMENT_3D ( 'NONE', #172, #9, #301 ) ;
#222 = VERTEX_POINT ( 'NONE', #78 ) ;
#223 = ORIENTED_EDGE ( 'NONE', *, *, #54, .T. ) ;
#224 = CARTESIAN_POINT ( 'NONE',  ( -0.03936999999999993977, 0.0000000000000000000, 0.0000000000000000000 ) ) ;
#225 = SURFACE_STYLE_FILL_AREA ( #141 ) ;
#226 = SURFACE_SIDE_STYLE ('',( #225 ) ) ;
#227 = CARTESIAN_POINT ( 'NONE',  ( 0.1031099999999991745, 1.262733314600825725E-17, 2.952755999999999936 ) ) ;
#228 =( NAMED_UNIT ( * ) PLANE_ANGLE_UNIT ( ) SI_UNIT ( $, .RADIAN. ) );
#229 = DIRECTION ( 'NONE',  ( -1.000000000000000000, 0.0000000000000000000, 0.0000000000000000000 ) ) ;
#230 =( NAMED_UNIT ( * ) SI_UNIT ( $, .STERADIAN. ) SOLID_ANGLE_UNIT ( ) );
#231 = CARTESIAN_POINT ( 'NONE',  ( 0.0000000000000000000, 0.0000000000000000000, 0.8267719999999999514 ) ) ;
#232 = DIRECTION ( 'NONE',  ( -1.000000000000000000, 0.0000000000000000000, 0.0000000000000000000 ) ) ;
#233 = CARTESIAN_POINT ( 'NONE',  ( -0.03936999999999990507, 9.642868896486255427E-18, 0.8267719999999999514 ) ) ;
#234 = AXIS2_PLACEMENT_3D ( 'NONE', #342, #73, #43 ) ;
#235 = AXIS2_PLACEMENT_3D ( 'NONE', #195, #251, #144 ) ;
#236 = CARTESIAN_POINT ( 'NONE',  ( 0.0000000000000000000, 3.616075836182346941E-18, 8.537024980200822558E-18 ) ) ;
#237 = EDGE_CURVE ( 'NONE', #320, #93, #276, .T. ) ;
#238 = DIRECTION ( 'NONE',  ( 0.0000000000000000000, 0.0000000000000000000, 1.000000000000000000 ) ) ;
#239 = ORIENTED_EDGE ( 'NONE', *, *, #271, .F. ) ;
#240 = ORIENTED_EDGE ( 'NONE', *, *, #162, .F. ) ;
#241 = FILL_AREA_STYLE_COLOUR ( '', #63 ) ;
#242 = EDGE_LOOP ( 'NONE', ( #240, #143, #184, #87 ) ) ;
#243 = ORIENTED_EDGE ( 'NONE', *, *, #340, .T. ) ;
#244 = ORIENTED_EDGE ( 'NONE', *, *, #146, .T. ) ;
#245 = AXIS2_PLACEMENT_3D ( 'NONE', #179, #283, #204 ) ;
#246 = FACE_OUTER_BOUND ( 'NONE', #317, .T. ) ;
#247 = ORIENTED_EDGE ( 'NONE', *, *, #237, .F. ) ;
#248 = LINE ( 'NONE', #39, #327 ) ;
#249 = CARTESIAN_POINT ( 'NONE',  ( 0.0000000000000000000, 0.0000000000000000000, 0.05905500000000000332 ) ) ;
#250 = EDGE_CURVE ( 'NONE', #318, #84, #321, .T. ) ;
#251 = DIRECTION ( 'NONE',  ( 0.0000000000000000000, 0.0000000000000000000, -1.000000000000000000 ) ) ;
#252 = EDGE_CURVE ( 'NONE', #159, #111, #2, .T. ) ;
#253 = CARTESIAN_POINT ( 'NONE',  ( 0.0000000000000000000, 0.0000000000000000000, 1.822834149999997377 ) ) ;
#254 =( CONVERSION_BASED_UNIT ( 'INCH', #68 ) LENGTH_UNIT ( ) NAMED_UNIT ( #156 ) );
#255 = CYLINDRICAL_SURFACE ( 'NONE', #262, 0.03936999999999993977 ) ;
#256 = AXIS2_PLACEMENT_3D ( 'NONE', #44, #341, #257 ) ;
#257 = DIRECTION ( 'NONE',  ( -1.000000000000000000, 0.0000000000000000000, 0.0000000000000000000 ) ) ;
#258 = DIRECTION ( 'NONE',  ( -1.000000000000000000, 0.0000000000000000000, 0.0000000000000000000 ) ) ;
#259 = CARTESIAN_POINT ( 'NONE',  ( 0.0000000000000000000, 0.0000000000000000000, 2.937755999999999368 ) ) ;
#260 = CIRCLE ( 'NONE', #245, 0.1031099999999991745 ) ;
#261 = FACE_OUTER_BOUND ( 'NONE', #29, .T. ) ;
#262 = AXIS2_PLACEMENT_3D ( 'NONE', #99, #17, #125 ) ;
#263 = DIRECTION ( 'NONE',  ( 0.0000000000000000000, 0.0000000000000000000, 1.000000000000000000 ) ) ;
#264 = ORIENTED_EDGE ( 'NONE', *, *, #181, .F. ) ;
#265 = ORIENTED_EDGE ( 'NONE', *, *, #59, .T. ) ;
#266 = PRESENTATION_LAYER_ASSIGNMENT (  '', '', ( #153 ) ) ;
#267 = VECTOR ( 'NONE', #166, 39.37007874015748854 ) ;
#268 = ORIENTED_EDGE ( 'NONE', *, *, #193, .F. ) ;
#269 = ORIENTED_EDGE ( 'NONE', *, *, #108, .T. ) ;
#270 = ORIENTED_EDGE ( 'NONE', *, *, #237, .T. ) ;
#271 = EDGE_CURVE ( 'NONE', #318, #191, #80, .T. ) ;
#272 = LENGTH_MEASURE_WITH_UNIT ( LENGTH_MEASURE( 0.02539999999999999897 ), #275 );
#273 =( NAMED_UNIT ( * ) PLANE_ANGLE_UNIT ( ) SI_UNIT ( $, .RADIAN. ) );
#274 = PRODUCT_DEFINITION_CONTEXT ( 'detailed design', #97, 'design' ) ;
#275 =( LENGTH_UNIT ( ) NAMED_UNIT ( * ) SI_UNIT ( $, .METRE. ) );
#276 = CIRCLE ( 'NONE', #126, 0.1181100000000000344 ) ;
#277 = CYLINDRICAL_SURFACE ( 'NONE', #256, 0.03936999999999993977 ) ;
#278 = DIRECTION ( 'NONE',  ( 1.000000000000000000, 0.0000000000000000000, 0.0000000000000000000 ) ) ;
#279 = CARTESIAN_POINT ( 'NONE',  ( -0.1299209999999997867, 1.591073367920230343E-17, 1.822834149999997377 ) ) ;
#280 = AXIS2_PLACEMENT_3D ( 'NONE', #343, #183, #263 ) ;
#281 = FACE_OUTER_BOUND ( 'NONE', #107, .T. ) ;
#282 = AXIS2_PLACEMENT_3D ( 'NONE', #198, #142, #37 ) ;
#283 = DIRECTION ( 'NONE',  ( 0.0000000000000000000, 0.0000000000000000000, 1.000000000000000000 ) ) ;
#284 = ADVANCED_FACE ( 'NONE', ( #130 ), #47, .T. ) ;
#285 = DIRECTION ( 'NONE',  ( -0.0000000000000000000, -0.0000000000000000000, -1.000000000000000000 ) ) ;
#286 = DIRECTION ( 'NONE',  ( 0.7071067811865486830, 8.659560562354947649E-17, -0.7071067811865462405 ) ) ;
#287 =( LENGTH_UNIT ( ) NAMED_UNIT ( * ) SI_UNIT ( $, .METRE. ) );
#288 = DIRECTION ( 'NONE',  ( -0.0000000000000000000, -0.0000000000000000000, -1.000000000000000000 ) ) ;
#289 = CONICAL_SURFACE ( 'NONE', #234, 0.1031099999999991745, 0.7853981633974500554 ) ;
#290 = MECHANICAL_DESIGN_GEOMETRIC_PRESENTATION_REPRESENTATION (  '', ( #168 ), #88 ) ;
#291 = ADVANCED_FACE ( 'NONE', ( #261 ), #289, .T. ) ;
#292 =( NAMED_UNIT ( * ) PLANE_ANGLE_UNIT ( ) SI_UNIT ( $, .RADIAN. ) );
#293 = ORIENTED_EDGE ( 'NONE', *, *, #34, .T. ) ;
#294 = ORIENTED_EDGE ( 'NONE', *, *, #50, .F. ) ;
#295 = VECTOR ( 'NONE', #67, 39.37007874015748854 ) ;
#296 = ORIENTED_EDGE ( 'NONE', *, *, #340, .F. ) ;
#297 = EDGE_CURVE ( 'NONE', #60, #345, #138, .T. ) ;
#298 = ORIENTED_EDGE ( 'NONE', *, *, #50, .T. ) ;
#299 = VECTOR ( 'NONE', #98, 39.37007874015748143 ) ;
#300 = ORIENTED_EDGE ( 'NONE', *, *, #329, .F. ) ;
#301 = DIRECTION ( 'NONE',  ( 1.000000000000000000, 0.0000000000000000000, -0.0000000000000000000 ) ) ;
#302 = ORIENTED_EDGE ( 'NONE', *, *, #329, .T. ) ;
#303 = AXIS2_PLACEMENT_3D ( 'NONE', #176, #19, #124 ) ;
#304 = DIRECTION ( 'NONE',  ( 1.000000000000000000, 0.0000000000000000000, 0.0000000000000000000 ) ) ;
#305 = CIRCLE ( 'NONE', #8, 0.03936999999999998140 ) ;
#306 = SPHERICAL_SURFACE ( 'NONE', #322, 0.05905499999999999639 ) ;
#307 = FACE_OUTER_BOUND ( 'NONE', #163, .T. ) ;
#308 = AXIS2_PLACEMENT_3D ( 'NONE', #211, #238, #316 ) ;
#309 = DIRECTION ( 'NONE',  ( -0.0000000000000000000, -0.0000000000000000000, -1.000000000000000000 ) ) ;
#310 = DIRECTION ( 'NONE',  ( -1.000000000000000000, 0.0000000000000000000, 0.0000000000000000000 ) ) ;
#311 = PRESENTATION_LAYER_ASSIGNMENT (  '', '', ( #168 ) ) ;
#312 = DIMENSIONAL_EXPONENTS ( 1.000000000000000000, 0.0000000000000000000, 0.0000000000000000000, 0.0000000000000000000, 0.0000000000000000000, 0.0000000000000000000, 0.0000000000000000000 ) ;
#313 = CARTESIAN_POINT ( 'NONE',  ( 0.0000000000000000000, 0.0000000000000000000, 2.952755999999999936 ) ) ;
#314 = LINE ( 'NONE', #96, #299 ) ;
#315 = PRODUCT_DEFINITION ( 'UNKNOWN', '', #23, #274 ) ;
#316 = DIRECTION ( 'NONE',  ( 1.000000000000000000, 0.0000000000000000000, 0.0000000000000000000 ) ) ;
#317 = EDGE_LOOP ( 'NONE', ( #58, #31 ) ) ;
#318 = VERTEX_POINT ( 'NONE', #101 ) ;
#319 = EDGE_LOOP ( 'NONE', ( #131, #137, #298, #239 ) ) ;
#320 = VERTEX_POINT ( 'NONE', #129 ) ;
#321 = CIRCLE ( 'NONE', #148, 0.03936999999999998140 ) ;
#322 = AXIS2_PLACEMENT_3D ( 'NONE', #177, #72, #336 ) ;
#323 = ORIENTED_EDGE ( 'NONE', *, *, #250, .F. ) ;
#324 =( NAMED_UNIT ( * ) SI_UNIT ( $, .STERADIAN. ) SOLID_ANGLE_UNIT ( ) );
#325 = UNCERTAINTY_MEASURE_WITH_UNIT (LENGTH_MEASURE( 1.000000000000000082E-05 ), #28, 'distance_accuracy_value', 'NONE');
#326 = AXIS2_PLACEMENT_3D ( 'NONE', #157, #57, #35 ) ;
#327 = VECTOR ( 'NONE', #11, 39.37007874015748143 ) ;
#328 = FILL_AREA_STYLE_COLOUR ( '', #178 ) ;
#329 = EDGE_CURVE ( 'NONE', #345, #60, #160, .T. ) ;
#330 = CARTESIAN_POINT ( 'NONE',  ( -0.1031099999999991745, 0.0000000000000000000, 2.952755999999999936 ) ) ;
#331 = CARTESIAN_POINT ( 'NONE',  ( 0.0000000000000000000, 0.0000000000000000000, 1.822834149999997377 ) ) ;
#332 = AXIS2_PLACEMENT_3D ( 'NONE', #77, #285, #122 ) ;
#333 = ADVANCED_FACE ( 'NONE', ( #174 ), #74, .T. ) ;
#334 = DIRECTION ( 'NONE',  ( -0.0000000000000000000, -0.0000000000000000000, -1.000000000000000000 ) ) ;
#335 = CIRCLE ( 'NONE', #140, 0.03936999999999998140 ) ;
#336 = DIRECTION ( 'NONE',  ( 0.0000000000000000000, 1.000000000000000000, 0.0000000000000000000 ) ) ;
#337 = FACE_OUTER_BOUND ( 'NONE', #319, .T. ) ;
#338 = CARTESIAN_POINT ( 'NONE',  ( 0.0000000000000000000, 0.0000000000000000000, 2.952755999999999936 ) ) ;
#339 = CARTESIAN_POINT ( 'NONE',  ( 0.0000000000000000000, 0.0000000000000000000, 0.1030719981370833843 ) ) ;
#340 = EDGE_CURVE ( 'NONE', #36, #222, #170, .T. ) ;
#341 = DIRECTION ( 'NONE',  ( -0.0000000000000000000, -0.0000000000000000000, -1.000000000000000000 ) ) ;
#342 = CARTESIAN_POINT ( 'NONE',  ( 0.0000000000000000000, 0.0000000000000000000, 2.952755999999999936 ) ) ;
#343 = CARTESIAN_POINT ( 'NONE',  ( 0.0000000000000000000, 0.0000000000000000000, 0.05905500000000000332 ) ) ;
#344 = FILL_AREA_STYLE ('',( #241 ) ) ;
#345 = VERTEX_POINT ( 'NONE', #180 ) ;
ENDSEC;
END-ISO-10303-21;
