ISO-10303-21;
HEADER;
FILE_DESCRIPTION (( 'STEP AP214' ),
    '1' );
FILE_NAME ('Micro_MRF-250-062.STEP',
    '2021-09-02T21:11:22',
    ( '' ),
    ( '' ),
    'SwSTEP 2.0',
    'SolidWorks 2020',
    '' );
FILE_SCHEMA (( 'AUTOMOTIVE_DESIGN' ));
ENDSEC;

DATA;
#1 = DIRECTION ( 'NONE',  ( 0.7071067811865499042, 8.659560562354961208E-17, -0.7071067811865451302 ) ) ;
#2 = VECTOR ( 'NONE', #67, 39.37007874015748143 ) ;
#3 = SURFACE_SIDE_STYLE ('',( #257 ) ) ;
#4 = CARTESIAN_POINT ( 'NONE',  ( 0.0000000000000000000, 0.0000000000000000000, 0.04632380968109296726 ) ) ;
#5 = SURFACE_SIDE_STYLE ('',( #182 ) ) ;
#6 = PRESENTATION_LAYER_ASSIGNMENT (  '', '', ( #160 ) ) ;
#7 = EDGE_CURVE ( 'NONE', #230, #54, #184, .T. ) ;
#8 = ORIENTED_EDGE ( 'NONE', *, *, #210, .T. ) ;
#9 = DIRECTION ( 'NONE',  ( 1.000000000000000000, 0.0000000000000000000, 0.0000000000000000000 ) ) ;
#10 = PRODUCT_DEFINITION_FORMATION_WITH_SPECIFIED_SOURCE ( 'ANY', '', #101, .NOT_KNOWN. ) ;
#11 = VERTEX_POINT ( 'NONE', #57 ) ;
#12 = CARTESIAN_POINT ( 'NONE',  ( 0.1250000000000000000, 1.530808498934191509E-17, 2.485000000000000320 ) ) ;
#13 = ORIENTED_EDGE ( 'NONE', *, *, #262, .F. ) ;
#14 = ORIENTED_EDGE ( 'NONE', *, *, #181, .T. ) ;
#15 = CONICAL_SURFACE ( 'NONE', #41, 0.1374999999999999556, 0.2617993877991428020 ) ;
#16 = CIRCLE ( 'NONE', #264, 0.06037036414306688054 ) ;
#17 = CYLINDRICAL_SURFACE ( 'NONE', #53, 0.1250000000000000000 ) ;
#18 = ADVANCED_FACE ( 'NONE', ( #99 ), #191, .T. ) ;
#19 = DIRECTION ( 'NONE',  ( 1.000000000000000000, 0.0000000000000000000, 0.0000000000000000000 ) ) ;
#20 = CARTESIAN_POINT ( 'NONE',  ( 0.0000000000000000000, 0.0000000000000000000, 2.485000000000000320 ) ) ;
#21 =( GEOMETRIC_REPRESENTATION_CONTEXT ( 3 ) GLOBAL_UNCERTAINTY_ASSIGNED_CONTEXT ( ( #106 ) ) GLOBAL_UNIT_ASSIGNED_CONTEXT ( ( #239, #158, #139 ) ) REPRESENTATION_CONTEXT ( 'NONE', 'WORKASPACE' ) );
#22 = UNCERTAINTY_MEASURE_WITH_UNIT (LENGTH_MEASURE( 1.000000000000000082E-05 ), #136, 'distance_accuracy_value', 'NONE');
#23 = DIRECTION ( 'NONE',  ( 0.0000000000000000000, 0.0000000000000000000, -1.000000000000000000 ) ) ;
#24 = FACE_OUTER_BOUND ( 'NONE', #209, .T. ) ;
#25 = CYLINDRICAL_SURFACE ( 'NONE', #127, 0.1250000000000000000 ) ;
#26 = DIRECTION ( 'NONE',  ( -1.000000000000000000, 0.0000000000000000000, 0.0000000000000000000 ) ) ;
#27 = ADVANCED_FACE ( 'NONE', ( #229 ), #15, .T. ) ;
#28 = ORIENTED_EDGE ( 'NONE', *, *, #86, .F. ) ;
#29 = DIRECTION ( 'NONE',  ( 0.0000000000000000000, 0.0000000000000000000, -1.000000000000000000 ) ) ;
#30 = APPLICATION_CONTEXT ( 'automotive_design' ) ;
#31 = ADVANCED_FACE ( 'NONE', ( #194 ), #17, .T. ) ;
#32 = CARTESIAN_POINT ( 'NONE',  ( 0.06037036414306688054, 0.0000000000000000000, 0.04632380968109296726 ) ) ;
#33 = CIRCLE ( 'NONE', #125, 0.1250000000000000000 ) ;
#34 =( LENGTH_UNIT ( ) NAMED_UNIT ( * ) SI_UNIT ( $, .METRE. ) );
#35 = VERTEX_POINT ( 'NONE', #12 ) ;
#36 = ORIENTED_EDGE ( 'NONE', *, *, #86, .T. ) ;
#37 = EDGE_LOOP ( 'NONE', ( #275, #76, #8, #268 ) ) ;
#38 = CARTESIAN_POINT ( 'NONE',  ( 0.0000000000000000000, 0.0000000000000000000, 0.3341755294684610744 ) ) ;
#39 = EDGE_CURVE ( 'NONE', #164, #40, #190, .T. ) ;
#40 = VERTEX_POINT ( 'NONE', #250 ) ;
#41 = AXIS2_PLACEMENT_3D ( 'NONE', #38, #124, #100 ) ;
#42 = DIRECTION ( 'NONE',  ( 1.000000000000000000, 0.0000000000000000000, 0.0000000000000000000 ) ) ;
#43 = CARTESIAN_POINT ( 'NONE',  ( 0.1100000000000001948, 1.347111479062090784E-17, 2.500000000000000000 ) ) ;
#44 = APPLICATION_CONTEXT ( 'automotive_design' ) ;
#45 = LINE ( 'NONE', #137, #270 ) ;
#46 = FILL_AREA_STYLE ('',( #133 ) ) ;
#47 = DIRECTION ( 'NONE',  ( 1.000000000000000000, 0.0000000000000000000, 0.0000000000000000000 ) ) ;
#48 = DIRECTION ( 'NONE',  ( 0.0000000000000000000, 0.0000000000000000000, 1.000000000000000000 ) ) ;
#49 = EDGE_CURVE ( 'NONE', #35, #145, #61, .T. ) ;
#50 = FILL_AREA_STYLE_COLOUR ( '', #231 ) ;
#51 = VECTOR ( 'NONE', #254, 39.37007874015748143 ) ;
#52 = DIRECTION ( 'NONE',  ( 0.0000000000000000000, 1.000000000000000000, 0.0000000000000000000 ) ) ;
#53 = AXIS2_PLACEMENT_3D ( 'NONE', #97, #103, #80 ) ;
#54 = VERTEX_POINT ( 'NONE', #120 ) ;
#55 = ADVANCED_FACE ( 'NONE', ( #189 ), #73, .T. ) ;
#56 = CARTESIAN_POINT ( 'NONE',  ( 0.0000000000000000000, 0.0000000000000000000, 2.500000000000000000 ) ) ;
#57 = CARTESIAN_POINT ( 'NONE',  ( -3.827021247335479543E-18, 0.0000000000000000000, 1.707404996040164512E-17 ) ) ;
#58 = CIRCLE ( 'NONE', #226, 0.06037036414306688054 ) ;
#59 = ORIENTED_EDGE ( 'NONE', *, *, #210, .F. ) ;
#60 = ORIENTED_EDGE ( 'NONE', *, *, #274, .F. ) ;
#61 = LINE ( 'NONE', #147, #143 ) ;
#62 = DIMENSIONAL_EXPONENTS ( 1.000000000000000000, 0.0000000000000000000, 0.0000000000000000000, 0.0000000000000000000, 0.0000000000000000000, 0.0000000000000000000, 0.0000000000000000000 ) ;
#63 = LINE ( 'NONE', #196, #51 ) ;
#64 = DIMENSIONAL_EXPONENTS ( 1.000000000000000000, 0.0000000000000000000, 0.0000000000000000000, 0.0000000000000000000, 0.0000000000000000000, 0.0000000000000000000, 0.0000000000000000000 ) ;
#65 = PRODUCT_DEFINITION_CONTEXT ( 'detailed design', #30, 'design' ) ;
#66 = CARTESIAN_POINT ( 'NONE',  ( 0.1250000000000000000, 1.530808498934191509E-17, 0.2875248943738490381 ) ) ;
#67 = DIRECTION ( 'NONE',  ( 0.2588190451025143557, 0.0000000000000000000, 0.9659258262890699775 ) ) ;
#68 = ORIENTED_EDGE ( 'NONE', *, *, #161, .T. ) ;
#69 = CARTESIAN_POINT ( 'NONE',  ( 0.0000000000000000000, 0.0000000000000000000, 2.500000000000000000 ) ) ;
#70 = CARTESIAN_POINT ( 'NONE',  ( -0.1250000000000000000, 0.0000000000000000000, 2.485000000000000320 ) ) ;
#71 =( LENGTH_UNIT ( ) NAMED_UNIT ( * ) SI_UNIT ( $, .METRE. ) );
#72 = AXIS2_PLACEMENT_3D ( 'NONE', #185, #29, #26 ) ;
#73 = CONICAL_SURFACE ( 'NONE', #163, 0.1100000000000001948, 0.7853981633974517207 ) ;
#74 = ADVANCED_FACE ( 'NONE', ( #150 ), #173, .T. ) ;
#75 = DIRECTION ( 'NONE',  ( -1.000000000000000000, 0.0000000000000000000, 0.0000000000000000000 ) ) ;
#76 = ORIENTED_EDGE ( 'NONE', *, *, #274, .T. ) ;
#77 = STYLED_ITEM ( 'NONE', ( #138 ), #179 ) ;
#78 = ORIENTED_EDGE ( 'NONE', *, *, #111, .T. ) ;
#79 = ORIENTED_EDGE ( 'NONE', *, *, #157, .F. ) ;
#80 = DIRECTION ( 'NONE',  ( -1.000000000000000000, 0.0000000000000000000, 0.0000000000000000000 ) ) ;
#81 = DIMENSIONAL_EXPONENTS ( 1.000000000000000000, 0.0000000000000000000, 0.0000000000000000000, 0.0000000000000000000, 0.0000000000000000000, 0.0000000000000000000, 0.0000000000000000000 ) ;
#82 =( LENGTH_UNIT ( ) NAMED_UNIT ( * ) SI_UNIT ( $, .METRE. ) );
#83 = DIRECTION ( 'NONE',  ( 1.000000000000000000, 0.0000000000000000000, 0.0000000000000000000 ) ) ;
#84 = CARTESIAN_POINT ( 'NONE',  ( 0.0000000000000000000, 0.0000000000000000000, 2.485000000000000320 ) ) ;
#85 = CARTESIAN_POINT ( 'NONE',  ( 0.0000000000000000000, 0.0000000000000000000, 0.2875248943738490381 ) ) ;
#86 = EDGE_CURVE ( 'NONE', #54, #35, #174, .T. ) ;
#87 = AXIS2_PLACEMENT_3D ( 'NONE', #130, #234, #176 ) ;
#88 = SURFACE_STYLE_USAGE ( .BOTH. , #3 ) ;
#89 =( NAMED_UNIT ( * ) PLANE_ANGLE_UNIT ( ) SI_UNIT ( $, .RADIAN. ) );
#90 = MECHANICAL_DESIGN_GEOMETRIC_PRESENTATION_REPRESENTATION (  '', ( #160 ), #108 ) ;
#91 = SURFACE_STYLE_USAGE ( .BOTH. , #5 ) ;
#92 = ORIENTED_EDGE ( 'NONE', *, *, #39, .T. ) ;
#93 = EDGE_CURVE ( 'NONE', #145, #40, #256, .T. ) ;
#94 = AXIS2_PLACEMENT_3D ( 'NONE', #221, #116, #117 ) ;
#95 = PRODUCT_CONTEXT ( 'NONE', #44, 'mechanical' ) ;
#96 = DIRECTION ( 'NONE',  ( 0.0000000000000000000, 0.0000000000000000000, 1.000000000000000000 ) ) ;
#97 = CARTESIAN_POINT ( 'NONE',  ( 0.0000000000000000000, 0.0000000000000000000, 2.500000000000000000 ) ) ;
#98 = EDGE_CURVE ( 'NONE', #265, #169, #58, .T. ) ;
#99 = FACE_OUTER_BOUND ( 'NONE', #135, .T. ) ;
#100 = DIRECTION ( 'NONE',  ( 1.000000000000000000, 0.0000000000000000000, 0.0000000000000000000 ) ) ;
#101 = PRODUCT ( 'Micro_MRF-250-062', 'Micro_MRF-250-062', '', ( #95 ) ) ;
#102 = CIRCLE ( 'NONE', #115, 0.1100000000000001948 ) ;
#103 = DIRECTION ( 'NONE',  ( -0.0000000000000000000, -0.0000000000000000000, -1.000000000000000000 ) ) ;
#104 = CARTESIAN_POINT ( 'NONE',  ( 0.0000000000000000000, 0.0000000000000000000, 2.500000000000000000 ) ) ;
#105 = PRODUCT_RELATED_PRODUCT_CATEGORY ( 'part', '', ( #101 ) ) ;
#106 = UNCERTAINTY_MEASURE_WITH_UNIT (LENGTH_MEASURE( 1.000000000000000082E-05 ), #239, 'distance_accuracy_value', 'NONE');
#107 = FACE_OUTER_BOUND ( 'NONE', #269, .T. ) ;
#108 =( GEOMETRIC_REPRESENTATION_CONTEXT ( 3 ) GLOBAL_UNCERTAINTY_ASSIGNED_CONTEXT ( ( #131 ) ) GLOBAL_UNIT_ASSIGNED_CONTEXT ( ( #261, #183, #260 ) ) REPRESENTATION_CONTEXT ( 'NONE', 'WORKASPACE' ) );
#109 = AXIS2_PLACEMENT_3D ( 'NONE', #123, #96, #195 ) ;
#110 = CARTESIAN_POINT ( 'NONE',  ( 0.0000000000000000000, 0.0000000000000000000, 0.2875248943738490381 ) ) ;
#111 = EDGE_CURVE ( 'NONE', #164, #35, #33, .T. ) ;
#112 = DIRECTION ( 'NONE',  ( 0.0000000000000000000, 0.0000000000000000000, 1.000000000000000000 ) ) ;
#113 = ORIENTED_EDGE ( 'NONE', *, *, #181, .F. ) ;
#114 = CARTESIAN_POINT ( 'NONE',  ( 0.0000000000000000000, 0.0000000000000000000, 2.500000000000000000 ) ) ;
#115 = AXIS2_PLACEMENT_3D ( 'NONE', #114, #156, #235 ) ;
#116 = DIRECTION ( 'NONE',  ( -1.224646799147353207E-16, -1.000000000000000000, -0.0000000000000000000 ) ) ;
#117 = DIRECTION ( 'NONE',  ( 1.000000000000000000, -1.224646799147353207E-16, 0.0000000000000000000 ) ) ;
#118 = DIRECTION ( 'NONE',  ( -0.0000000000000000000, -0.0000000000000000000, 1.000000000000000000 ) ) ;
#119 = ORIENTED_EDGE ( 'NONE', *, *, #7, .T. ) ;
#120 = CARTESIAN_POINT ( 'NONE',  ( 0.1100000000000001948, 1.438959988998141146E-17, 2.500000000000000000 ) ) ;
#121 = PRODUCT_DEFINITION_SHAPE ( 'NONE', 'NONE',  #151 ) ;
#122 = ORIENTED_EDGE ( 'NONE', *, *, #161, .F. ) ;
#123 = CARTESIAN_POINT ( 'NONE',  ( 0.0000000000000000000, 0.0000000000000000000, 2.500000000000000000 ) ) ;
#124 = DIRECTION ( 'NONE',  ( -0.0000000000000000000, -0.0000000000000000000, 1.000000000000000000 ) ) ;
#125 = AXIS2_PLACEMENT_3D ( 'NONE', #84, #197, #253 ) ;
#126 = ORIENTED_EDGE ( 'NONE', *, *, #207, .F. ) ;
#127 = AXIS2_PLACEMENT_3D ( 'NONE', #69, #128, #273 ) ;
#128 = DIRECTION ( 'NONE',  ( -0.0000000000000000000, -0.0000000000000000000, -1.000000000000000000 ) ) ;
#129 = ADVANCED_FACE ( 'NONE', ( #134 ), #193, .T. ) ;
#130 = CARTESIAN_POINT ( 'NONE',  ( 0.0000000000000000000, 0.0000000000000000000, 0.3341755294684610744 ) ) ;
#131 = UNCERTAINTY_MEASURE_WITH_UNIT (LENGTH_MEASURE( 1.000000000000000082E-05 ), #261, 'distance_accuracy_value', 'NONE');
#132 = DIRECTION ( 'NONE',  ( 1.000000000000000000, 0.0000000000000000000, 0.0000000000000000000 ) ) ;
#133 = FILL_AREA_STYLE_COLOUR ( '', #167 ) ;
#134 = FACE_OUTER_BOUND ( 'NONE', #245, .T. ) ;
#135 = EDGE_LOOP ( 'NONE', ( #13, #165, #228 ) ) ;
#136 =( CONVERSION_BASED_UNIT ( 'INCH', #203 ) LENGTH_UNIT ( ) NAMED_UNIT ( #64 ) );
#137 = CARTESIAN_POINT ( 'NONE',  ( -0.1374999999999999556, 1.683889348827610013E-17, 0.3341755294684610744 ) ) ;
#138 = PRESENTATION_STYLE_ASSIGNMENT (( #91 ) ) ;
#139 =( NAMED_UNIT ( * ) SI_UNIT ( $, .STERADIAN. ) SOLID_ANGLE_UNIT ( ) );
#140 = ORIENTED_EDGE ( 'NONE', *, *, #39, .F. ) ;
#141 = DIRECTION ( 'NONE',  ( 0.0000000000000000000, 0.0000000000000000000, -1.000000000000000000 ) ) ;
#142 = MECHANICAL_DESIGN_GEOMETRIC_PRESENTATION_REPRESENTATION (  '', ( #77 ), #21 ) ;
#143 = VECTOR ( 'NONE', #233, 39.37007874015748143 ) ;
#144 = ORIENTED_EDGE ( 'NONE', *, *, #243, .F. ) ;
#145 = VERTEX_POINT ( 'NONE', #66 ) ;
#146 = ORIENTED_EDGE ( 'NONE', *, *, #237, .T. ) ;
#147 = CARTESIAN_POINT ( 'NONE',  ( 0.1250000000000000000, 1.530808498934191509E-17, 2.500000000000000000 ) ) ;
#148 = AXIS2_PLACEMENT_3D ( 'NONE', #267, #168, #75 ) ;
#149 = LENGTH_MEASURE_WITH_UNIT ( LENGTH_MEASURE( 0.02539999999999999897 ), #82 );
#150 = FACE_OUTER_BOUND ( 'NONE', #247, .T. ) ;
#151 = PRODUCT_DEFINITION ( 'UNKNOWN', '', #10, #65 ) ;
#152 = CARTESIAN_POINT ( 'NONE',  ( 0.0000000000000000000, 0.0000000000000000000, 0.04632380968109296726 ) ) ;
#153 = CIRCLE ( 'NONE', #188, 0.06250000000000001388 ) ;
#154 = VECTOR ( 'NONE', #246, 39.37007874015748143 ) ;
#155 = ORIENTED_EDGE ( 'NONE', *, *, #111, .F. ) ;
#156 = DIRECTION ( 'NONE',  ( 0.0000000000000000000, 0.0000000000000000000, 1.000000000000000000 ) ) ;
#157 = EDGE_CURVE ( 'NONE', #40, #145, #178, .T. ) ;
#158 =( NAMED_UNIT ( * ) PLANE_ANGLE_UNIT ( ) SI_UNIT ( $, .RADIAN. ) );
#159 =( GEOMETRIC_REPRESENTATION_CONTEXT ( 3 ) GLOBAL_UNCERTAINTY_ASSIGNED_CONTEXT ( ( #22 ) ) GLOBAL_UNIT_ASSIGNED_CONTEXT ( ( #136, #89, #258 ) ) REPRESENTATION_CONTEXT ( 'NONE', 'WORKASPACE' ) );
#160 = STYLED_ITEM ( 'NONE', ( #180 ), #227 ) ;
#161 = EDGE_CURVE ( 'NONE', #35, #164, #242, .T. ) ;
#162 = DIRECTION ( 'NONE',  ( -0.2588190451025143557, 3.169619151431686671E-17, 0.9659258262890699775 ) ) ;
#163 = AXIS2_PLACEMENT_3D ( 'NONE', #56, #141, #225 ) ;
#164 = VERTEX_POINT ( 'NONE', #70 ) ;
#165 = ORIENTED_EDGE ( 'NONE', *, *, #243, .T. ) ;
#166 = ORIENTED_EDGE ( 'NONE', *, *, #98, .T. ) ;
#167 = COLOUR_RGB ( '',0.7921568627450980005, 0.8196078431372548767, 0.9333333333333333481 ) ;
#168 = DIRECTION ( 'NONE',  ( -0.0000000000000000000, -1.000000000000000000, 0.0000000000000000000 ) ) ;
#169 = VERTEX_POINT ( 'NONE', #255 ) ;
#170 = ADVANCED_FACE ( 'NONE', ( #107 ), #25, .T. ) ;
#171 = CARTESIAN_POINT ( 'NONE',  ( -0.1250000000000000000, 0.0000000000000000000, 2.500000000000000000 ) ) ;
#172 = PRESENTATION_LAYER_ASSIGNMENT (  '', '', ( #77 ) ) ;
#173 = SPHERICAL_SURFACE ( 'NONE', #222, 0.06250000000000001388 ) ;
#174 = LINE ( 'NONE', #43, #177 ) ;
#175 = SHAPE_DEFINITION_REPRESENTATION ( #121, #179 ) ;
#176 = DIRECTION ( 'NONE',  ( 1.000000000000000000, 0.0000000000000000000, 0.0000000000000000000 ) ) ;
#177 = VECTOR ( 'NONE', #1, 39.37007874015748143 ) ;
#178 = CIRCLE ( 'NONE', #212, 0.1250000000000000000 ) ;
#179 = ADVANCED_BREP_SHAPE_REPRESENTATION ( 'Micro_MRF-250-062', ( #227, #251 ), #159 ) ;
#180 = PRESENTATION_STYLE_ASSIGNMENT (( #88 ) ) ;
#181 = EDGE_CURVE ( 'NONE', #54, #230, #102, .T. ) ;
#182 = SURFACE_STYLE_FILL_AREA ( #204 ) ;
#183 =( NAMED_UNIT ( * ) PLANE_ANGLE_UNIT ( ) SI_UNIT ( $, .RADIAN. ) );
#184 = CIRCLE ( 'NONE', #109, 0.1100000000000001948 ) ;
#185 = CARTESIAN_POINT ( 'NONE',  ( 0.0000000000000000000, 0.0000000000000000000, 2.500000000000000000 ) ) ;
#186 = LENGTH_MEASURE_WITH_UNIT ( LENGTH_MEASURE( 0.02539999999999999897 ), #34 );
#187 = ORIENTED_EDGE ( 'NONE', *, *, #93, .F. ) ;
#188 = AXIS2_PLACEMENT_3D ( 'NONE', #220, #52, #48 ) ;
#189 = FACE_OUTER_BOUND ( 'NONE', #205, .T. ) ;
#190 = LINE ( 'NONE', #171, #154 ) ;
#191 = SPHERICAL_SURFACE ( 'NONE', #148, 0.06250000000000001388 ) ;
#192 = CONICAL_SURFACE ( 'NONE', #72, 0.1100000000000001948, 0.7853981633974517207 ) ;
#193 = CONICAL_SURFACE ( 'NONE', #87, 0.1374999999999999556, 0.2617993877991428020 ) ;
#194 = FACE_OUTER_BOUND ( 'NONE', #224, .T. ) ;
#195 = DIRECTION ( 'NONE',  ( 1.000000000000000000, 0.0000000000000000000, 0.0000000000000000000 ) ) ;
#196 = CARTESIAN_POINT ( 'NONE',  ( -0.1100000000000001948, 0.0000000000000000000, 2.500000000000000000 ) ) ;
#197 = DIRECTION ( 'NONE',  ( 0.0000000000000000000, 0.0000000000000000000, -1.000000000000000000 ) ) ;
#198 = CARTESIAN_POINT ( 'NONE',  ( 0.0000000000000000000, 0.0000000000000000000, 0.06250000000000002776 ) ) ;
#199 = DIRECTION ( 'NONE',  ( -1.000000000000000000, 0.0000000000000000000, 0.0000000000000000000 ) ) ;
#200 = DIRECTION ( 'NONE',  ( 0.0000000000000000000, 0.0000000000000000000, -1.000000000000000000 ) ) ;
#201 = ADVANCED_FACE ( 'NONE', ( #24 ), #217, .T. ) ;
#202 = APPLICATION_PROTOCOL_DEFINITION ( 'draft international standard', 'automotive_design', 1998, #44 ) ;
#203 = LENGTH_MEASURE_WITH_UNIT ( LENGTH_MEASURE( 0.02539999999999999897 ), #71 );
#204 = FILL_AREA_STYLE ('',( #50 ) ) ;
#205 = EDGE_LOOP ( 'NONE', ( #113, #36, #155, #126 ) ) ;
#206 = ORIENTED_EDGE ( 'NONE', *, *, #207, .T. ) ;
#207 = EDGE_CURVE ( 'NONE', #230, #164, #63, .T. ) ;
#208 = ORIENTED_EDGE ( 'NONE', *, *, #262, .T. ) ;
#209 = EDGE_LOOP ( 'NONE', ( #119, #14 ) ) ;
#210 = EDGE_CURVE ( 'NONE', #265, #145, #215, .T. ) ;
#211 = ORIENTED_EDGE ( 'NONE', *, *, #157, .T. ) ;
#212 = AXIS2_PLACEMENT_3D ( 'NONE', #110, #23, #19 ) ;
#213 = EDGE_LOOP ( 'NONE', ( #28, #249, #206, #122 ) ) ;
#214 = DIRECTION ( 'NONE',  ( -0.0000000000000000000, -0.0000000000000000000, 1.000000000000000000 ) ) ;
#215 = LINE ( 'NONE', #272, #2 ) ;
#216 = APPLICATION_PROTOCOL_DEFINITION ( 'draft international standard', 'automotive_design', 1998, #30 ) ;
#217 = PLANE ( 'NONE',  #266 ) ;
#218 = DIRECTION ( 'NONE',  ( 0.0000000000000000000, 0.0000000000000000000, -1.000000000000000000 ) ) ;
#219 = DIRECTION ( 'NONE',  ( -0.0000000000000000000, -1.000000000000000000, 0.0000000000000000000 ) ) ;
#220 = CARTESIAN_POINT ( 'NONE',  ( 0.0000000000000000000, 0.0000000000000000000, 0.06250000000000002776 ) ) ;
#221 = CARTESIAN_POINT ( 'NONE',  ( 0.0000000000000000000, 0.0000000000000000000, 0.06250000000000002776 ) ) ;
#222 = AXIS2_PLACEMENT_3D ( 'NONE', #198, #219, #199 ) ;
#223 = CARTESIAN_POINT ( 'NONE',  ( 0.0000000000000000000, 0.0000000000000000000, 0.0000000000000000000 ) ) ;
#224 = EDGE_LOOP ( 'NONE', ( #78, #271, #79, #140 ) ) ;
#225 = DIRECTION ( 'NONE',  ( -1.000000000000000000, 0.0000000000000000000, 0.0000000000000000000 ) ) ;
#226 = AXIS2_PLACEMENT_3D ( 'NONE', #152, #214, #42 ) ;
#227 = MANIFOLD_SOLID_BREP ( 'Cut-Revolve1', #236 ) ;
#228 = ORIENTED_EDGE ( 'NONE', *, *, #98, .F. ) ;
#229 = FACE_OUTER_BOUND ( 'NONE', #37, .T. ) ;
#230 = VERTEX_POINT ( 'NONE', #240 ) ;
#231 = COLOUR_RGB ( '',0.7921568627450980005, 0.8196078431372548767, 0.9333333333333333481 ) ;
#232 = AXIS2_PLACEMENT_3D ( 'NONE', #85, #200, #83 ) ;
#233 = DIRECTION ( 'NONE',  ( -0.0000000000000000000, -0.0000000000000000000, -1.000000000000000000 ) ) ;
#234 = DIRECTION ( 'NONE',  ( -0.0000000000000000000, -0.0000000000000000000, 1.000000000000000000 ) ) ;
#235 = DIRECTION ( 'NONE',  ( 1.000000000000000000, 0.0000000000000000000, 0.0000000000000000000 ) ) ;
#236 = CLOSED_SHELL ( 'NONE', ( #74, #129, #55, #31, #170, #201, #252, #27, #18 ) ) ;
#237 = EDGE_CURVE ( 'NONE', #169, #40, #45, .T. ) ;
#238 = DIRECTION ( 'NONE',  ( 1.000000000000000000, 0.0000000000000000000, -0.0000000000000000000 ) ) ;
#239 =( CONVERSION_BASED_UNIT ( 'INCH', #186 ) LENGTH_UNIT ( ) NAMED_UNIT ( #81 ) );
#240 = CARTESIAN_POINT ( 'NONE',  ( -0.1100000000000001948, 0.0000000000000000000, 2.500000000000000000 ) ) ;
#241 = AXIS2_PLACEMENT_3D ( 'NONE', #20, #218, #132 ) ;
#242 = CIRCLE ( 'NONE', #241, 0.1250000000000000000 ) ;
#243 = EDGE_CURVE ( 'NONE', #11, #169, #153, .T. ) ;
#244 = DIRECTION ( 'NONE',  ( 0.0000000000000000000, 0.0000000000000000000, 1.000000000000000000 ) ) ;
#245 = EDGE_LOOP ( 'NONE', ( #166, #146, #211, #59 ) ) ;
#246 = DIRECTION ( 'NONE',  ( -0.0000000000000000000, -0.0000000000000000000, -1.000000000000000000 ) ) ;
#247 = EDGE_LOOP ( 'NONE', ( #144, #208, #60 ) ) ;
#248 = ORIENTED_EDGE ( 'NONE', *, *, #49, .F. ) ;
#249 = ORIENTED_EDGE ( 'NONE', *, *, #7, .F. ) ;
#250 = CARTESIAN_POINT ( 'NONE',  ( -0.1250000000000000000, 0.0000000000000000000, 0.2875248943738490381 ) ) ;
#251 = AXIS2_PLACEMENT_3D ( 'NONE', #223, #244, #9 ) ;
#252 = ADVANCED_FACE ( 'NONE', ( #263 ), #192, .T. ) ;
#253 = DIRECTION ( 'NONE',  ( 1.000000000000000000, 0.0000000000000000000, 0.0000000000000000000 ) ) ;
#254 = DIRECTION ( 'NONE',  ( -0.7071067811865499042, 0.0000000000000000000, -0.7071067811865451302 ) ) ;
#255 = CARTESIAN_POINT ( 'NONE',  ( -0.06037036414306688054, 1.135066115522930773E-17, 0.04632380968109296726 ) ) ;
#256 = CIRCLE ( 'NONE', #232, 0.1250000000000000000 ) ;
#257 = SURFACE_STYLE_FILL_AREA ( #46 ) ;
#258 =( NAMED_UNIT ( * ) SI_UNIT ( $, .STERADIAN. ) SOLID_ANGLE_UNIT ( ) );
#259 = CIRCLE ( 'NONE', #94, 0.06250000000000001388 ) ;
#260 =( NAMED_UNIT ( * ) SI_UNIT ( $, .STERADIAN. ) SOLID_ANGLE_UNIT ( ) );
#261 =( CONVERSION_BASED_UNIT ( 'INCH', #149 ) LENGTH_UNIT ( ) NAMED_UNIT ( #62 ) );
#262 = EDGE_CURVE ( 'NONE', #11, #265, #259, .T. ) ;
#263 = FACE_OUTER_BOUND ( 'NONE', #213, .T. ) ;
#264 = AXIS2_PLACEMENT_3D ( 'NONE', #4, #118, #47 ) ;
#265 = VERTEX_POINT ( 'NONE', #32 ) ;
#266 = AXIS2_PLACEMENT_3D ( 'NONE', #104, #112, #238 ) ;
#267 = CARTESIAN_POINT ( 'NONE',  ( 0.0000000000000000000, 0.0000000000000000000, 0.06250000000000002776 ) ) ;
#268 = ORIENTED_EDGE ( 'NONE', *, *, #93, .T. ) ;
#269 = EDGE_LOOP ( 'NONE', ( #248, #68, #92, #187 ) ) ;
#270 = VECTOR ( 'NONE', #162, 39.37007874015748143 ) ;
#271 = ORIENTED_EDGE ( 'NONE', *, *, #49, .T. ) ;
#272 = CARTESIAN_POINT ( 'NONE',  ( 0.1374999999999999556, 0.0000000000000000000, 0.3341755294684610744 ) ) ;
#273 = DIRECTION ( 'NONE',  ( -1.000000000000000000, 0.0000000000000000000, 0.0000000000000000000 ) ) ;
#274 = EDGE_CURVE ( 'NONE', #169, #265, #16, .T. ) ;
#275 = ORIENTED_EDGE ( 'NONE', *, *, #237, .F. ) ;
ENDSEC;
END-ISO-10303-21;
