ISO-10303-21;
HEADER;
FILE_DESCRIPTION (( 'STEP AP214' ),
    '1' );
FILE_NAME ('59811.STEP',
    '2023-07-12T13:05:48',
    ( '' ),
    ( '' ),
    'SwSTEP 2.0',
    'SolidWorks 2023',
    '' );
FILE_SCHEMA (( 'AUTOMOTIVE_DESIGN' ));
ENDSEC;

DATA;
#1 = EDGE_CURVE ( 'NONE', #41, #198, #191, .T. ) ;
#2 = MANIFOLD_SOLID_BREP ( 'Revolve - Cutting Edge', #278 ) ;
#3 = SURFACE_SIDE_STYLE ('',( #124 ) ) ;
#4 = DIRECTION ( 'NONE',  ( 0.000000000000000000, 1.000000000000000000, 0.000000000000000000 ) ) ;
#5 = SURFACE_STYLE_FILL_AREA ( #221 ) ;
#6 = APPLICATION_PROTOCOL_DEFINITION ( 'draft international standard', 'automotive_design', 1998, #153 ) ;
#7 = LENGTH_MEASURE_WITH_UNIT ( LENGTH_MEASURE( 0.02539999999999999897 ), #130 );
#8 = VECTOR ( 'NONE', #248, 39.37007874015748143 ) ;
#9 = DIRECTION ( 'NONE',  ( 1.000000000000000000, 1.206031236776656774E-16, 0.000000000000000000 ) ) ;
#10 = PLANE ( 'NONE',  #254 ) ;
#11 = DIMENSIONAL_EXPONENTS ( 1.000000000000000000, 0.000000000000000000, 0.000000000000000000, 0.000000000000000000, 0.000000000000000000, 0.000000000000000000, 0.000000000000000000 ) ;
#12 = DIRECTION ( 'NONE',  ( -0.000000000000000000, -1.000000000000000000, -0.000000000000000000 ) ) ;
#13 =( NAMED_UNIT ( * ) SI_UNIT ( $, .STERADIAN. ) SOLID_ANGLE_UNIT ( ) );
#14 = MECHANICAL_DESIGN_GEOMETRIC_PRESENTATION_REPRESENTATION (  '', ( #225 ), #197 ) ;
#15 = VERTEX_POINT ( 'NONE', #259 ) ;
#16 = LINE ( 'NONE', #136, #8 ) ;
#17 = FACE_OUTER_BOUND ( 'NONE', #21, .T. ) ;
#18 = AXIS2_PLACEMENT_3D ( 'NONE', #206, #271, #111 ) ;
#19 = ORIENTED_EDGE ( 'NONE', *, *, #207, .T. ) ;
#20 = FACE_OUTER_BOUND ( 'NONE', #32, .T. ) ;
#21 = EDGE_LOOP ( 'NONE', ( #245, #23, #51, #122 ) ) ;
#22 = STYLED_ITEM ( 'NONE', ( #301 ), #86 ) ;
#23 = ORIENTED_EDGE ( 'NONE', *, *, #35, .F. ) ;
#24 = ORIENTED_EDGE ( 'NONE', *, *, #247, .T. ) ;
#25 = DIRECTION ( 'NONE',  ( -1.000000000000000000, 0.000000000000000000, 0.000000000000000000 ) ) ;
#26 = COLOUR_RGB ( '',1.000000000000000000, 0.000000000000000000, 0.000000000000000000 ) ;
#27 = FILL_AREA_STYLE_COLOUR ( '', #277 ) ;
#28 = SURFACE_SIDE_STYLE ('',( #180 ) ) ;
#29 = DIRECTION ( 'NONE',  ( -1.206031236776656774E-16, 1.000000000000000000, -0.000000000000000000 ) ) ;
#30 = DIMENSIONAL_EXPONENTS ( 1.000000000000000000, 0.000000000000000000, 0.000000000000000000, 0.000000000000000000, 0.000000000000000000, 0.000000000000000000, 0.000000000000000000 ) ;
#31 = ADVANCED_FACE ( 'NONE', ( #79 ), #224, .F. ) ;
#32 = EDGE_LOOP ( 'NONE', ( #285, #244, #113, #107 ) ) ;
#33 =( LENGTH_UNIT ( ) NAMED_UNIT ( * ) SI_UNIT ( $, .METRE. ) );
#34 = AXIS2_PLACEMENT_3D ( 'NONE', #93, #234, #196 ) ;
#35 = EDGE_CURVE ( 'NONE', #304, #273, #291, .T. ) ;
#36 = DIRECTION ( 'NONE',  ( -1.206031236776656774E-16, 1.000000000000000000, -0.000000000000000000 ) ) ;
#37 =( NAMED_UNIT ( * ) SI_UNIT ( $, .STERADIAN. ) SOLID_ANGLE_UNIT ( ) );
#38 = UNCERTAINTY_MEASURE_WITH_UNIT (LENGTH_MEASURE( 1.000000000000000082E-05 ), #139, 'distance_accuracy_value', 'NONE');
#39 = EDGE_LOOP ( 'NONE', ( #212, #305 ) ) ;
#40 = MECHANICAL_DESIGN_GEOMETRIC_PRESENTATION_REPRESENTATION (  '', ( #294 ), #105 ) ;
#41 = VERTEX_POINT ( 'NONE', #103 ) ;
#42 = PLANE ( 'NONE',  #110 ) ;
#43 = UNCERTAINTY_MEASURE_WITH_UNIT (LENGTH_MEASURE( 1.000000000000000082E-05 ), #99, 'distance_accuracy_value', 'NONE');
#44 = DIRECTION ( 'NONE',  ( -1.000000000000000000, -1.206031236776656774E-16, 0.000000000000000000 ) ) ;
#45 = LINE ( 'NONE', #169, #72 ) ;
#46 = DIRECTION ( 'NONE',  ( -1.000000000000000000, 0.000000000000000000, 0.000000000000000000 ) ) ;
#47 = COLOUR_RGB ( '',1.000000000000000000, 0.000000000000000000, 0.000000000000000000 ) ;
#48 = ORIENTED_EDGE ( 'NONE', *, *, #112, .T. ) ;
#49 = CARTESIAN_POINT ( 'NONE',  ( -0.2499999999999994449, 0.1762109225472281437, 0.000000000000000000 ) ) ;
#50 = ADVANCED_BREP_SHAPE_REPRESENTATION ( '59811', ( #2, #101, #66 ), #176 ) ;
#51 = ORIENTED_EDGE ( 'NONE', *, *, #184, .T. ) ;
#52 =( NAMED_UNIT ( * ) PLANE_ANGLE_UNIT ( ) SI_UNIT ( $, .RADIAN. ) );
#53 =( CONVERSION_BASED_UNIT ( 'INCH', #78 ) LENGTH_UNIT ( ) NAMED_UNIT ( #266 ) );
#54 = CARTESIAN_POINT ( 'NONE',  ( 0.000000000000000000, 0.1762109225472281715, 0.000000000000000000 ) ) ;
#55 = DIRECTION ( 'NONE',  ( 1.000000000000000000, 0.000000000000000000, 0.000000000000000000 ) ) ;
#56 = CIRCLE ( 'NONE', #73, 0.2499999999999997224 ) ;
#57 = VECTOR ( 'NONE', #29, 39.37007874015748143 ) ;
#58 = SURFACE_STYLE_USAGE ( .BOTH. , #3 ) ;
#59 =( NAMED_UNIT ( * ) SI_UNIT ( $, .STERADIAN. ) SOLID_ANGLE_UNIT ( ) );
#60 = FILL_AREA_STYLE_COLOUR ( '', #84 ) ;
#61 = FILL_AREA_STYLE_COLOUR ( '', #47 ) ;
#62 = PRESENTATION_STYLE_ASSIGNMENT (( #160 ) ) ;
#63 = AXIS2_PLACEMENT_3D ( 'NONE', #123, #309, #64 ) ;
#64 = DIRECTION ( 'NONE',  ( 0.000000000000000000, 0.000000000000000000, 1.000000000000000000 ) ) ;
#65 = CARTESIAN_POINT ( 'NONE',  ( 3.061616997868383018E-17, 0.1762109225472281993, -0.2500000000000000000 ) ) ;
#66 = AXIS2_PLACEMENT_3D ( 'NONE', #290, #71, #55 ) ;
#67 = ADVANCED_FACE ( 'NONE', ( #181 ), #150, .T. ) ;
#68 = PRESENTATION_STYLE_ASSIGNMENT (( #203 ) ) ;
#69 = DIRECTION ( 'NONE',  ( -1.206031236776656774E-16, 1.000000000000000000, -0.000000000000000000 ) ) ;
#70 = DIRECTION ( 'NONE',  ( 0.000000000000000000, 0.000000000000000000, -1.000000000000000000 ) ) ;
#71 = DIRECTION ( 'NONE',  ( 0.000000000000000000, 0.000000000000000000, 1.000000000000000000 ) ) ;
#72 = VECTOR ( 'NONE', #195, 39.37007874015748143 ) ;
#73 = AXIS2_PLACEMENT_3D ( 'NONE', #165, #255, #306 ) ;
#74 = PRODUCT_DEFINITION_FORMATION_WITH_SPECIFIED_SOURCE ( 'ANY', '', #87, .NOT_KNOWN. ) ;
#75 = DIMENSIONAL_EXPONENTS ( 1.000000000000000000, 0.000000000000000000, 0.000000000000000000, 0.000000000000000000, 0.000000000000000000, 0.000000000000000000, 0.000000000000000000 ) ;
#76 =( NAMED_UNIT ( * ) PLANE_ANGLE_UNIT ( ) SI_UNIT ( $, .RADIAN. ) );
#77 = CARTESIAN_POINT ( 'NONE',  ( 0.000000000000000000, 0.000000000000000000, 0.04000000000000000083 ) ) ;
#78 = LENGTH_MEASURE_WITH_UNIT ( LENGTH_MEASURE( 0.02539999999999999897 ), #156 );
#79 = FACE_OUTER_BOUND ( 'NONE', #39, .T. ) ;
#80 = PRESENTATION_LAYER_ASSIGNMENT (  '', '', ( #168 ) ) ;
#81 =( LENGTH_UNIT ( ) NAMED_UNIT ( * ) SI_UNIT ( $, .METRE. ) );
#82 =( CONVERSION_BASED_UNIT ( 'INCH', #270 ) LENGTH_UNIT ( ) NAMED_UNIT ( #261 ) );
#83 = SURFACE_STYLE_FILL_AREA ( #300 ) ;
#84 = COLOUR_RGB ( '',0.7921568627450980005, 0.8196078431372548767, 0.9333333333333333481 ) ;
#85 =( LENGTH_UNIT ( ) NAMED_UNIT ( * ) SI_UNIT ( $, .METRE. ) );
#86 = ADVANCED_FACE ( 'NONE', ( #17 ), #133, .T. ) ;
#87 = PRODUCT ( '59811', '59811', '', ( #97 ) ) ;
#88 = SURFACE_STYLE_USAGE ( .BOTH. , #303 ) ;
#89 = VERTEX_POINT ( 'NONE', #227 ) ;
#90 = AXIS2_PLACEMENT_3D ( 'NONE', #157, #36, #274 ) ;
#91 = CARTESIAN_POINT ( 'NONE',  ( 0.000000000000000000, 0.1762109225472281993, 0.000000000000000000 ) ) ;
#92 = ORIENTED_EDGE ( 'NONE', *, *, #178, .F. ) ;
#93 = CARTESIAN_POINT ( 'NONE',  ( 0.000000000000000000, 0.1762109225472281993, 0.000000000000000000 ) ) ;
#94 = AXIS2_PLACEMENT_3D ( 'NONE', #282, #95, #145 ) ;
#95 = DIRECTION ( 'NONE',  ( -0.000000000000000000, -1.000000000000000000, -0.000000000000000000 ) ) ;
#96 = SURFACE_SIDE_STYLE ('',( #5 ) ) ;
#97 = PRODUCT_CONTEXT ( 'NONE', #153, 'mechanical' ) ;
#98 =( CONVERSION_BASED_UNIT ( 'INCH', #7 ) LENGTH_UNIT ( ) NAMED_UNIT ( #11 ) );
#99 =( CONVERSION_BASED_UNIT ( 'INCH', #171 ) LENGTH_UNIT ( ) NAMED_UNIT ( #30 ) );
#100 = CIRCLE ( 'NONE', #34, 0.2500000000000000000 ) ;
#101 = MANIFOLD_SOLID_BREP ( 'Revolve - Tool Body (Tipped Off)', #152 ) ;
#102 = FACE_OUTER_BOUND ( 'NONE', #155, .T. ) ;
#103 = CARTESIAN_POINT ( 'NONE',  ( 0.2500000000000000000, 3.000000000000000444, 3.061616997868382402E-17 ) ) ;
#104 = EDGE_CURVE ( 'NONE', #198, #41, #236, .T. ) ;
#105 =( GEOMETRIC_REPRESENTATION_CONTEXT ( 3 ) GLOBAL_UNCERTAINTY_ASSIGNED_CONTEXT ( ( #230 ) ) GLOBAL_UNIT_ASSIGNED_CONTEXT ( ( #53, #241, #295 ) ) REPRESENTATION_CONTEXT ( 'NONE', 'WORKASPACE' ) );
#106 = FACE_OUTER_BOUND ( 'NONE', #228, .T. ) ;
#107 = ORIENTED_EDGE ( 'NONE', *, *, #184, .F. ) ;
#108 = UNCERTAINTY_MEASURE_WITH_UNIT (LENGTH_MEASURE( 1.000000000000000082E-05 ), #222, 'distance_accuracy_value', 'NONE');
#109 = LENGTH_MEASURE_WITH_UNIT ( LENGTH_MEASURE( 0.02539999999999999897 ), #81 );
#110 = AXIS2_PLACEMENT_3D ( 'NONE', #188, #233, #44 ) ;
#111 = DIRECTION ( 'NONE',  ( 0.000000000000000000, 0.000000000000000000, -1.000000000000000000 ) ) ;
#112 = EDGE_CURVE ( 'NONE', #170, #198, #16, .T. ) ;
#113 = ORIENTED_EDGE ( 'NONE', *, *, #231, .T. ) ;
#114 = LENGTH_MEASURE_WITH_UNIT ( LENGTH_MEASURE( 0.02539999999999999897 ), #208 );
#115 = FILL_AREA_STYLE ('',( #144 ) ) ;
#116 = ORIENTED_EDGE ( 'NONE', *, *, #104, .F. ) ;
#117 = CARTESIAN_POINT ( 'NONE',  ( -0.2500000000000001110, 3.000000000000000444, 0.000000000000000000 ) ) ;
#118 = ADVANCED_FACE ( 'NONE', ( #106 ), #42, .F. ) ;
#119 = AXIS2_PLACEMENT_3D ( 'NONE', #288, #172, #9 ) ;
#120 = PRESENTATION_LAYER_ASSIGNMENT (  '', '', ( #225 ) ) ;
#121 =( NAMED_UNIT ( * ) PLANE_ANGLE_UNIT ( ) SI_UNIT ( $, .RADIAN. ) );
#122 = ORIENTED_EDGE ( 'NONE', *, *, #178, .T. ) ;
#123 = CARTESIAN_POINT ( 'NONE',  ( 0.000000000000000000, 0.000000000000000000, 0.000000000000000000 ) ) ;
#124 = SURFACE_STYLE_FILL_AREA ( #263 ) ;
#125 = VECTOR ( 'NONE', #251, 39.37007874015748143 ) ;
#126 = FILL_AREA_STYLE ('',( #257 ) ) ;
#127 = ORIENTED_EDGE ( 'NONE', *, *, #307, .F. ) ;
#128 =( NAMED_UNIT ( * ) SI_UNIT ( $, .STERADIAN. ) SOLID_ANGLE_UNIT ( ) );
#129 = UNCERTAINTY_MEASURE_WITH_UNIT (LENGTH_MEASURE( 1.000000000000000082E-05 ), #249, 'distance_accuracy_value', 'NONE');
#130 =( LENGTH_UNIT ( ) NAMED_UNIT ( * ) SI_UNIT ( $, .METRE. ) );
#131 = DIRECTION ( 'NONE',  ( -1.000000000000000000, 0.000000000000000000, 0.000000000000000000 ) ) ;
#132 = CARTESIAN_POINT ( 'NONE',  ( 0.2499999999999998335, 3.000000000000000444, 3.061616997868381785E-17 ) ) ;
#133 = CONICAL_SURFACE ( 'NONE', #246, 0.04000000000000000083, 0.8726646259971664321 ) ;
#134 = ADVANCED_FACE ( 'NONE', ( #20 ), #202, .T. ) ;
#135 = CARTESIAN_POINT ( 'NONE',  ( 1.775737858763662224E-17, 0.000000000000000000, -0.04000000000000000083 ) ) ;
#136 = CARTESIAN_POINT ( 'NONE',  ( -0.2499999999999999722, 3.000000000000000444, 0.000000000000000000 ) ) ;
#137 = ORIENTED_EDGE ( 'NONE', *, *, #35, .T. ) ;
#138 = MECHANICAL_DESIGN_GEOMETRIC_PRESENTATION_REPRESENTATION (  '', ( #284 ), #250 ) ;
#139 =( CONVERSION_BASED_UNIT ( 'INCH', #109 ) LENGTH_UNIT ( ) NAMED_UNIT ( #75 ) );
#140 = CARTESIAN_POINT ( 'NONE',  ( 0.000000000000000000, 0.000000000000000000, 0.000000000000000000 ) ) ;
#141 = ORIENTED_EDGE ( 'NONE', *, *, #148, .F. ) ;
#142 = FILL_AREA_STYLE ('',( #61 ) ) ;
#143 = MECHANICAL_DESIGN_GEOMETRIC_PRESENTATION_REPRESENTATION (  '', ( #168 ), #190 ) ;
#144 = FILL_AREA_STYLE_COLOUR ( '', #253 ) ;
#145 = DIRECTION ( 'NONE',  ( 0.000000000000000000, 0.000000000000000000, -1.000000000000000000 ) ) ;
#146 = AXIS2_PLACEMENT_3D ( 'NONE', #91, #238, #199 ) ;
#147 = CARTESIAN_POINT ( 'NONE',  ( 0.000000000000000000, 0.000000000000000000, 0.04000000000000000083 ) ) ;
#148 = EDGE_CURVE ( 'NONE', #170, #89, #56, .T. ) ;
#149 = DIRECTION ( 'NONE',  ( -1.206031236776656774E-16, 1.000000000000000000, -0.000000000000000000 ) ) ;
#150 = PLANE ( 'NONE',  #18 ) ;
#151 =( NAMED_UNIT ( * ) PLANE_ANGLE_UNIT ( ) SI_UNIT ( $, .RADIAN. ) );
#152 = CLOSED_SHELL ( 'NONE', ( #279, #118, #265, #31 ) ) ;
#153 = APPLICATION_CONTEXT ( 'automotive_design' ) ;
#154 =( NAMED_UNIT ( * ) SI_UNIT ( $, .STERADIAN. ) SOLID_ANGLE_UNIT ( ) );
#155 = EDGE_LOOP ( 'NONE', ( #276, #237, #116, #226 ) ) ;
#156 =( LENGTH_UNIT ( ) NAMED_UNIT ( * ) SI_UNIT ( $, .METRE. ) );
#157 = CARTESIAN_POINT ( 'NONE',  ( -6.123233995736772199E-17, 3.000000000000000444, 0.000000000000000000 ) ) ;
#158 = UNCERTAINTY_MEASURE_WITH_UNIT (LENGTH_MEASURE( 1.000000000000000082E-05 ), #98, 'distance_accuracy_value', 'NONE');
#159 = PRESENTATION_LAYER_ASSIGNMENT (  '', '', ( #22 ) ) ;
#160 = SURFACE_STYLE_USAGE ( .BOTH. , #162 ) ;
#161 = EDGE_LOOP ( 'NONE', ( #127, #24, #48, #298 ) ) ;
#162 = SURFACE_SIDE_STYLE ('',( #83 ) ) ;
#163 = DIRECTION ( 'NONE',  ( -1.206031236776656774E-16, 1.000000000000000000, -0.000000000000000000 ) ) ;
#164 = AXIS2_PLACEMENT_3D ( 'NONE', #167, #252, #46 ) ;
#165 = CARTESIAN_POINT ( 'NONE',  ( 2.793254433903104166E-16, 0.1762109225472281715, 0.000000000000000000 ) ) ;
#166 = APPLICATION_CONTEXT ( 'automotive_design' ) ;
#167 = CARTESIAN_POINT ( 'NONE',  ( -6.123233995736772199E-17, 3.000000000000000444, 0.000000000000000000 ) ) ;
#168 = STYLED_ITEM ( 'NONE', ( #62 ), #101 ) ;
#169 = CARTESIAN_POINT ( 'NONE',  ( 4.898587196589413537E-18, 0.000000000000000000, -0.04000000000000000083 ) ) ;
#170 = VERTEX_POINT ( 'NONE', #49 ) ;
#171 = LENGTH_MEASURE_WITH_UNIT ( LENGTH_MEASURE( 0.02539999999999999897 ), #239 );
#172 = DIRECTION ( 'NONE',  ( 1.206031236776656774E-16, -1.000000000000000000, 0.000000000000000000 ) ) ;
#173 = DIMENSIONAL_EXPONENTS ( 1.000000000000000000, 0.000000000000000000, 0.000000000000000000, 0.000000000000000000, 0.000000000000000000, 0.000000000000000000, 0.000000000000000000 ) ;
#174 = PRESENTATION_STYLE_ASSIGNMENT (( #289 ) ) ;
#175 = APPLICATION_PROTOCOL_DEFINITION ( 'draft international standard', 'automotive_design', 1998, #166 ) ;
#176 =( GEOMETRIC_REPRESENTATION_CONTEXT ( 3 ) GLOBAL_UNCERTAINTY_ASSIGNED_CONTEXT ( ( #108 ) ) GLOBAL_UNIT_ASSIGNED_CONTEXT ( ( #222, #52, #128 ) ) REPRESENTATION_CONTEXT ( 'NONE', 'WORKASPACE' ) );
#177 = COLOUR_RGB ( '',0.7921568627450980005, 0.8196078431372548767, 0.9333333333333333481 ) ;
#178 = EDGE_CURVE ( 'NONE', #15, #204, #100, .T. ) ;
#179 = CARTESIAN_POINT ( 'NONE',  ( -6.123233995736772199E-17, 3.000000000000000444, 0.000000000000000000 ) ) ;
#180 = SURFACE_STYLE_FILL_AREA ( #126 ) ;
#181 = FACE_OUTER_BOUND ( 'NONE', #185, .T. ) ;
#182 = PRESENTATION_LAYER_ASSIGNMENT (  '', '', ( #186 ) ) ;
#183 = SURFACE_SIDE_STYLE ('',( #297 ) ) ;
#184 = EDGE_CURVE ( 'NONE', #304, #15, #283, .T. ) ;
#185 = EDGE_LOOP ( 'NONE', ( #137, #19 ) ) ;
#186 = STYLED_ITEM ( 'NONE', ( #174 ), #67 ) ;
#187 =( NAMED_UNIT ( * ) PLANE_ANGLE_UNIT ( ) SI_UNIT ( $, .RADIAN. ) );
#188 = CARTESIAN_POINT ( 'NONE',  ( 2.793254433903104166E-16, 0.1762109225472281993, 0.000000000000000000 ) ) ;
#189 =( NAMED_UNIT ( * ) SI_UNIT ( $, .STERADIAN. ) SOLID_ANGLE_UNIT ( ) );
#190 =( GEOMETRIC_REPRESENTATION_CONTEXT ( 3 ) GLOBAL_UNCERTAINTY_ASSIGNED_CONTEXT ( ( #38 ) ) GLOBAL_UNIT_ASSIGNED_CONTEXT ( ( #139, #269, #59 ) ) REPRESENTATION_CONTEXT ( 'NONE', 'WORKASPACE' ) );
#191 = CIRCLE ( 'NONE', #308, 0.2500000000000000555 ) ;
#192 = CYLINDRICAL_SURFACE ( 'NONE', #164, 0.2499999999999998890 ) ;
#193 = PRESENTATION_LAYER_ASSIGNMENT (  '', '', ( #294 ) ) ;
#194 = EDGE_LOOP ( 'NONE', ( #92, #243 ) ) ;
#195 = DIRECTION ( 'NONE',  ( 9.381338752702743107E-17, 0.6427876096865380307, -0.7660444431189791237 ) ) ;
#196 = DIRECTION ( 'NONE',  ( 0.000000000000000000, 0.000000000000000000, -1.000000000000000000 ) ) ;
#197 =( GEOMETRIC_REPRESENTATION_CONTEXT ( 3 ) GLOBAL_UNCERTAINTY_ASSIGNED_CONTEXT ( ( #43 ) ) GLOBAL_UNIT_ASSIGNED_CONTEXT ( ( #99, #151, #154 ) ) REPRESENTATION_CONTEXT ( 'NONE', 'WORKASPACE' ) );
#198 = VERTEX_POINT ( 'NONE', #117 ) ;
#199 = DIRECTION ( 'NONE',  ( 0.000000000000000000, 0.000000000000000000, -1.000000000000000000 ) ) ;
#200 = CARTESIAN_POINT ( 'NONE',  ( -6.123233995736772199E-17, 3.000000000000000444, 0.000000000000000000 ) ) ;
#201 = FILL_AREA_STYLE_COLOUR ( '', #177 ) ;
#202 = CONICAL_SURFACE ( 'NONE', #63, 0.04000000000000000083, 0.8726646259971664321 ) ;
#203 = SURFACE_STYLE_USAGE ( .BOTH. , #28 ) ;
#204 = VERTEX_POINT ( 'NONE', #65 ) ;
#205 = DIRECTION ( 'NONE',  ( 0.000000000000000000, 1.000000000000000000, 0.000000000000000000 ) ) ;
#206 = CARTESIAN_POINT ( 'NONE',  ( 0.000000000000000000, 0.000000000000000000, 0.000000000000000000 ) ) ;
#207 = EDGE_CURVE ( 'NONE', #273, #304, #216, .T. ) ;
#208 =( LENGTH_UNIT ( ) NAMED_UNIT ( * ) SI_UNIT ( $, .METRE. ) );
#209 = CIRCLE ( 'NONE', #267, 0.2499999999999997224 ) ;
#210 = SURFACE_STYLE_USAGE ( .BOTH. , #183 ) ;
#211 = SURFACE_STYLE_FILL_AREA ( #115 ) ;
#212 = ORIENTED_EDGE ( 'NONE', *, *, #104, .T. ) ;
#213 = UNCERTAINTY_MEASURE_WITH_UNIT (LENGTH_MEASURE( 1.000000000000000082E-05 ), #82, 'distance_accuracy_value', 'NONE');
#214 = ORIENTED_EDGE ( 'NONE', *, *, #247, .F. ) ;
#215 = FACE_OUTER_BOUND ( 'NONE', #161, .T. ) ;
#216 = CIRCLE ( 'NONE', #94, 0.04000000000000000083 ) ;
#217 = AXIS2_PLACEMENT_3D ( 'NONE', #256, #12, #70 ) ;
#218 = CARTESIAN_POINT ( 'NONE',  ( 2.793254433903104166E-16, 0.1762109225472281715, 0.000000000000000000 ) ) ;
#219 =( GEOMETRIC_REPRESENTATION_CONTEXT ( 3 ) GLOBAL_UNCERTAINTY_ASSIGNED_CONTEXT ( ( #213 ) ) GLOBAL_UNIT_ASSIGNED_CONTEXT ( ( #82, #187, #37 ) ) REPRESENTATION_CONTEXT ( 'NONE', 'WORKASPACE' ) );
#220 = LENGTH_MEASURE_WITH_UNIT ( LENGTH_MEASURE( 0.02539999999999999897 ), #33 );
#221 = FILL_AREA_STYLE ('',( #27 ) ) ;
#222 =( CONVERSION_BASED_UNIT ( 'INCH', #220 ) LENGTH_UNIT ( ) NAMED_UNIT ( #262 ) );
#223 = MECHANICAL_DESIGN_GEOMETRIC_PRESENTATION_REPRESENTATION (  '', ( #22 ), #219 ) ;
#224 = PLANE ( 'NONE',  #119 ) ;
#225 = STYLED_ITEM ( 'NONE', ( #68 ), #302 ) ;
#226 = ORIENTED_EDGE ( 'NONE', *, *, #112, .F. ) ;
#227 = CARTESIAN_POINT ( 'NONE',  ( 0.2500000000000000000, 0.1762109225472281993, 3.061616997868382402E-17 ) ) ;
#228 = EDGE_LOOP ( 'NONE', ( #141, #214 ) ) ;
#229 = EDGE_CURVE ( 'NONE', #273, #204, #45, .T. ) ;
#230 = UNCERTAINTY_MEASURE_WITH_UNIT (LENGTH_MEASURE( 1.000000000000000082E-05 ), #53, 'distance_accuracy_value', 'NONE');
#231 = EDGE_CURVE ( 'NONE', #204, #15, #272, .T. ) ;
#232 = MECHANICAL_DESIGN_GEOMETRIC_PRESENTATION_REPRESENTATION (  '', ( #186 ), #240 ) ;
#233 = DIRECTION ( 'NONE',  ( -1.206031236776656774E-16, 1.000000000000000000, 0.000000000000000000 ) ) ;
#234 = DIRECTION ( 'NONE',  ( -0.000000000000000000, -1.000000000000000000, -0.000000000000000000 ) ) ;
#235 = DIRECTION ( 'NONE',  ( -1.000000000000000000, -1.365923996832133088E-16, 0.000000000000000000 ) ) ;
#236 = CIRCLE ( 'NONE', #90, 0.2500000000000000555 ) ;
#237 = ORIENTED_EDGE ( 'NONE', *, *, #307, .T. ) ;
#238 = DIRECTION ( 'NONE',  ( -0.000000000000000000, -1.000000000000000000, -0.000000000000000000 ) ) ;
#239 =( LENGTH_UNIT ( ) NAMED_UNIT ( * ) SI_UNIT ( $, .METRE. ) );
#240 =( GEOMETRIC_REPRESENTATION_CONTEXT ( 3 ) GLOBAL_UNCERTAINTY_ASSIGNED_CONTEXT ( ( #158 ) ) GLOBAL_UNIT_ASSIGNED_CONTEXT ( ( #98, #76, #13 ) ) REPRESENTATION_CONTEXT ( 'NONE', 'WORKASPACE' ) );
#241 =( NAMED_UNIT ( * ) PLANE_ANGLE_UNIT ( ) SI_UNIT ( $, .RADIAN. ) );
#242 = CYLINDRICAL_SURFACE ( 'NONE', #292, 0.2499999999999998890 ) ;
#243 = ORIENTED_EDGE ( 'NONE', *, *, #231, .F. ) ;
#244 = ORIENTED_EDGE ( 'NONE', *, *, #229, .T. ) ;
#245 = ORIENTED_EDGE ( 'NONE', *, *, #229, .F. ) ;
#246 = AXIS2_PLACEMENT_3D ( 'NONE', #140, #205, #296 ) ;
#247 = EDGE_CURVE ( 'NONE', #89, #170, #209, .T. ) ;
#248 = DIRECTION ( 'NONE',  ( -1.206031236776656774E-16, 1.000000000000000000, -0.000000000000000000 ) ) ;
#249 =( CONVERSION_BASED_UNIT ( 'INCH', #114 ) LENGTH_UNIT ( ) NAMED_UNIT ( #173 ) );
#250 =( GEOMETRIC_REPRESENTATION_CONTEXT ( 3 ) GLOBAL_UNCERTAINTY_ASSIGNED_CONTEXT ( ( #129 ) ) GLOBAL_UNIT_ASSIGNED_CONTEXT ( ( #249, #121, #189 ) ) REPRESENTATION_CONTEXT ( 'NONE', 'WORKASPACE' ) );
#251 = DIRECTION ( 'NONE',  ( 0.000000000000000000, 0.6427876096865380307, 0.7660444431189791237 ) ) ;
#252 = DIRECTION ( 'NONE',  ( -1.206031236776656774E-16, 1.000000000000000000, -0.000000000000000000 ) ) ;
#253 = COLOUR_RGB ( '',1.000000000000000000, 0.000000000000000000, 0.000000000000000000 ) ;
#254 = AXIS2_PLACEMENT_3D ( 'NONE', #54, #4, #293 ) ;
#255 = DIRECTION ( 'NONE',  ( -1.206031236776656774E-16, 1.000000000000000000, -0.000000000000000000 ) ) ;
#256 = CARTESIAN_POINT ( 'NONE',  ( 0.000000000000000000, 0.000000000000000000, 0.000000000000000000 ) ) ;
#257 = FILL_AREA_STYLE_COLOUR ( '', #26 ) ;
#258 = PRESENTATION_LAYER_ASSIGNMENT (  '', '', ( #284 ) ) ;
#259 = CARTESIAN_POINT ( 'NONE',  ( 0.000000000000000000, 0.1762109225472281993, 0.2500000000000000000 ) ) ;
#260 = SHAPE_DEFINITION_REPRESENTATION ( #281, #50 ) ;
#261 = DIMENSIONAL_EXPONENTS ( 1.000000000000000000, 0.000000000000000000, 0.000000000000000000, 0.000000000000000000, 0.000000000000000000, 0.000000000000000000, 0.000000000000000000 ) ;
#262 = DIMENSIONAL_EXPONENTS ( 1.000000000000000000, 0.000000000000000000, 0.000000000000000000, 0.000000000000000000, 0.000000000000000000, 0.000000000000000000, 0.000000000000000000 ) ;
#263 = FILL_AREA_STYLE ('',( #201 ) ) ;
#264 = FACE_OUTER_BOUND ( 'NONE', #194, .T. ) ;
#265 = ADVANCED_FACE ( 'NONE', ( #215 ), #192, .T. ) ;
#266 = DIMENSIONAL_EXPONENTS ( 1.000000000000000000, 0.000000000000000000, 0.000000000000000000, 0.000000000000000000, 0.000000000000000000, 0.000000000000000000, 0.000000000000000000 ) ;
#267 = AXIS2_PLACEMENT_3D ( 'NONE', #218, #163, #235 ) ;
#268 = PRESENTATION_STYLE_ASSIGNMENT (( #58 ) ) ;
#269 =( NAMED_UNIT ( * ) PLANE_ANGLE_UNIT ( ) SI_UNIT ( $, .RADIAN. ) );
#270 = LENGTH_MEASURE_WITH_UNIT ( LENGTH_MEASURE( 0.02539999999999999897 ), #85 );
#271 = DIRECTION ( 'NONE',  ( 0.000000000000000000, -1.000000000000000000, -0.000000000000000000 ) ) ;
#272 = CIRCLE ( 'NONE', #146, 0.2500000000000000000 ) ;
#273 = VERTEX_POINT ( 'NONE', #135 ) ;
#274 = DIRECTION ( 'NONE',  ( -1.000000000000000000, 0.000000000000000000, 0.000000000000000000 ) ) ;
#275 = PRESENTATION_STYLE_ASSIGNMENT (( #88 ) ) ;
#276 = ORIENTED_EDGE ( 'NONE', *, *, #148, .T. ) ;
#277 = COLOUR_RGB ( '',1.000000000000000000, 0.000000000000000000, 0.000000000000000000 ) ;
#278 = CLOSED_SHELL ( 'NONE', ( #134, #302, #86, #67 ) ) ;
#279 = ADVANCED_FACE ( 'NONE', ( #102 ), #242, .T. ) ;
#280 = PRODUCT_RELATED_PRODUCT_CATEGORY ( 'part', '', ( #87 ) ) ;
#281 = PRODUCT_DEFINITION_SHAPE ( 'NONE', 'NONE',  #287 ) ;
#282 = CARTESIAN_POINT ( 'NONE',  ( 0.000000000000000000, 0.000000000000000000, 0.000000000000000000 ) ) ;
#283 = LINE ( 'NONE', #147, #125 ) ;
#284 = STYLED_ITEM ( 'NONE', ( #275 ), #134 ) ;
#285 = ORIENTED_EDGE ( 'NONE', *, *, #207, .F. ) ;
#286 = LINE ( 'NONE', #132, #57 ) ;
#287 = PRODUCT_DEFINITION ( 'UNKNOWN', '', #74, #299 ) ;
#288 = CARTESIAN_POINT ( 'NONE',  ( 0.2500000000000000000, 3.000000000000000444, 0.000000000000000000 ) ) ;
#289 = SURFACE_STYLE_USAGE ( .BOTH. , #96 ) ;
#290 = CARTESIAN_POINT ( 'NONE',  ( 0.000000000000000000, 0.000000000000000000, 0.000000000000000000 ) ) ;
#291 = CIRCLE ( 'NONE', #217, 0.04000000000000000083 ) ;
#292 = AXIS2_PLACEMENT_3D ( 'NONE', #179, #149, #25 ) ;
#293 = DIRECTION ( 'NONE',  ( 0.000000000000000000, -0.000000000000000000, 1.000000000000000000 ) ) ;
#294 = STYLED_ITEM ( 'NONE', ( #268 ), #2 ) ;
#295 =( NAMED_UNIT ( * ) SI_UNIT ( $, .STERADIAN. ) SOLID_ANGLE_UNIT ( ) );
#296 = DIRECTION ( 'NONE',  ( 0.000000000000000000, 0.000000000000000000, 1.000000000000000000 ) ) ;
#297 = SURFACE_STYLE_FILL_AREA ( #142 ) ;
#298 = ORIENTED_EDGE ( 'NONE', *, *, #1, .F. ) ;
#299 = PRODUCT_DEFINITION_CONTEXT ( 'detailed design', #166, 'design' ) ;
#300 = FILL_AREA_STYLE ('',( #60 ) ) ;
#301 = PRESENTATION_STYLE_ASSIGNMENT (( #210 ) ) ;
#302 = ADVANCED_FACE ( 'NONE', ( #264 ), #10, .T. ) ;
#303 = SURFACE_SIDE_STYLE ('',( #211 ) ) ;
#304 = VERTEX_POINT ( 'NONE', #77 ) ;
#305 = ORIENTED_EDGE ( 'NONE', *, *, #1, .T. ) ;
#306 = DIRECTION ( 'NONE',  ( -1.000000000000000000, -1.365923996832133088E-16, 0.000000000000000000 ) ) ;
#307 = EDGE_CURVE ( 'NONE', #89, #41, #286, .T. ) ;
#308 = AXIS2_PLACEMENT_3D ( 'NONE', #200, #69, #131 ) ;
#309 = DIRECTION ( 'NONE',  ( 0.000000000000000000, 1.000000000000000000, 0.000000000000000000 ) ) ;
ENDSEC;
END-ISO-10303-21;
