ISO-10303-21;
HEADER;
FILE_DESCRIPTION (( 'STEP AP214' ),
    '1' );
FILE_NAME ('24407.STEP',
    '2023-06-22T17:12:34',
    ( '' ),
    ( '' ),
    'SwSTEP 2.0',
    'SolidWorks 2023',
    '' );
FILE_SCHEMA (( 'AUTOMOTIVE_DESIGN' ));
ENDSEC;

DATA;
#1 = CARTESIAN_POINT ( 'NONE',  ( 0.000000000000000000, 0.000000000000000000, 0.000000000000000000 ) ) ;
#2 = ADVANCED_BREP_SHAPE_REPRESENTATION ( '24407', ( #50, #270, #135 ), #3 ) ;
#3 =( GEOMETRIC_REPRESENTATION_CONTEXT ( 3 ) GLOBAL_UNCERTAINTY_ASSIGNED_CONTEXT ( ( #72 ) ) GLOBAL_UNIT_ASSIGNED_CONTEXT ( ( #189, #162, #299 ) ) REPRESENTATION_CONTEXT ( 'NONE', 'WORKASPACE' ) );
#4 = EDGE_CURVE ( 'NONE', #125, #241, #266, .T. ) ;
#5 = FILL_AREA_STYLE ('',( #10 ) ) ;
#6 = SURFACE_SIDE_STYLE ('',( #32 ) ) ;
#7 =( GEOMETRIC_REPRESENTATION_CONTEXT ( 3 ) GLOBAL_UNCERTAINTY_ASSIGNED_CONTEXT ( ( #107 ) ) GLOBAL_UNIT_ASSIGNED_CONTEXT ( ( #49, #94, #99 ) ) REPRESENTATION_CONTEXT ( 'NONE', 'WORKASPACE' ) );
#8 =( LENGTH_UNIT ( ) NAMED_UNIT ( * ) SI_UNIT ( $, .METRE. ) );
#9 = VERTEX_POINT ( 'NONE', #192 ) ;
#10 = FILL_AREA_STYLE_COLOUR ( '', #74 ) ;
#11 = DIRECTION ( 'NONE',  ( -5.156407575357275299E-17, 1.000000000000000000, -0.000000000000000000 ) ) ;
#12 = PRODUCT_DEFINITION_FORMATION_WITH_SPECIFIED_SOURCE ( 'ANY', '', #117, .NOT_KNOWN. ) ;
#13 = DIRECTION ( 'NONE',  ( 1.000000000000000000, 0.000000000000000000, 0.000000000000000000 ) ) ;
#14 = ORIENTED_EDGE ( 'NONE', *, *, #161, .T. ) ;
#15 = EDGE_CURVE ( 'NONE', #129, #184, #243, .T. ) ;
#16 = SHAPE_DEFINITION_REPRESENTATION ( #73, #2 ) ;
#17 = ORIENTED_EDGE ( 'NONE', *, *, #287, .T. ) ;
#18 = EDGE_CURVE ( 'NONE', #83, #125, #199, .T. ) ;
#19 = MECHANICAL_DESIGN_GEOMETRIC_PRESENTATION_REPRESENTATION (  '', ( #151 ), #235 ) ;
#20 =( NAMED_UNIT ( * ) SI_UNIT ( $, .STERADIAN. ) SOLID_ANGLE_UNIT ( ) );
#21 = CARTESIAN_POINT ( 'NONE',  ( 0.000000000000000000, 0.000000000000000000, -0.3125000000000000000 ) ) ;
#22 = CARTESIAN_POINT ( 'NONE',  ( 0.000000000000000000, 1.625000000000000000, 0.000000000000000000 ) ) ;
#23 = CIRCLE ( 'NONE', #169, 0.3125000000000000000 ) ;
#24 = CARTESIAN_POINT ( 'NONE',  ( -1.224646799147352714E-16, 4.000000000000000000, 0.000000000000000000 ) ) ;
#25 = SURFACE_STYLE_FILL_AREA ( #291 ) ;
#26 = EDGE_CURVE ( 'NONE', #129, #9, #267, .T. ) ;
#27 = DIRECTION ( 'NONE',  ( 0.000000000000000000, 0.000000000000000000, -1.000000000000000000 ) ) ;
#28 = PRESENTATION_STYLE_ASSIGNMENT (( #196 ) ) ;
#29 = STYLED_ITEM ( 'NONE', ( #45 ), #50 ) ;
#30 = AXIS2_PLACEMENT_3D ( 'NONE', #209, #204, #293 ) ;
#31 = DIRECTION ( 'NONE',  ( -1.000000000000000000, 0.000000000000000000, 0.000000000000000000 ) ) ;
#32 = SURFACE_STYLE_FILL_AREA ( #210 ) ;
#33 =( GEOMETRIC_REPRESENTATION_CONTEXT ( 3 ) GLOBAL_UNCERTAINTY_ASSIGNED_CONTEXT ( ( #136 ) ) GLOBAL_UNIT_ASSIGNED_CONTEXT ( ( #215, #141, #20 ) ) REPRESENTATION_CONTEXT ( 'NONE', 'WORKASPACE' ) );
#34 = EDGE_LOOP ( 'NONE', ( #292, #304, #58, #261 ) ) ;
#35 = SURFACE_SIDE_STYLE ('',( #206 ) ) ;
#36 = VERTEX_POINT ( 'NONE', #137 ) ;
#37 = CARTESIAN_POINT ( 'NONE',  ( 0.3125000000000000000, 4.000000000000000000, 3.827021247335479543E-17 ) ) ;
#38 = CARTESIAN_POINT ( 'NONE',  ( 3.032960542342103792E-32, 1.625000000000000000, 0.000000000000000000 ) ) ;
#39 = STYLED_ITEM ( 'NONE', ( #28 ), #283 ) ;
#40 = ORIENTED_EDGE ( 'NONE', *, *, #48, .T. ) ;
#41 = DIMENSIONAL_EXPONENTS ( 1.000000000000000000, 0.000000000000000000, 0.000000000000000000, 0.000000000000000000, 0.000000000000000000, 0.000000000000000000, 0.000000000000000000 ) ;
#42 = DIRECTION ( 'NONE',  ( -1.000000000000000000, 0.000000000000000000, 0.000000000000000000 ) ) ;
#43 = CARTESIAN_POINT ( 'NONE',  ( 0.000000000000000000, 0.000000000000000000, 0.000000000000000000 ) ) ;
#44 = AXIS2_PLACEMENT_3D ( 'NONE', #43, #213, #278 ) ;
#45 = PRESENTATION_STYLE_ASSIGNMENT (( #164 ) ) ;
#46 = DIRECTION ( 'NONE',  ( 1.000000000000000000, 5.156407575357275916E-17, 0.000000000000000000 ) ) ;
#47 = COLOUR_RGB ( '',0.7921568627450980005, 0.8196078431372548767, 0.9333333333333333481 ) ;
#48 = EDGE_CURVE ( 'NONE', #125, #83, #23, .T. ) ;
#49 =( CONVERSION_BASED_UNIT ( 'INCH', #181 ) LENGTH_UNIT ( ) NAMED_UNIT ( #300 ) );
#50 = MANIFOLD_SOLID_BREP ( 'Revolve - Cutting Edge', #142 ) ;
#51 = DIMENSIONAL_EXPONENTS ( 1.000000000000000000, 0.000000000000000000, 0.000000000000000000, 0.000000000000000000, 0.000000000000000000, 0.000000000000000000, 0.000000000000000000 ) ;
#52 = CARTESIAN_POINT ( 'NONE',  ( -0.3125000000000002776, 4.000000000000000000, 0.000000000000000000 ) ) ;
#53 = EDGE_LOOP ( 'NONE', ( #156, #14, #233, #294 ) ) ;
#54 = FILL_AREA_STYLE ('',( #177 ) ) ;
#55 = CARTESIAN_POINT ( 'NONE',  ( 0.000000000000000000, 0.000000000000000000, 0.000000000000000000 ) ) ;
#56 = STYLED_ITEM ( 'NONE', ( #121 ), #173 ) ;
#57 = ORIENTED_EDGE ( 'NONE', *, *, #161, .F. ) ;
#58 = ORIENTED_EDGE ( 'NONE', *, *, #4, .T. ) ;
#59 = SURFACE_SIDE_STYLE ('',( #276 ) ) ;
#60 = ORIENTED_EDGE ( 'NONE', *, *, #48, .F. ) ;
#61 = ADVANCED_FACE ( 'NONE', ( #68 ), #63, .T. ) ;
#62 = AXIS2_PLACEMENT_3D ( 'NONE', #109, #309, #216 ) ;
#63 = CYLINDRICAL_SURFACE ( 'NONE', #257, 0.3125000000000000555 ) ;
#64 = DIRECTION ( 'NONE',  ( -1.000000000000000000, 0.000000000000000000, 0.000000000000000000 ) ) ;
#65 = AXIS2_PLACEMENT_3D ( 'NONE', #81, #228, #96 ) ;
#66 = DIRECTION ( 'NONE',  ( -5.156407575357275916E-17, 1.000000000000000000, -0.000000000000000000 ) ) ;
#67 = CYLINDRICAL_SURFACE ( 'NONE', #264, 0.3125000000000000555 ) ;
#68 = FACE_OUTER_BOUND ( 'NONE', #154, .T. ) ;
#69 = LINE ( 'NONE', #226, #227 ) ;
#70 = FACE_OUTER_BOUND ( 'NONE', #239, .T. ) ;
#71 = CIRCLE ( 'NONE', #44, 0.3125000000000000000 ) ;
#72 = UNCERTAINTY_MEASURE_WITH_UNIT (LENGTH_MEASURE( 1.000000000000000082E-05 ), #189, 'distance_accuracy_value', 'NONE');
#73 = PRODUCT_DEFINITION_SHAPE ( 'NONE', 'NONE',  #289 ) ;
#74 = COLOUR_RGB ( '',1.000000000000000000, 0.000000000000000000, 0.000000000000000000 ) ;
#75 = SURFACE_STYLE_USAGE ( .BOTH. , #59 ) ;
#76 = CYLINDRICAL_SURFACE ( 'NONE', #65, 0.3125000000000000000 ) ;
#77 = DIMENSIONAL_EXPONENTS ( 1.000000000000000000, 0.000000000000000000, 0.000000000000000000, 0.000000000000000000, 0.000000000000000000, 0.000000000000000000, 0.000000000000000000 ) ;
#78 = EDGE_CURVE ( 'NONE', #241, #36, #71, .T. ) ;
#79 = DIRECTION ( 'NONE',  ( -1.000000000000000000, 0.000000000000000000, 0.000000000000000000 ) ) ;
#80 = ORIENTED_EDGE ( 'NONE', *, *, #18, .F. ) ;
#81 = CARTESIAN_POINT ( 'NONE',  ( 0.000000000000000000, 0.000000000000000000, 0.000000000000000000 ) ) ;
#82 =( GEOMETRIC_REPRESENTATION_CONTEXT ( 3 ) GLOBAL_UNCERTAINTY_ASSIGNED_CONTEXT ( ( #111 ) ) GLOBAL_UNIT_ASSIGNED_CONTEXT ( ( #201, #220, #105 ) ) REPRESENTATION_CONTEXT ( 'NONE', 'WORKASPACE' ) );
#83 = VERTEX_POINT ( 'NONE', #168 ) ;
#84 = EDGE_LOOP ( 'NONE', ( #182, #208 ) ) ;
#85 = ORIENTED_EDGE ( 'NONE', *, *, #15, .T. ) ;
#86 = DIRECTION ( 'NONE',  ( 0.000000000000000000, 0.000000000000000000, 1.000000000000000000 ) ) ;
#87 = SURFACE_STYLE_FILL_AREA ( #302 ) ;
#88 = PRESENTATION_LAYER_ASSIGNMENT (  '', '', ( #56 ) ) ;
#89 = ORIENTED_EDGE ( 'NONE', *, *, #186, .T. ) ;
#90 = CARTESIAN_POINT ( 'NONE',  ( 0.000000000000000000, 0.000000000000000000, -0.3125000000000000000 ) ) ;
#91 = STYLED_ITEM ( 'NONE', ( #253 ), #236 ) ;
#92 = ORIENTED_EDGE ( 'NONE', *, *, #202, .T. ) ;
#93 = CARTESIAN_POINT ( 'NONE',  ( -1.224646799147352714E-16, 4.000000000000000000, 0.000000000000000000 ) ) ;
#94 =( NAMED_UNIT ( * ) PLANE_ANGLE_UNIT ( ) SI_UNIT ( $, .RADIAN. ) );
#95 = LENGTH_MEASURE_WITH_UNIT ( LENGTH_MEASURE( 0.02539999999999999897 ), #265 );
#96 = DIRECTION ( 'NONE',  ( 0.000000000000000000, 0.000000000000000000, -1.000000000000000000 ) ) ;
#97 = DIRECTION ( 'NONE',  ( -5.156407575357275916E-17, 1.000000000000000000, 0.000000000000000000 ) ) ;
#98 = DIRECTION ( 'NONE',  ( 0.000000000000000000, 0.000000000000000000, -1.000000000000000000 ) ) ;
#99 =( NAMED_UNIT ( * ) SI_UNIT ( $, .STERADIAN. ) SOLID_ANGLE_UNIT ( ) );
#100 = ORIENTED_EDGE ( 'NONE', *, *, #4, .F. ) ;
#101 = DIRECTION ( 'NONE',  ( -5.156407575357275916E-17, 1.000000000000000000, -0.000000000000000000 ) ) ;
#102 = EDGE_LOOP ( 'NONE', ( #301, #17 ) ) ;
#103 = PRESENTATION_STYLE_ASSIGNMENT (( #262 ) ) ;
#104 = COLOUR_RGB ( '',1.000000000000000000, 0.000000000000000000, 0.000000000000000000 ) ;
#105 =( NAMED_UNIT ( * ) SI_UNIT ( $, .STERADIAN. ) SOLID_ANGLE_UNIT ( ) );
#106 = APPLICATION_PROTOCOL_DEFINITION ( 'draft international standard', 'automotive_design', 1998, #167 ) ;
#107 = UNCERTAINTY_MEASURE_WITH_UNIT (LENGTH_MEASURE( 1.000000000000000082E-05 ), #49, 'distance_accuracy_value', 'NONE');
#108 = DIRECTION ( 'NONE',  ( -0.000000000000000000, -1.000000000000000000, -0.000000000000000000 ) ) ;
#109 = CARTESIAN_POINT ( 'NONE',  ( 0.000000000000000000, 1.625000000000000000, 0.000000000000000000 ) ) ;
#110 =( LENGTH_UNIT ( ) NAMED_UNIT ( * ) SI_UNIT ( $, .METRE. ) );
#111 = UNCERTAINTY_MEASURE_WITH_UNIT (LENGTH_MEASURE( 1.000000000000000082E-05 ), #201, 'distance_accuracy_value', 'NONE');
#112 = CARTESIAN_POINT ( 'NONE',  ( 3.032960542342103792E-32, 1.625000000000000000, 0.000000000000000000 ) ) ;
#113 = CLOSED_SHELL ( 'NONE', ( #252, #306, #61, #254 ) ) ;
#114 = MECHANICAL_DESIGN_GEOMETRIC_PRESENTATION_REPRESENTATION (  '', ( #91 ), #82 ) ;
#115 = DIRECTION ( 'NONE',  ( -0.000000000000000000, -1.000000000000000000, -0.000000000000000000 ) ) ;
#116 = DIRECTION ( 'NONE',  ( -1.000000000000000000, -5.156407575357275916E-17, 0.000000000000000000 ) ) ;
#117 = PRODUCT ( '24407', '24407', '', ( #130 ) ) ;
#118 =( NAMED_UNIT ( * ) SI_UNIT ( $, .STERADIAN. ) SOLID_ANGLE_UNIT ( ) );
#119 =( NAMED_UNIT ( * ) PLANE_ANGLE_UNIT ( ) SI_UNIT ( $, .RADIAN. ) );
#120 = STYLED_ITEM ( 'NONE', ( #145 ), #270 ) ;
#121 = PRESENTATION_STYLE_ASSIGNMENT (( #298 ) ) ;
#122 = ADVANCED_FACE ( 'NONE', ( #218 ), #245, .T. ) ;
#123 = AXIS2_PLACEMENT_3D ( 'NONE', #112, #132, #42 ) ;
#124 = CIRCLE ( 'NONE', #174, 0.3125000000000000000 ) ;
#125 = VERTEX_POINT ( 'NONE', #222 ) ;
#126 = DIRECTION ( 'NONE',  ( 0.000000000000000000, -1.000000000000000000, -0.000000000000000000 ) ) ;
#127 =( NAMED_UNIT ( * ) PLANE_ANGLE_UNIT ( ) SI_UNIT ( $, .RADIAN. ) );
#128 = VECTOR ( 'NONE', #101, 39.37007874015748143 ) ;
#129 = VERTEX_POINT ( 'NONE', #224 ) ;
#130 = PRODUCT_CONTEXT ( 'NONE', #167, 'mechanical' ) ;
#131 = ORIENTED_EDGE ( 'NONE', *, *, #160, .T. ) ;
#132 = DIRECTION ( 'NONE',  ( -5.156407575357275299E-17, 1.000000000000000000, -0.000000000000000000 ) ) ;
#133 = FILL_AREA_STYLE ('',( #307 ) ) ;
#134 = CIRCLE ( 'NONE', #308, 0.3125000000000000000 ) ;
#135 = AXIS2_PLACEMENT_3D ( 'NONE', #260, #86, #13 ) ;
#136 = UNCERTAINTY_MEASURE_WITH_UNIT (LENGTH_MEASURE( 1.000000000000000082E-05 ), #215, 'distance_accuracy_value', 'NONE');
#137 = CARTESIAN_POINT ( 'NONE',  ( 3.827021247335478926E-17, 0.000000000000000000, 0.3125000000000000000 ) ) ;
#138 = PRODUCT_RELATED_PRODUCT_CATEGORY ( 'part', '', ( #117 ) ) ;
#139 = FACE_OUTER_BOUND ( 'NONE', #185, .T. ) ;
#140 = DIRECTION ( 'NONE',  ( -5.156407575357275299E-17, 1.000000000000000000, -0.000000000000000000 ) ) ;
#141 =( NAMED_UNIT ( * ) PLANE_ANGLE_UNIT ( ) SI_UNIT ( $, .RADIAN. ) );
#142 = CLOSED_SHELL ( 'NONE', ( #283, #236, #122, #173 ) ) ;
#143 = LENGTH_MEASURE_WITH_UNIT ( LENGTH_MEASURE( 0.02539999999999999897 ), #223 );
#144 = DIRECTION ( 'NONE',  ( 0.000000000000000000, 0.000000000000000000, -1.000000000000000000 ) ) ;
#145 = PRESENTATION_STYLE_ASSIGNMENT (( #296 ) ) ;
#146 = COLOUR_RGB ( '',1.000000000000000000, 0.000000000000000000, 0.000000000000000000 ) ;
#147 = PLANE ( 'NONE',  #62 ) ;
#148 = FILL_AREA_STYLE_COLOUR ( '', #146 ) ;
#149 = DIMENSIONAL_EXPONENTS ( 1.000000000000000000, 0.000000000000000000, 0.000000000000000000, 0.000000000000000000, 0.000000000000000000, 0.000000000000000000, 0.000000000000000000 ) ;
#150 = ORIENTED_EDGE ( 'NONE', *, *, #78, .F. ) ;
#151 = STYLED_ITEM ( 'NONE', ( #103 ), #122 ) ;
#152 = LENGTH_MEASURE_WITH_UNIT ( LENGTH_MEASURE( 0.02539999999999999897 ), #295 );
#153 =( NAMED_UNIT ( * ) SI_UNIT ( $, .STERADIAN. ) SOLID_ANGLE_UNIT ( ) );
#154 = EDGE_LOOP ( 'NONE', ( #57, #92, #85, #237 ) ) ;
#155 =( CONVERSION_BASED_UNIT ( 'INCH', #152 ) LENGTH_UNIT ( ) NAMED_UNIT ( #149 ) );
#156 = ORIENTED_EDGE ( 'NONE', *, *, #26, .T. ) ;
#157 = AXIS2_PLACEMENT_3D ( 'NONE', #22, #279, #244 ) ;
#158 = PRESENTATION_LAYER_ASSIGNMENT (  '', '', ( #39 ) ) ;
#159 = COLOUR_RGB ( '',0.7921568627450980005, 0.8196078431372548767, 0.9333333333333333481 ) ;
#160 = EDGE_CURVE ( 'NONE', #83, #36, #69, .T. ) ;
#161 = EDGE_CURVE ( 'NONE', #9, #178, #230, .T. ) ;
#162 =( NAMED_UNIT ( * ) PLANE_ANGLE_UNIT ( ) SI_UNIT ( $, .RADIAN. ) );
#163 = UNCERTAINTY_MEASURE_WITH_UNIT (LENGTH_MEASURE( 1.000000000000000082E-05 ), #155, 'distance_accuracy_value', 'NONE');
#164 = SURFACE_STYLE_USAGE ( .BOTH. , #263 ) ;
#165 = AXIS2_PLACEMENT_3D ( 'NONE', #259, #126, #98 ) ;
#166 = LENGTH_MEASURE_WITH_UNIT ( LENGTH_MEASURE( 0.02539999999999999897 ), #110 );
#167 = APPLICATION_CONTEXT ( 'automotive_design' ) ;
#168 = CARTESIAN_POINT ( 'NONE',  ( 3.827021247335478926E-17, 1.625000000000000000, 0.3125000000000000000 ) ) ;
#169 = AXIS2_PLACEMENT_3D ( 'NONE', #217, #282, #246 ) ;
#170 = CIRCLE ( 'NONE', #275, 0.3125000000000001665 ) ;
#171 =( LENGTH_UNIT ( ) NAMED_UNIT ( * ) SI_UNIT ( $, .METRE. ) );
#172 = PRODUCT_DEFINITION_CONTEXT ( 'detailed design', #221, 'design' ) ;
#173 = ADVANCED_FACE ( 'NONE', ( #290 ), #258, .T. ) ;
#174 = AXIS2_PLACEMENT_3D ( 'NONE', #55, #249, #27 ) ;
#175 = CARTESIAN_POINT ( 'NONE',  ( 0.3124999999999999445, 4.000000000000000000, 3.827021247335479543E-17 ) ) ;
#176 = PLANE ( 'NONE',  #281 ) ;
#177 = FILL_AREA_STYLE_COLOUR ( '', #219 ) ;
#178 = VERTEX_POINT ( 'NONE', #37 ) ;
#179 = DIMENSIONAL_EXPONENTS ( 1.000000000000000000, 0.000000000000000000, 0.000000000000000000, 0.000000000000000000, 0.000000000000000000, 0.000000000000000000, 0.000000000000000000 ) ;
#180 = PRESENTATION_LAYER_ASSIGNMENT (  '', '', ( #91 ) ) ;
#181 = LENGTH_MEASURE_WITH_UNIT ( LENGTH_MEASURE( 0.02539999999999999897 ), #171 );
#182 = ORIENTED_EDGE ( 'NONE', *, *, #26, .F. ) ;
#183 = DIRECTION ( 'NONE',  ( -5.156407575357275299E-17, 1.000000000000000000, -0.000000000000000000 ) ) ;
#184 = VERTEX_POINT ( 'NONE', #52 ) ;
#185 = EDGE_LOOP ( 'NONE', ( #256, #89 ) ) ;
#186 = EDGE_CURVE ( 'NONE', #178, #184, #303, .T. ) ;
#187 = VECTOR ( 'NONE', #66, 39.37007874015748143 ) ;
#188 = SURFACE_SIDE_STYLE ('',( #87 ) ) ;
#189 =( CONVERSION_BASED_UNIT ( 'INCH', #240 ) LENGTH_UNIT ( ) NAMED_UNIT ( #41 ) );
#190 = SURFACE_STYLE_FILL_AREA ( #133 ) ;
#191 = FACE_OUTER_BOUND ( 'NONE', #53, .T. ) ;
#192 = CARTESIAN_POINT ( 'NONE',  ( 0.3125000000000000000, 1.625000000000000000, 3.827021247335479543E-17 ) ) ;
#193 = MECHANICAL_DESIGN_GEOMETRIC_PRESENTATION_REPRESENTATION (  '', ( #120 ), #247 ) ;
#194 = DIRECTION ( 'NONE',  ( -1.000000000000000000, 0.000000000000000000, 0.000000000000000000 ) ) ;
#195 = EDGE_CURVE ( 'NONE', #184, #178, #170, .T. ) ;
#196 = SURFACE_STYLE_USAGE ( .BOTH. , #6 ) ;
#197 = UNCERTAINTY_MEASURE_WITH_UNIT (LENGTH_MEASURE( 1.000000000000000082E-05 ), #269, 'distance_accuracy_value', 'NONE');
#198 = DIRECTION ( 'NONE',  ( -0.000000000000000000, -1.000000000000000000, -0.000000000000000000 ) ) ;
#199 = CIRCLE ( 'NONE', #157, 0.3125000000000000000 ) ;
#200 = AXIS2_PLACEMENT_3D ( 'NONE', #1, #115, #144 ) ;
#201 =( CONVERSION_BASED_UNIT ( 'INCH', #229 ) LENGTH_UNIT ( ) NAMED_UNIT ( #277 ) );
#202 = EDGE_CURVE ( 'NONE', #9, #129, #134, .T. ) ;
#203 = MECHANICAL_DESIGN_GEOMETRIC_PRESENTATION_REPRESENTATION (  '', ( #39 ), #7 ) ;
#204 = DIRECTION ( 'NONE',  ( -5.156407575357275299E-17, 1.000000000000000000, -0.000000000000000000 ) ) ;
#205 = FACE_OUTER_BOUND ( 'NONE', #84, .T. ) ;
#206 = SURFACE_STYLE_FILL_AREA ( #5 ) ;
#207 = FILL_AREA_STYLE_COLOUR ( '', #159 ) ;
#208 = ORIENTED_EDGE ( 'NONE', *, *, #202, .F. ) ;
#209 = CARTESIAN_POINT ( 'NONE',  ( -1.224646799147352714E-16, 4.000000000000000000, 0.000000000000000000 ) ) ;
#210 = FILL_AREA_STYLE ('',( #148 ) ) ;
#211 = PRESENTATION_LAYER_ASSIGNMENT (  '', '', ( #120 ) ) ;
#212 = FACE_OUTER_BOUND ( 'NONE', #273, .T. ) ;
#213 = DIRECTION ( 'NONE',  ( -0.000000000000000000, -1.000000000000000000, -0.000000000000000000 ) ) ;
#214 = PRESENTATION_LAYER_ASSIGNMENT (  '', '', ( #29 ) ) ;
#215 =( CONVERSION_BASED_UNIT ( 'INCH', #166 ) LENGTH_UNIT ( ) NAMED_UNIT ( #51 ) );
#216 = DIRECTION ( 'NONE',  ( 0.000000000000000000, -0.000000000000000000, 1.000000000000000000 ) ) ;
#217 = CARTESIAN_POINT ( 'NONE',  ( 0.000000000000000000, 1.625000000000000000, 0.000000000000000000 ) ) ;
#218 = FACE_OUTER_BOUND ( 'NONE', #34, .T. ) ;
#219 = COLOUR_RGB ( '',1.000000000000000000, 0.000000000000000000, 0.000000000000000000 ) ;
#220 =( NAMED_UNIT ( * ) PLANE_ANGLE_UNIT ( ) SI_UNIT ( $, .RADIAN. ) );
#221 = APPLICATION_CONTEXT ( 'automotive_design' ) ;
#222 = CARTESIAN_POINT ( 'NONE',  ( 0.000000000000000000, 1.625000000000000000, -0.3125000000000000000 ) ) ;
#223 =( LENGTH_UNIT ( ) NAMED_UNIT ( * ) SI_UNIT ( $, .METRE. ) );
#224 = CARTESIAN_POINT ( 'NONE',  ( -0.3125000000000000000, 1.625000000000000000, 0.000000000000000000 ) ) ;
#225 = CARTESIAN_POINT ( 'NONE',  ( 0.3125000000000000000, 4.000000000000000000, 0.000000000000000000 ) ) ;
#226 = CARTESIAN_POINT ( 'NONE',  ( 3.827021247335478926E-17, 0.000000000000000000, 0.3125000000000000000 ) ) ;
#227 = VECTOR ( 'NONE', #198, 39.37007874015748143 ) ;
#228 = DIRECTION ( 'NONE',  ( -0.000000000000000000, -1.000000000000000000, -0.000000000000000000 ) ) ;
#229 = LENGTH_MEASURE_WITH_UNIT ( LENGTH_MEASURE( 0.02539999999999999897 ), #8 );
#230 = LINE ( 'NONE', #175, #128 ) ;
#231 = CARTESIAN_POINT ( 'NONE',  ( 4.154459231750295889E-34, 1.625000000000000000, 0.000000000000000000 ) ) ;
#232 =( LENGTH_UNIT ( ) NAMED_UNIT ( * ) SI_UNIT ( $, .METRE. ) );
#233 = ORIENTED_EDGE ( 'NONE', *, *, #195, .F. ) ;
#234 = CARTESIAN_POINT ( 'NONE',  ( -1.224646799147352714E-16, 4.000000000000000000, 0.000000000000000000 ) ) ;
#235 =( GEOMETRIC_REPRESENTATION_CONTEXT ( 3 ) GLOBAL_UNCERTAINTY_ASSIGNED_CONTEXT ( ( #285 ) ) GLOBAL_UNIT_ASSIGNED_CONTEXT ( ( #251, #250, #118 ) ) REPRESENTATION_CONTEXT ( 'NONE', 'WORKASPACE' ) );
#236 = ADVANCED_FACE ( 'NONE', ( #212 ), #147, .T. ) ;
#237 = ORIENTED_EDGE ( 'NONE', *, *, #186, .F. ) ;
#238 = APPLICATION_PROTOCOL_DEFINITION ( 'draft international standard', 'automotive_design', 1998, #221 ) ;
#239 = EDGE_LOOP ( 'NONE', ( #40, #131, #150, #100 ) ) ;
#240 = LENGTH_MEASURE_WITH_UNIT ( LENGTH_MEASURE( 0.02539999999999999897 ), #232 );
#241 = VERTEX_POINT ( 'NONE', #90 ) ;
#242 = MECHANICAL_DESIGN_GEOMETRIC_PRESENTATION_REPRESENTATION (  '', ( #29 ), #33 ) ;
#243 = LINE ( 'NONE', #284, #187 ) ;
#244 = DIRECTION ( 'NONE',  ( 0.000000000000000000, 0.000000000000000000, -1.000000000000000000 ) ) ;
#245 = CYLINDRICAL_SURFACE ( 'NONE', #200, 0.3125000000000000000 ) ;
#246 = DIRECTION ( 'NONE',  ( 0.000000000000000000, 0.000000000000000000, -1.000000000000000000 ) ) ;
#247 =( GEOMETRIC_REPRESENTATION_CONTEXT ( 3 ) GLOBAL_UNCERTAINTY_ASSIGNED_CONTEXT ( ( #197 ) ) GLOBAL_UNIT_ASSIGNED_CONTEXT ( ( #269, #119, #153 ) ) REPRESENTATION_CONTEXT ( 'NONE', 'WORKASPACE' ) );
#248 = PLANE ( 'NONE',  #288 ) ;
#249 = DIRECTION ( 'NONE',  ( -0.000000000000000000, -1.000000000000000000, -0.000000000000000000 ) ) ;
#250 =( NAMED_UNIT ( * ) PLANE_ANGLE_UNIT ( ) SI_UNIT ( $, .RADIAN. ) );
#251 =( CONVERSION_BASED_UNIT ( 'INCH', #95 ) LENGTH_UNIT ( ) NAMED_UNIT ( #77 ) );
#252 = ADVANCED_FACE ( 'NONE', ( #191 ), #67, .T. ) ;
#253 = PRESENTATION_STYLE_ASSIGNMENT (( #75 ) ) ;
#254 = ADVANCED_FACE ( 'NONE', ( #139 ), #248, .F. ) ;
#255 = DIRECTION ( 'NONE',  ( 5.156407575357275916E-17, -1.000000000000000000, 0.000000000000000000 ) ) ;
#256 = ORIENTED_EDGE ( 'NONE', *, *, #195, .T. ) ;
#257 = AXIS2_PLACEMENT_3D ( 'NONE', #24, #140, #194 ) ;
#258 = PLANE ( 'NONE',  #165 ) ;
#259 = CARTESIAN_POINT ( 'NONE',  ( 0.000000000000000000, 0.000000000000000000, 0.000000000000000000 ) ) ;
#260 = CARTESIAN_POINT ( 'NONE',  ( 0.000000000000000000, 0.000000000000000000, 0.000000000000000000 ) ) ;
#261 = ORIENTED_EDGE ( 'NONE', *, *, #287, .F. ) ;
#262 = SURFACE_STYLE_USAGE ( .BOTH. , #188 ) ;
#263 = SURFACE_SIDE_STYLE ('',( #190 ) ) ;
#264 = AXIS2_PLACEMENT_3D ( 'NONE', #93, #280, #64 ) ;
#265 =( LENGTH_UNIT ( ) NAMED_UNIT ( * ) SI_UNIT ( $, .METRE. ) );
#266 = LINE ( 'NONE', #21, #286 ) ;
#267 = CIRCLE ( 'NONE', #123, 0.3125000000000000000 ) ;
#268 =( GEOMETRIC_REPRESENTATION_CONTEXT ( 3 ) GLOBAL_UNCERTAINTY_ASSIGNED_CONTEXT ( ( #163 ) ) GLOBAL_UNIT_ASSIGNED_CONTEXT ( ( #155, #127, #272 ) ) REPRESENTATION_CONTEXT ( 'NONE', 'WORKASPACE' ) );
#269 =( CONVERSION_BASED_UNIT ( 'INCH', #143 ) LENGTH_UNIT ( ) NAMED_UNIT ( #179 ) );
#270 = MANIFOLD_SOLID_BREP ( 'Revolve - Tool Body (Straight Shanked)', #113 ) ;
#271 = MECHANICAL_DESIGN_GEOMETRIC_PRESENTATION_REPRESENTATION (  '', ( #56 ), #268 ) ;
#272 =( NAMED_UNIT ( * ) SI_UNIT ( $, .STERADIAN. ) SOLID_ANGLE_UNIT ( ) );
#273 = EDGE_LOOP ( 'NONE', ( #60, #80 ) ) ;
#274 = SURFACE_SIDE_STYLE ('',( #25 ) ) ;
#275 = AXIS2_PLACEMENT_3D ( 'NONE', #234, #11, #79 ) ;
#276 = SURFACE_STYLE_FILL_AREA ( #54 ) ;
#277 = DIMENSIONAL_EXPONENTS ( 1.000000000000000000, 0.000000000000000000, 0.000000000000000000, 0.000000000000000000, 0.000000000000000000, 0.000000000000000000, 0.000000000000000000 ) ;
#278 = DIRECTION ( 'NONE',  ( 0.000000000000000000, 0.000000000000000000, -1.000000000000000000 ) ) ;
#279 = DIRECTION ( 'NONE',  ( -0.000000000000000000, -1.000000000000000000, -0.000000000000000000 ) ) ;
#280 = DIRECTION ( 'NONE',  ( -5.156407575357275299E-17, 1.000000000000000000, -0.000000000000000000 ) ) ;
#281 = AXIS2_PLACEMENT_3D ( 'NONE', #231, #97, #116 ) ;
#282 = DIRECTION ( 'NONE',  ( -0.000000000000000000, -1.000000000000000000, -0.000000000000000000 ) ) ;
#283 = ADVANCED_FACE ( 'NONE', ( #70 ), #76, .T. ) ;
#284 = CARTESIAN_POINT ( 'NONE',  ( -0.3125000000000002220, 4.000000000000000000, 0.000000000000000000 ) ) ;
#285 = UNCERTAINTY_MEASURE_WITH_UNIT (LENGTH_MEASURE( 1.000000000000000082E-05 ), #251, 'distance_accuracy_value', 'NONE');
#286 = VECTOR ( 'NONE', #108, 39.37007874015748143 ) ;
#287 = EDGE_CURVE ( 'NONE', #36, #241, #124, .T. ) ;
#288 = AXIS2_PLACEMENT_3D ( 'NONE', #225, #255, #46 ) ;
#289 = PRODUCT_DEFINITION ( 'UNKNOWN', '', #12, #172 ) ;
#290 = FACE_OUTER_BOUND ( 'NONE', #102, .T. ) ;
#291 = FILL_AREA_STYLE ('',( #207 ) ) ;
#292 = ORIENTED_EDGE ( 'NONE', *, *, #160, .F. ) ;
#293 = DIRECTION ( 'NONE',  ( -1.000000000000000000, 0.000000000000000000, 0.000000000000000000 ) ) ;
#294 = ORIENTED_EDGE ( 'NONE', *, *, #15, .F. ) ;
#295 =( LENGTH_UNIT ( ) NAMED_UNIT ( * ) SI_UNIT ( $, .METRE. ) );
#296 = SURFACE_STYLE_USAGE ( .BOTH. , #274 ) ;
#297 = PRESENTATION_LAYER_ASSIGNMENT (  '', '', ( #151 ) ) ;
#298 = SURFACE_STYLE_USAGE ( .BOTH. , #35 ) ;
#299 =( NAMED_UNIT ( * ) SI_UNIT ( $, .STERADIAN. ) SOLID_ANGLE_UNIT ( ) );
#300 = DIMENSIONAL_EXPONENTS ( 1.000000000000000000, 0.000000000000000000, 0.000000000000000000, 0.000000000000000000, 0.000000000000000000, 0.000000000000000000, 0.000000000000000000 ) ;
#301 = ORIENTED_EDGE ( 'NONE', *, *, #78, .T. ) ;
#302 = FILL_AREA_STYLE ('',( #305 ) ) ;
#303 = CIRCLE ( 'NONE', #30, 0.3125000000000001665 ) ;
#304 = ORIENTED_EDGE ( 'NONE', *, *, #18, .T. ) ;
#305 = FILL_AREA_STYLE_COLOUR ( '', #104 ) ;
#306 = ADVANCED_FACE ( 'NONE', ( #205 ), #176, .F. ) ;
#307 = FILL_AREA_STYLE_COLOUR ( '', #47 ) ;
#308 = AXIS2_PLACEMENT_3D ( 'NONE', #38, #183, #31 ) ;
#309 = DIRECTION ( 'NONE',  ( 0.000000000000000000, 1.000000000000000000, 0.000000000000000000 ) ) ;
ENDSEC;
END-ISO-10303-21;
