ISO-10303-21;
HEADER;
FILE_DESCRIPTION (( 'STEP AP214' ),
    '1' );
FILE_NAME ('Micro_KC-125-190-060.STEP',
    '2021-09-03T19:09:23',
    ( '' ),
    ( '' ),
    'SwSTEP 2.0',
    'SolidWorks 2020',
    '' );
FILE_SCHEMA (( 'AUTOMOTIVE_DESIGN' ));
ENDSEC;

DATA;
#1 = ORIENTED_EDGE ( 'NONE', *, *, #340, .F. ) ;
#2 = EDGE_CURVE ( 'NONE', #275, #147, #93, .T. ) ;
#3 = CONICAL_SURFACE ( 'NONE', #227, 0.04750000000000064587, 0.7853981633974457255 ) ;
#4 =( GEOMETRIC_REPRESENTATION_CONTEXT ( 3 ) GLOBAL_UNCERTAINTY_ASSIGNED_CONTEXT ( ( #311 ) ) GLOBAL_UNIT_ASSIGNED_CONTEXT ( ( #260, #62, #89 ) ) REPRESENTATION_CONTEXT ( 'NONE', 'WORKASPACE' ) );
#5 =( LENGTH_UNIT ( ) NAMED_UNIT ( * ) SI_UNIT ( $, .METRE. ) );
#6 = LINE ( 'NONE', #43, #267 ) ;
#7 = ADVANCED_BREP_SHAPE_REPRESENTATION ( 'Micro_KC-125-190-060', ( #19, #71 ), #181 ) ;
#8 = DIRECTION ( 'NONE',  ( -0.0000000000000000000, -0.0000000000000000000, -1.000000000000000000 ) ) ;
#9 = EDGE_CURVE ( 'NONE', #275, #310, #201, .T. ) ;
#10 = AXIS2_PLACEMENT_3D ( 'NONE', #72, #236, #187 ) ;
#11 = DIRECTION ( 'NONE',  ( 0.0000000000000000000, 0.0000000000000000000, 1.000000000000000000 ) ) ;
#12 = CARTESIAN_POINT ( 'NONE',  ( -0.04750000000000064587, 0.0000000000000000000, 1.500000000000000222 ) ) ;
#13 = PLANE ( 'NONE',  #375 ) ;
#14 = DIMENSIONAL_EXPONENTS ( 1.000000000000000000, 0.0000000000000000000, 0.0000000000000000000, 0.0000000000000000000, 0.0000000000000000000, 0.0000000000000000000, 0.0000000000000000000 ) ;
#15 = DIRECTION ( 'NONE',  ( 0.0000000000000000000, 0.0000000000000000000, 1.000000000000000000 ) ) ;
#16 = CIRCLE ( 'NONE', #110, 0.06250000000000000000 ) ;
#17 = MECHANICAL_DESIGN_GEOMETRIC_PRESENTATION_REPRESENTATION (  '', ( #263 ), #4 ) ;
#18 = ORIENTED_EDGE ( 'NONE', *, *, #207, .T. ) ;
#19 = MANIFOLD_SOLID_BREP ( 'Cut-Revolve1', #325 ) ;
#20 = DIRECTION ( 'NONE',  ( -0.0000000000000000000, -0.0000000000000000000, -1.000000000000000000 ) ) ;
#21 = VERTEX_POINT ( 'NONE', #288 ) ;
#22 = LINE ( 'NONE', #244, #273 ) ;
#23 = ORIENTED_EDGE ( 'NONE', *, *, #84, .T. ) ;
#24 = DIRECTION ( 'NONE',  ( 0.0000000000000000000, 0.0000000000000000000, 1.000000000000000000 ) ) ;
#25 = CIRCLE ( 'NONE', #301, 0.06250000000000000000 ) ;
#26 = DIRECTION ( 'NONE',  ( 0.0000000000000000000, 0.0000000000000000000, 1.000000000000000000 ) ) ;
#27 = ORIENTED_EDGE ( 'NONE', *, *, #44, .T. ) ;
#28 = SURFACE_STYLE_FILL_AREA ( #171 ) ;
#29 = EDGE_LOOP ( 'NONE', ( #370, #197, #320, #247 ) ) ;
#30 = EDGE_CURVE ( 'NONE', #167, #259, #208, .T. ) ;
#31 = ORIENTED_EDGE ( 'NONE', *, *, #349, .F. ) ;
#32 = CIRCLE ( 'NONE', #176, 0.03100000000000001713 ) ;
#33 = VERTEX_POINT ( 'NONE', #152 ) ;
#34 =( LENGTH_UNIT ( ) NAMED_UNIT ( * ) SI_UNIT ( $, .METRE. ) );
#35 = DIRECTION ( 'NONE',  ( -0.7071067811865489050, 8.659560562354950115E-17, 0.7071067811865461294 ) ) ;
#36 = AXIS2_PLACEMENT_3D ( 'NONE', #216, #333, #73 ) ;
#37 = FACE_OUTER_BOUND ( 'NONE', #252, .T. ) ;
#38 = CARTESIAN_POINT ( 'NONE',  ( 0.0000000000000000000, 0.0000000000000000000, 0.1899999999999999745 ) ) ;
#39 = EDGE_CURVE ( 'NONE', #33, #259, #85, .T. ) ;
#40 = CARTESIAN_POINT ( 'NONE',  ( 0.0000000000000000000, 0.0000000000000000000, 1.500000000000000222 ) ) ;
#41 = CIRCLE ( 'NONE', #316, 0.03100000000000001713 ) ;
#42 = PRESENTATION_LAYER_ASSIGNMENT (  '', '', ( #263 ) ) ;
#43 = CARTESIAN_POINT ( 'NONE',  ( 0.03100000000000001713, 0.0000000000000000000, 0.1899999999999999745 ) ) ;
#44 = EDGE_CURVE ( 'NONE', #21, #50, #287, .T. ) ;
#45 = CARTESIAN_POINT ( 'NONE',  ( -0.06250000000000001388, 0.0000000000000000000, 0.05999999999999999778 ) ) ;
#46 = DIRECTION ( 'NONE',  ( 1.000000000000000000, 0.0000000000000000000, 0.0000000000000000000 ) ) ;
#47 = DIRECTION ( 'NONE',  ( 1.000000000000000000, 0.0000000000000000000, 0.0000000000000000000 ) ) ;
#48 = AXIS2_PLACEMENT_3D ( 'NONE', #51, #249, #109 ) ;
#49 = VERTEX_POINT ( 'NONE', #356 ) ;
#50 = VERTEX_POINT ( 'NONE', #12 ) ;
#51 = CARTESIAN_POINT ( 'NONE',  ( 0.0000000000000000000, 0.0000000000000000000, 1.500000000000000222 ) ) ;
#52 = EDGE_LOOP ( 'NONE', ( #228, #314, #254, #161 ) ) ;
#53 = PLANE ( 'NONE',  #153 ) ;
#54 = ORIENTED_EDGE ( 'NONE', *, *, #340, .T. ) ;
#55 = LENGTH_MEASURE_WITH_UNIT ( LENGTH_MEASURE( 0.02539999999999999897 ), #34 );
#56 = ADVANCED_FACE ( 'NONE', ( #37 ), #294, .T. ) ;
#57 = CARTESIAN_POINT ( 'NONE',  ( 0.06250000000000000000, 7.654042494670956004E-18, 1.500000000000000222 ) ) ;
#58 = CIRCLE ( 'NONE', #169, 0.06250000000000000000 ) ;
#59 = ADVANCED_FACE ( 'NONE', ( #266, #157 ), #13, .T. ) ;
#60 =( NAMED_UNIT ( * ) PLANE_ANGLE_UNIT ( ) SI_UNIT ( $, .RADIAN. ) );
#61 = FILL_AREA_STYLE ('',( #317 ) ) ;
#62 =( NAMED_UNIT ( * ) PLANE_ANGLE_UNIT ( ) SI_UNIT ( $, .RADIAN. ) );
#63 = DIRECTION ( 'NONE',  ( -0.0000000000000000000, -0.0000000000000000000, -1.000000000000000000 ) ) ;
#64 = DIRECTION ( 'NONE',  ( -1.000000000000000000, 0.0000000000000000000, 0.0000000000000000000 ) ) ;
#65 = STYLED_ITEM ( 'NONE', ( #178 ), #19 ) ;
#66 = FACE_OUTER_BOUND ( 'NONE', #144, .T. ) ;
#67 = CARTESIAN_POINT ( 'NONE',  ( 0.0000000000000000000, 0.0000000000000000000, 1.485000000000000764 ) ) ;
#68 = CARTESIAN_POINT ( 'NONE',  ( 0.0000000000000000000, 0.0000000000000000000, 1.500000000000000222 ) ) ;
#69 = EDGE_CURVE ( 'NONE', #233, #33, #6, .T. ) ;
#70 = VECTOR ( 'NONE', #35, 39.37007874015748143 ) ;
#71 = AXIS2_PLACEMENT_3D ( 'NONE', #175, #145, #230 ) ;
#72 = CARTESIAN_POINT ( 'NONE',  ( 0.0000000000000000000, 0.0000000000000000000, 1.500000000000000222 ) ) ;
#73 = DIRECTION ( 'NONE',  ( 1.000000000000000000, 0.0000000000000000000, 0.0000000000000000000 ) ) ;
#74 = CARTESIAN_POINT ( 'NONE',  ( 0.0000000000000000000, 0.0000000000000000000, 0.1899999999999999745 ) ) ;
#75 = EDGE_LOOP ( 'NONE', ( #284, #18 ) ) ;
#76 = CARTESIAN_POINT ( 'NONE',  ( 0.0000000000000000000, 0.0000000000000000000, 0.1899999999999999745 ) ) ;
#77 = MECHANICAL_DESIGN_GEOMETRIC_PRESENTATION_REPRESENTATION (  '', ( #65 ), #186 ) ;
#78 = EDGE_CURVE ( 'NONE', #50, #21, #292, .T. ) ;
#79 = CARTESIAN_POINT ( 'NONE',  ( 0.0000000000000000000, 0.0000000000000000000, 1.500000000000000222 ) ) ;
#80 = EDGE_LOOP ( 'NONE', ( #23, #226, #344, #31 ) ) ;
#81 = UNCERTAINTY_MEASURE_WITH_UNIT (LENGTH_MEASURE( 1.000000000000000082E-05 ), #202, 'distance_accuracy_value', 'NONE');
#82 = FACE_OUTER_BOUND ( 'NONE', #190, .T. ) ;
#83 = EDGE_LOOP ( 'NONE', ( #113, #54, #172, #374 ) ) ;
#84 = EDGE_CURVE ( 'NONE', #379, #49, #352, .T. ) ;
#85 = CIRCLE ( 'NONE', #281, 0.06250000000000000000 ) ;
#86 = CIRCLE ( 'NONE', #133, 0.03100000000000000672 ) ;
#87 = DIRECTION ( 'NONE',  ( 1.000000000000000000, 0.0000000000000000000, 0.0000000000000000000 ) ) ;
#88 = ORIENTED_EDGE ( 'NONE', *, *, #248, .F. ) ;
#89 =( NAMED_UNIT ( * ) SI_UNIT ( $, .STERADIAN. ) SOLID_ANGLE_UNIT ( ) );
#90 = ORIENTED_EDGE ( 'NONE', *, *, #224, .T. ) ;
#91 = PRODUCT_CONTEXT ( 'NONE', #342, 'mechanical' ) ;
#92 = ORIENTED_EDGE ( 'NONE', *, *, #312, .T. ) ;
#93 = CIRCLE ( 'NONE', #232, 0.06250000000000001388 ) ;
#94 = VERTEX_POINT ( 'NONE', #302 ) ;
#95 = PRODUCT_DEFINITION_SHAPE ( 'NONE', 'NONE',  #165 ) ;
#96 = DIRECTION ( 'NONE',  ( -1.000000000000000000, 0.0000000000000000000, 0.0000000000000000000 ) ) ;
#97 = DIRECTION ( 'NONE',  ( 1.000000000000000000, 0.0000000000000000000, 0.0000000000000000000 ) ) ;
#98 = AXIS2_PLACEMENT_3D ( 'NONE', #79, #103, #139 ) ;
#99 = CARTESIAN_POINT ( 'NONE',  ( 0.06250000000000000000, 7.654042494670956004E-18, 1.500000000000000222 ) ) ;
#100 = DIRECTION ( 'NONE',  ( -1.000000000000000000, 0.0000000000000000000, 0.0000000000000000000 ) ) ;
#101 = FACE_OUTER_BOUND ( 'NONE', #123, .T. ) ;
#102 = AXIS2_PLACEMENT_3D ( 'NONE', #212, #296, #100 ) ;
#103 = DIRECTION ( 'NONE',  ( 0.0000000000000000000, 0.0000000000000000000, -1.000000000000000000 ) ) ;
#104 = FACE_OUTER_BOUND ( 'NONE', #135, .T. ) ;
#105 = VERTEX_POINT ( 'NONE', #210 ) ;
#106 = EDGE_CURVE ( 'NONE', #310, #278, #16, .T. ) ;
#107 = PLANE ( 'NONE',  #293 ) ;
#108 = ORIENTED_EDGE ( 'NONE', *, *, #44, .F. ) ;
#109 = DIRECTION ( 'NONE',  ( -1.000000000000000000, 0.0000000000000000000, 0.0000000000000000000 ) ) ;
#110 = AXIS2_PLACEMENT_3D ( 'NONE', #327, #11, #154 ) ;
#111 = FACE_OUTER_BOUND ( 'NONE', #52, .T. ) ;
#112 = EDGE_CURVE ( 'NONE', #49, #33, #359, .T. ) ;
#113 = ORIENTED_EDGE ( 'NONE', *, *, #112, .F. ) ;
#114 =( LENGTH_UNIT ( ) NAMED_UNIT ( * ) SI_UNIT ( $, .METRE. ) );
#115 = ORIENTED_EDGE ( 'NONE', *, *, #237, .F. ) ;
#116 = CARTESIAN_POINT ( 'NONE',  ( -0.06250000000000000000, 0.0000000000000000000, 1.485000000000000764 ) ) ;
#117 =( NAMED_UNIT ( * ) PLANE_ANGLE_UNIT ( ) SI_UNIT ( $, .RADIAN. ) );
#118 = DIRECTION ( 'NONE',  ( -1.000000000000000000, 0.0000000000000000000, 0.0000000000000000000 ) ) ;
#119 = ADVANCED_FACE ( 'NONE', ( #66 ), #3, .T. ) ;
#120 = SURFACE_STYLE_USAGE ( .BOTH. , #150 ) ;
#121 = PRODUCT_DEFINITION_CONTEXT ( 'detailed design', #162, 'design' ) ;
#122 = SURFACE_STYLE_USAGE ( .BOTH. , #319 ) ;
#123 = EDGE_LOOP ( 'NONE', ( #115, #92, #354, #336 ) ) ;
#124 = AXIS2_PLACEMENT_3D ( 'NONE', #324, #265, #64 ) ;
#125 = DIRECTION ( 'NONE',  ( 0.7071067811865489050, 0.0000000000000000000, 0.7071067811865461294 ) ) ;
#126 = DIRECTION ( 'NONE',  ( -1.000000000000000000, 0.0000000000000000000, 0.0000000000000000000 ) ) ;
#127 = VECTOR ( 'NONE', #20, 39.37007874015748143 ) ;
#128 = ADVANCED_FACE ( 'NONE', ( #360 ), #182, .T. ) ;
#129 = DIRECTION ( 'NONE',  ( 0.0000000000000000000, 0.0000000000000000000, 1.000000000000000000 ) ) ;
#130 = DIRECTION ( 'NONE',  ( 1.000000000000000000, 0.0000000000000000000, 0.0000000000000000000 ) ) ;
#131 = DIRECTION ( 'NONE',  ( 0.0000000000000000000, 0.0000000000000000000, 1.000000000000000000 ) ) ;
#132 = AXIS2_PLACEMENT_3D ( 'NONE', #238, #163, #368 ) ;
#133 = AXIS2_PLACEMENT_3D ( 'NONE', #219, #335, #285 ) ;
#134 = CARTESIAN_POINT ( 'NONE',  ( -0.06250000000000000000, 0.0000000000000000000, 1.500000000000000222 ) ) ;
#135 = EDGE_LOOP ( 'NONE', ( #195, #304, #372, #137 ) ) ;
#136 = DIRECTION ( 'NONE',  ( -0.7071067811865456854, 0.0000000000000000000, -0.7071067811865493491 ) ) ;
#137 = ORIENTED_EDGE ( 'NONE', *, *, #69, .F. ) ;
#138 = FACE_OUTER_BOUND ( 'NONE', #193, .T. ) ;
#139 = DIRECTION ( 'NONE',  ( -1.000000000000000000, 0.0000000000000000000, 0.0000000000000000000 ) ) ;
#140 = EDGE_CURVE ( 'NONE', #167, #233, #32, .T. ) ;
#141 = EDGE_LOOP ( 'NONE', ( #164, #339, #143, #1 ) ) ;
#142 = DIRECTION ( 'NONE',  ( -0.0000000000000000000, -0.0000000000000000000, -1.000000000000000000 ) ) ;
#143 = ORIENTED_EDGE ( 'NONE', *, *, #248, .T. ) ;
#144 = EDGE_LOOP ( 'NONE', ( #108, #90, #218, #88 ) ) ;
#145 = DIRECTION ( 'NONE',  ( 0.0000000000000000000, 0.0000000000000000000, 1.000000000000000000 ) ) ;
#146 = COLOUR_RGB ( '',0.7921568627450980005, 0.8196078431372548767, 0.9333333333333333481 ) ;
#147 = VERTEX_POINT ( 'NONE', #45 ) ;
#148 = ADVANCED_FACE ( 'NONE', ( #214 ), #329, .T. ) ;
#149 = FILL_AREA_STYLE_COLOUR ( '', #234 ) ;
#150 = SURFACE_SIDE_STYLE ('',( #291 ) ) ;
#151 = ORIENTED_EDGE ( 'NONE', *, *, #106, .T. ) ;
#152 = CARTESIAN_POINT ( 'NONE',  ( 0.06250000000000000000, 7.654042494670956004E-18, 0.2214999999999998359 ) ) ;
#153 = AXIS2_PLACEMENT_3D ( 'NONE', #274, #26, #271 ) ;
#154 = DIRECTION ( 'NONE',  ( 1.000000000000000000, 0.0000000000000000000, 0.0000000000000000000 ) ) ;
#155 = DIRECTION ( 'NONE',  ( -0.0000000000000000000, -0.0000000000000000000, -1.000000000000000000 ) ) ;
#156 = CARTESIAN_POINT ( 'NONE',  ( 0.0000000000000000000, 0.0000000000000000000, 1.500000000000000222 ) ) ;
#157 = FACE_OUTER_BOUND ( 'NONE', #220, .T. ) ;
#158 = FACE_OUTER_BOUND ( 'NONE', #29, .T. ) ;
#159 = CARTESIAN_POINT ( 'NONE',  ( 0.06250000000000000000, 7.654042494670956004E-18, 0.0000000000000000000 ) ) ;
#160 = DIRECTION ( 'NONE',  ( 1.000000000000000000, 0.0000000000000000000, -0.0000000000000000000 ) ) ;
#161 = ORIENTED_EDGE ( 'NONE', *, *, #39, .T. ) ;
#162 = APPLICATION_CONTEXT ( 'automotive_design' ) ;
#163 = DIRECTION ( 'NONE',  ( -0.0000000000000000000, -0.0000000000000000000, -1.000000000000000000 ) ) ;
#164 = ORIENTED_EDGE ( 'NONE', *, *, #224, .F. ) ;
#165 = PRODUCT_DEFINITION ( 'UNKNOWN', '', #282, #121 ) ;
#166 = DIRECTION ( 'NONE',  ( -0.0000000000000000000, -0.0000000000000000000, -1.000000000000000000 ) ) ;
#167 = VERTEX_POINT ( 'NONE', #185 ) ;
#168 = CARTESIAN_POINT ( 'NONE',  ( -0.06250000000000000000, 0.0000000000000000000, 1.500000000000000222 ) ) ;
#169 = AXIS2_PLACEMENT_3D ( 'NONE', #277, #142, #46 ) ;
#170 = ORIENTED_EDGE ( 'NONE', *, *, #369, .T. ) ;
#171 = FILL_AREA_STYLE ('',( #149 ) ) ;
#172 = ORIENTED_EDGE ( 'NONE', *, *, #349, .T. ) ;
#173 = CARTESIAN_POINT ( 'NONE',  ( 0.0000000000000000000, 0.0000000000000000000, 0.05999999999999999778 ) ) ;
#174 = ADVANCED_FACE ( 'NONE', ( #101 ), #215, .T. ) ;
#175 = CARTESIAN_POINT ( 'NONE',  ( 0.0000000000000000000, 0.0000000000000000000, 0.0000000000000000000 ) ) ;
#176 = AXIS2_PLACEMENT_3D ( 'NONE', #38, #183, #330 ) ;
#177 = ADVANCED_FACE ( 'NONE', ( #158 ), #270, .T. ) ;
#178 = PRESENTATION_STYLE_ASSIGNMENT (( #120 ) ) ;
#179 = DIRECTION ( 'NONE',  ( -0.0000000000000000000, -0.0000000000000000000, -1.000000000000000000 ) ) ;
#180 = PRESENTATION_LAYER_ASSIGNMENT (  '', '', ( #65 ) ) ;
#181 =( GEOMETRIC_REPRESENTATION_CONTEXT ( 3 ) GLOBAL_UNCERTAINTY_ASSIGNED_CONTEXT ( ( #81 ) ) GLOBAL_UNIT_ASSIGNED_CONTEXT ( ( #202, #60, #253 ) ) REPRESENTATION_CONTEXT ( 'NONE', 'WORKASPACE' ) );
#182 = CYLINDRICAL_SURFACE ( 'NONE', #102, 0.06250000000000000000 ) ;
#183 = DIRECTION ( 'NONE',  ( -0.0000000000000000000, -0.0000000000000000000, -1.000000000000000000 ) ) ;
#184 = PRODUCT_RELATED_PRODUCT_CATEGORY ( 'part', '', ( #256 ) ) ;
#185 = CARTESIAN_POINT ( 'NONE',  ( -0.03100000000000001713, 5.725223786013877433E-18, 0.1899999999999999745 ) ) ;
#186 =( GEOMETRIC_REPRESENTATION_CONTEXT ( 3 ) GLOBAL_UNCERTAINTY_ASSIGNED_CONTEXT ( ( #255 ) ) GLOBAL_UNIT_ASSIGNED_CONTEXT ( ( #378, #117, #350 ) ) REPRESENTATION_CONTEXT ( 'NONE', 'WORKASPACE' ) );
#187 = DIRECTION ( 'NONE',  ( 1.000000000000000000, 0.0000000000000000000, 0.0000000000000000000 ) ) ;
#188 = LINE ( 'NONE', #134, #307 ) ;
#189 = CARTESIAN_POINT ( 'NONE',  ( 0.0000000000000000000, 0.0000000000000000000, 1.500000000000000222 ) ) ;
#190 = EDGE_LOOP ( 'NONE', ( #229, #206 ) ) ;
#191 = AXIS2_PLACEMENT_3D ( 'NONE', #67, #358, #97 ) ;
#192 = DIRECTION ( 'NONE',  ( -1.000000000000000000, 0.0000000000000000000, 0.0000000000000000000 ) ) ;
#193 = EDGE_LOOP ( 'NONE', ( #272, #280, #321, #365 ) ) ;
#194 = LINE ( 'NONE', #225, #262 ) ;
#195 = ORIENTED_EDGE ( 'NONE', *, *, #140, .F. ) ;
#196 = LINE ( 'NONE', #309, #326 ) ;
#197 = ORIENTED_EDGE ( 'NONE', *, *, #237, .T. ) ;
#198 = CIRCLE ( 'NONE', #36, 0.06250000000000000000 ) ;
#199 = APPLICATION_PROTOCOL_DEFINITION ( 'draft international standard', 'automotive_design', 1998, #342 ) ;
#200 = CARTESIAN_POINT ( 'NONE',  ( 0.0000000000000000000, 0.0000000000000000000, 0.2214999999999998359 ) ) ;
#201 = LINE ( 'NONE', #57, #250 ) ;
#202 =( CONVERSION_BASED_UNIT ( 'INCH', #290 ) LENGTH_UNIT ( ) NAMED_UNIT ( #366 ) );
#203 = ORIENTED_EDGE ( 'NONE', *, *, #78, .T. ) ;
#204 = SHAPE_DEFINITION_REPRESENTATION ( #95, #7 ) ;
#205 = VECTOR ( 'NONE', #313, 39.37007874015748143 ) ;
#206 = ORIENTED_EDGE ( 'NONE', *, *, #106, .F. ) ;
#207 = EDGE_CURVE ( 'NONE', #105, #94, #239, .T. ) ;
#208 = LINE ( 'NONE', #322, #70 ) ;
#209 = DIRECTION ( 'NONE',  ( -1.000000000000000000, 0.0000000000000000000, 0.0000000000000000000 ) ) ;
#210 = CARTESIAN_POINT ( 'NONE',  ( 0.03100000000000000672, 3.796405077356796551E-18, 0.05999999999999999778 ) ) ;
#211 = AXIS2_PLACEMENT_3D ( 'NONE', #299, #8, #126 ) ;
#212 = CARTESIAN_POINT ( 'NONE',  ( 0.0000000000000000000, 0.0000000000000000000, 1.500000000000000222 ) ) ;
#213 = EDGE_CURVE ( 'NONE', #259, #33, #58, .T. ) ;
#214 = FACE_OUTER_BOUND ( 'NONE', #83, .T. ) ;
#215 = CYLINDRICAL_SURFACE ( 'NONE', #124, 0.03100000000000001019 ) ;
#216 = CARTESIAN_POINT ( 'NONE',  ( 0.0000000000000000000, 0.0000000000000000000, 1.485000000000000764 ) ) ;
#217 = DIRECTION ( 'NONE',  ( -0.0000000000000000000, -0.0000000000000000000, -1.000000000000000000 ) ) ;
#218 = ORIENTED_EDGE ( 'NONE', *, *, #84, .F. ) ;
#219 = CARTESIAN_POINT ( 'NONE',  ( 0.0000000000000000000, 0.0000000000000000000, 0.05999999999999999778 ) ) ;
#220 = EDGE_LOOP ( 'NONE', ( #245, #343 ) ) ;
#221 = AXIS2_PLACEMENT_3D ( 'NONE', #222, #24, #367 ) ;
#222 = CARTESIAN_POINT ( 'NONE',  ( 0.0000000000000000000, 0.0000000000000000000, 0.1899999999999999745 ) ) ;
#223 = ORIENTED_EDGE ( 'NONE', *, *, #9, .T. ) ;
#224 = EDGE_CURVE ( 'NONE', #21, #49, #22, .T. ) ;
#225 = CARTESIAN_POINT ( 'NONE',  ( -0.03100000000000001019, 0.0000000000000000000, 0.0000000000000000000 ) ) ;
#226 = ORIENTED_EDGE ( 'NONE', *, *, #112, .T. ) ;
#227 = AXIS2_PLACEMENT_3D ( 'NONE', #264, #241, #243 ) ;
#228 = ORIENTED_EDGE ( 'NONE', *, *, #30, .F. ) ;
#229 = ORIENTED_EDGE ( 'NONE', *, *, #376, .F. ) ;
#230 = DIRECTION ( 'NONE',  ( 1.000000000000000000, 0.0000000000000000000, 0.0000000000000000000 ) ) ;
#231 = ORIENTED_EDGE ( 'NONE', *, *, #306, .F. ) ;
#232 = AXIS2_PLACEMENT_3D ( 'NONE', #261, #347, #235 ) ;
#233 = VERTEX_POINT ( 'NONE', #279 ) ;
#234 = COLOUR_RGB ( '',0.7921568627450980005, 0.8196078431372548767, 0.9333333333333333481 ) ;
#235 = DIRECTION ( 'NONE',  ( -1.000000000000000000, 0.0000000000000000000, 0.0000000000000000000 ) ) ;
#236 = DIRECTION ( 'NONE',  ( 0.0000000000000000000, 0.0000000000000000000, 1.000000000000000000 ) ) ;
#237 = EDGE_CURVE ( 'NONE', #233, #105, #251, .T. ) ;
#238 = CARTESIAN_POINT ( 'NONE',  ( 0.0000000000000000000, 0.0000000000000000000, 0.05999999999999999778 ) ) ;
#239 = CIRCLE ( 'NONE', #132, 0.03100000000000000672 ) ;
#240 = DIRECTION ( 'NONE',  ( 1.000000000000000000, 0.0000000000000000000, -0.0000000000000000000 ) ) ;
#241 = DIRECTION ( 'NONE',  ( 0.0000000000000000000, 0.0000000000000000000, -1.000000000000000000 ) ) ;
#242 = ADVANCED_FACE ( 'NONE', ( #138 ), #283, .T. ) ;
#243 = DIRECTION ( 'NONE',  ( -1.000000000000000000, 0.0000000000000000000, 0.0000000000000000000 ) ) ;
#244 = CARTESIAN_POINT ( 'NONE',  ( 0.04750000000000064587, 5.817072295950006528E-18, 1.500000000000000222 ) ) ;
#245 = ORIENTED_EDGE ( 'NONE', *, *, #369, .F. ) ;
#246 = CARTESIAN_POINT ( 'NONE',  ( -0.06250000000000000000, 0.0000000000000000000, 0.0000000000000000000 ) ) ;
#247 = ORIENTED_EDGE ( 'NONE', *, *, #298, .F. ) ;
#248 = EDGE_CURVE ( 'NONE', #50, #379, #196, .T. ) ;
#249 = DIRECTION ( 'NONE',  ( -0.0000000000000000000, -0.0000000000000000000, -1.000000000000000000 ) ) ;
#250 = VECTOR ( 'NONE', #63, 39.37007874015748143 ) ;
#251 = LINE ( 'NONE', #371, #127 ) ;
#252 = EDGE_LOOP ( 'NONE', ( #170, #223, #151, #231 ) ) ;
#253 =( NAMED_UNIT ( * ) SI_UNIT ( $, .STERADIAN. ) SOLID_ANGLE_UNIT ( ) );
#254 = ORIENTED_EDGE ( 'NONE', *, *, #69, .T. ) ;
#255 = UNCERTAINTY_MEASURE_WITH_UNIT (LENGTH_MEASURE( 1.000000000000000082E-05 ), #378, 'distance_accuracy_value', 'NONE');
#256 = PRODUCT ( 'Micro_KC-125-190-060', 'Micro_KC-125-190-060', '', ( #91 ) ) ;
#257 = CONICAL_SURFACE ( 'NONE', #98, 0.04750000000000064587, 0.7853981633974457255 ) ;
#258 = CARTESIAN_POINT ( 'NONE',  ( 0.0000000000000000000, 0.0000000000000000000, 0.0000000000000000000 ) ) ;
#259 = VERTEX_POINT ( 'NONE', #361 ) ;
#260 =( CONVERSION_BASED_UNIT ( 'INCH', #55 ) LENGTH_UNIT ( ) NAMED_UNIT ( #332 ) );
#261 = CARTESIAN_POINT ( 'NONE',  ( 0.0000000000000000000, 0.0000000000000000000, 0.05999999999999999778 ) ) ;
#262 = VECTOR ( 'NONE', #166, 39.37007874015748143 ) ;
#263 = STYLED_ITEM ( 'NONE', ( #348 ), #7 ) ;
#264 = CARTESIAN_POINT ( 'NONE',  ( 0.0000000000000000000, 0.0000000000000000000, 1.500000000000000222 ) ) ;
#265 = DIRECTION ( 'NONE',  ( -0.0000000000000000000, -0.0000000000000000000, -1.000000000000000000 ) ) ;
#266 = FACE_BOUND ( 'NONE', #75, .T. ) ;
#267 = VECTOR ( 'NONE', #125, 39.37007874015748143 ) ;
#268 = ADVANCED_FACE ( 'NONE', ( #111 ), #345, .T. ) ;
#269 = CARTESIAN_POINT ( 'NONE',  ( 0.06250000000000001388, 0.0000000000000000000, 0.05999999999999999778 ) ) ;
#270 = CYLINDRICAL_SURFACE ( 'NONE', #211, 0.03100000000000001019 ) ;
#271 = DIRECTION ( 'NONE',  ( 1.000000000000000000, 0.0000000000000000000, -0.0000000000000000000 ) ) ;
#272 = ORIENTED_EDGE ( 'NONE', *, *, #9, .F. ) ;
#273 = VECTOR ( 'NONE', #338, 39.37007874015748143 ) ;
#274 = CARTESIAN_POINT ( 'NONE',  ( 0.0000000000000000000, 0.0000000000000000000, 0.0000000000000000000 ) ) ;
#275 = VERTEX_POINT ( 'NONE', #364 ) ;
#276 = ADVANCED_FACE ( 'NONE', ( #308 ), #257, .T. ) ;
#277 = CARTESIAN_POINT ( 'NONE',  ( 0.0000000000000000000, 0.0000000000000000000, 0.2214999999999998359 ) ) ;
#278 = VERTEX_POINT ( 'NONE', #246 ) ;
#279 = CARTESIAN_POINT ( 'NONE',  ( 0.03100000000000001713, 0.0000000000000000000, 0.1899999999999999745 ) ) ;
#280 = ORIENTED_EDGE ( 'NONE', *, *, #2, .T. ) ;
#281 = AXIS2_PLACEMENT_3D ( 'NONE', #200, #286, #297 ) ;
#282 = PRODUCT_DEFINITION_FORMATION_WITH_SPECIFIED_SOURCE ( 'ANY', '', #256, .NOT_KNOWN. ) ;
#283 = CYLINDRICAL_SURFACE ( 'NONE', #48, 0.06250000000000000000 ) ;
#284 = ORIENTED_EDGE ( 'NONE', *, *, #363, .T. ) ;
#285 = DIRECTION ( 'NONE',  ( -1.000000000000000000, 0.0000000000000000000, 0.0000000000000000000 ) ) ;
#286 = DIRECTION ( 'NONE',  ( -0.0000000000000000000, -0.0000000000000000000, -1.000000000000000000 ) ) ;
#287 = CIRCLE ( 'NONE', #10, 0.04750000000000064587 ) ;
#288 = CARTESIAN_POINT ( 'NONE',  ( 0.04750000000000064587, 6.735557395310482421E-18, 1.500000000000000222 ) ) ;
#289 = LENGTH_MEASURE_WITH_UNIT ( LENGTH_MEASURE( 0.02539999999999999897 ), #5 );
#290 = LENGTH_MEASURE_WITH_UNIT ( LENGTH_MEASURE( 0.02539999999999999897 ), #114 );
#291 = SURFACE_STYLE_FILL_AREA ( #61 ) ;
#292 = CIRCLE ( 'NONE', #357, 0.04750000000000064587 ) ;
#293 = AXIS2_PLACEMENT_3D ( 'NONE', #189, #305, #160 ) ;
#294 = CYLINDRICAL_SURFACE ( 'NONE', #331, 0.06250000000000000000 ) ;
#295 = ADVANCED_FACE ( 'NONE', ( #104 ), #337, .T. ) ;
#296 = DIRECTION ( 'NONE',  ( -0.0000000000000000000, -0.0000000000000000000, -1.000000000000000000 ) ) ;
#297 = DIRECTION ( 'NONE',  ( 1.000000000000000000, 0.0000000000000000000, 0.0000000000000000000 ) ) ;
#298 = EDGE_CURVE ( 'NONE', #167, #94, #194, .T. ) ;
#299 = CARTESIAN_POINT ( 'NONE',  ( 0.0000000000000000000, 0.0000000000000000000, 0.0000000000000000000 ) ) ;
#300 = AXIS2_PLACEMENT_3D ( 'NONE', #74, #15, #47 ) ;
#301 = AXIS2_PLACEMENT_3D ( 'NONE', #258, #377, #87 ) ;
#302 = CARTESIAN_POINT ( 'NONE',  ( -0.03100000000000000672, 0.0000000000000000000, 0.05999999999999999778 ) ) ;
#303 = LINE ( 'NONE', #168, #205 ) ;
#304 = ORIENTED_EDGE ( 'NONE', *, *, #30, .T. ) ;
#305 = DIRECTION ( 'NONE',  ( 0.0000000000000000000, 0.0000000000000000000, 1.000000000000000000 ) ) ;
#306 = EDGE_CURVE ( 'NONE', #147, #278, #303, .T. ) ;
#307 = VECTOR ( 'NONE', #217, 39.37007874015748143 ) ;
#308 = FACE_OUTER_BOUND ( 'NONE', #141, .T. ) ;
#309 = CARTESIAN_POINT ( 'NONE',  ( -0.04750000000000064587, 0.0000000000000000000, 1.500000000000000222 ) ) ;
#310 = VERTEX_POINT ( 'NONE', #159 ) ;
#311 = UNCERTAINTY_MEASURE_WITH_UNIT (LENGTH_MEASURE( 1.000000000000000082E-05 ), #260, 'distance_accuracy_value', 'NONE');
#312 = EDGE_CURVE ( 'NONE', #233, #167, #41, .T. ) ;
#313 = DIRECTION ( 'NONE',  ( -0.0000000000000000000, -0.0000000000000000000, -1.000000000000000000 ) ) ;
#314 = ORIENTED_EDGE ( 'NONE', *, *, #312, .F. ) ;
#315 = AXIS2_PLACEMENT_3D ( 'NONE', #68, #155, #96 ) ;
#316 = AXIS2_PLACEMENT_3D ( 'NONE', #76, #341, #192 ) ;
#317 = FILL_AREA_STYLE_COLOUR ( '', #146 ) ;
#318 = APPLICATION_PROTOCOL_DEFINITION ( 'draft international standard', 'automotive_design', 1998, #162 ) ;
#319 = SURFACE_SIDE_STYLE ('',( #28 ) ) ;
#320 = ORIENTED_EDGE ( 'NONE', *, *, #363, .F. ) ;
#321 = ORIENTED_EDGE ( 'NONE', *, *, #306, .T. ) ;
#322 = CARTESIAN_POINT ( 'NONE',  ( -0.03100000000000001713, 3.796405077356796551E-18, 0.1899999999999999745 ) ) ;
#323 = ADVANCED_FACE ( 'NONE', ( #82 ), #53, .F. ) ;
#324 = CARTESIAN_POINT ( 'NONE',  ( 0.0000000000000000000, 0.0000000000000000000, 0.0000000000000000000 ) ) ;
#325 = CLOSED_SHELL ( 'NONE', ( #56, #177, #295, #119, #128, #148, #355, #276, #268, #174, #59, #323, #242 ) ) ;
#326 = VECTOR ( 'NONE', #136, 39.37007874015748143 ) ;
#327 = CARTESIAN_POINT ( 'NONE',  ( 0.0000000000000000000, 0.0000000000000000000, 0.0000000000000000000 ) ) ;
#328 = DIRECTION ( 'NONE',  ( -0.0000000000000000000, -0.0000000000000000000, -1.000000000000000000 ) ) ;
#329 = CYLINDRICAL_SURFACE ( 'NONE', #315, 0.06250000000000000000 ) ;
#330 = DIRECTION ( 'NONE',  ( -1.000000000000000000, 0.0000000000000000000, 0.0000000000000000000 ) ) ;
#331 = AXIS2_PLACEMENT_3D ( 'NONE', #40, #179, #209 ) ;
#332 = DIMENSIONAL_EXPONENTS ( 1.000000000000000000, 0.0000000000000000000, 0.0000000000000000000, 0.0000000000000000000, 0.0000000000000000000, 0.0000000000000000000, 0.0000000000000000000 ) ;
#333 = DIRECTION ( 'NONE',  ( 0.0000000000000000000, 0.0000000000000000000, -1.000000000000000000 ) ) ;
#334 = FACE_OUTER_BOUND ( 'NONE', #351, .T. ) ;
#335 = DIRECTION ( 'NONE',  ( -0.0000000000000000000, -0.0000000000000000000, -1.000000000000000000 ) ) ;
#336 = ORIENTED_EDGE ( 'NONE', *, *, #207, .F. ) ;
#337 = CONICAL_SURFACE ( 'NONE', #300, 0.03100000000000001713, 0.7853981633974502774 ) ;
#338 = DIRECTION ( 'NONE',  ( 0.7071067811865456854, 8.659560562354911904E-17, -0.7071067811865493491 ) ) ;
#339 = ORIENTED_EDGE ( 'NONE', *, *, #78, .F. ) ;
#340 = EDGE_CURVE ( 'NONE', #49, #379, #198, .T. ) ;
#341 = DIRECTION ( 'NONE',  ( -0.0000000000000000000, -0.0000000000000000000, -1.000000000000000000 ) ) ;
#342 = APPLICATION_CONTEXT ( 'automotive_design' ) ;
#343 = ORIENTED_EDGE ( 'NONE', *, *, #2, .F. ) ;
#344 = ORIENTED_EDGE ( 'NONE', *, *, #213, .F. ) ;
#345 = CONICAL_SURFACE ( 'NONE', #221, 0.03100000000000001713, 0.7853981633974502774 ) ;
#346 = CIRCLE ( 'NONE', #353, 0.06250000000000001388 ) ;
#347 = DIRECTION ( 'NONE',  ( -0.0000000000000000000, -0.0000000000000000000, -1.000000000000000000 ) ) ;
#348 = PRESENTATION_STYLE_ASSIGNMENT (( #122 ) ) ;
#349 = EDGE_CURVE ( 'NONE', #379, #259, #188, .T. ) ;
#350 =( NAMED_UNIT ( * ) SI_UNIT ( $, .STERADIAN. ) SOLID_ANGLE_UNIT ( ) );
#351 = EDGE_LOOP ( 'NONE', ( #203, #27 ) ) ;
#352 = CIRCLE ( 'NONE', #191, 0.06250000000000000000 ) ;
#353 = AXIS2_PLACEMENT_3D ( 'NONE', #173, #373, #118 ) ;
#354 = ORIENTED_EDGE ( 'NONE', *, *, #298, .T. ) ;
#355 = ADVANCED_FACE ( 'NONE', ( #334 ), #107, .T. ) ;
#356 = CARTESIAN_POINT ( 'NONE',  ( 0.06250000000000000000, 7.654042494670956004E-18, 1.485000000000000764 ) ) ;
#357 = AXIS2_PLACEMENT_3D ( 'NONE', #156, #131, #130 ) ;
#358 = DIRECTION ( 'NONE',  ( 0.0000000000000000000, 0.0000000000000000000, -1.000000000000000000 ) ) ;
#359 = LINE ( 'NONE', #99, #362 ) ;
#360 = FACE_OUTER_BOUND ( 'NONE', #80, .T. ) ;
#361 = CARTESIAN_POINT ( 'NONE',  ( -0.06250000000000000000, 0.0000000000000000000, 0.2214999999999998359 ) ) ;
#362 = VECTOR ( 'NONE', #328, 39.37007874015748143 ) ;
#363 = EDGE_CURVE ( 'NONE', #94, #105, #86, .T. ) ;
#364 = CARTESIAN_POINT ( 'NONE',  ( 0.06250000000000001388, 7.654042494670957545E-18, 0.05999999999999999778 ) ) ;
#365 = ORIENTED_EDGE ( 'NONE', *, *, #376, .T. ) ;
#366 = DIMENSIONAL_EXPONENTS ( 1.000000000000000000, 0.0000000000000000000, 0.0000000000000000000, 0.0000000000000000000, 0.0000000000000000000, 0.0000000000000000000, 0.0000000000000000000 ) ;
#367 = DIRECTION ( 'NONE',  ( 1.000000000000000000, 0.0000000000000000000, 0.0000000000000000000 ) ) ;
#368 = DIRECTION ( 'NONE',  ( -1.000000000000000000, 0.0000000000000000000, 0.0000000000000000000 ) ) ;
#369 = EDGE_CURVE ( 'NONE', #147, #275, #346, .T. ) ;
#370 = ORIENTED_EDGE ( 'NONE', *, *, #140, .T. ) ;
#371 = CARTESIAN_POINT ( 'NONE',  ( 0.03100000000000001019, 3.796405077356796551E-18, 0.0000000000000000000 ) ) ;
#372 = ORIENTED_EDGE ( 'NONE', *, *, #213, .T. ) ;
#373 = DIRECTION ( 'NONE',  ( -0.0000000000000000000, -0.0000000000000000000, -1.000000000000000000 ) ) ;
#374 = ORIENTED_EDGE ( 'NONE', *, *, #39, .F. ) ;
#375 = AXIS2_PLACEMENT_3D ( 'NONE', #269, #129, #240 ) ;
#376 = EDGE_CURVE ( 'NONE', #278, #310, #25, .T. ) ;
#377 = DIRECTION ( 'NONE',  ( 0.0000000000000000000, 0.0000000000000000000, 1.000000000000000000 ) ) ;
#378 =( CONVERSION_BASED_UNIT ( 'INCH', #289 ) LENGTH_UNIT ( ) NAMED_UNIT ( #14 ) );
#379 = VERTEX_POINT ( 'NONE', #116 ) ;
ENDSEC;
END-ISO-10303-21;
