ISO-10303-21;
HEADER;
FILE_DESCRIPTION (( 'STEP AP214' ),
    '1' );
FILE_NAME ('82849.STEP',
    '2023-06-23T06:46:22',
    ( '' ),
    ( '' ),
    'SwSTEP 2.0',
    'SolidWorks 2023',
    '' );
FILE_SCHEMA (( 'AUTOMOTIVE_DESIGN' ));
ENDSEC;

DATA;
#1 = SURFACE_STYLE_FILL_AREA ( #281 ) ;
#2 =( LENGTH_UNIT ( ) NAMED_UNIT ( * ) SI_UNIT ( $, .METRE. ) );
#3 = ORIENTED_EDGE ( 'NONE', *, *, #48, .F. ) ;
#4 = ORIENTED_EDGE ( 'NONE', *, *, #124, .T. ) ;
#5 = AXIS2_PLACEMENT_3D ( 'NONE', #29, #268, #116 ) ;
#6 =( LENGTH_UNIT ( ) NAMED_UNIT ( * ) SI_UNIT ( $, .METRE. ) );
#7 = CARTESIAN_POINT ( 'NONE',  ( 4.286263797015738074E-16, 2.500000000000000000, 0.000000000000000000 ) ) ;
#8 = EDGE_LOOP ( 'NONE', ( #27, #90 ) ) ;
#9 = DIRECTION ( 'NONE',  ( -1.000000000000000000, 0.000000000000000000, 0.000000000000000000 ) ) ;
#10 = PRODUCT_DEFINITION_CONTEXT ( 'detailed design', #83, 'design' ) ;
#11 = ADVANCED_FACE ( 'NONE', ( #175 ), #206, .T. ) ;
#12 = LENGTH_MEASURE_WITH_UNIT ( LENGTH_MEASURE( 0.02539999999999999897 ), #84 );
#13 =( CONVERSION_BASED_UNIT ( 'INCH', #231 ) LENGTH_UNIT ( ) NAMED_UNIT ( #130 ) );
#14 = PRESENTATION_LAYER_ASSIGNMENT (  '', '', ( #146 ) ) ;
#15 = DIRECTION ( 'NONE',  ( -0.000000000000000000, -1.000000000000000000, -0.000000000000000000 ) ) ;
#16 = CARTESIAN_POINT ( 'NONE',  ( 0.000000000000000000, 0.000000000000000000, -0.06250000000000001388 ) ) ;
#17 = CARTESIAN_POINT ( 'NONE',  ( 0.000000000000000000, 0.000000000000000000, 0.000000000000000000 ) ) ;
#18 = SURFACE_SIDE_STYLE ('',( #63 ) ) ;
#19 = ORIENTED_EDGE ( 'NONE', *, *, #285, .T. ) ;
#20 = MECHANICAL_DESIGN_GEOMETRIC_PRESENTATION_REPRESENTATION (  '', ( #64 ), #59 ) ;
#21 = DIRECTION ( 'NONE',  ( 0.000000000000000000, 0.000000000000000000, -1.000000000000000000 ) ) ;
#22 = ORIENTED_EDGE ( 'NONE', *, *, #160, .F. ) ;
#23 = FACE_OUTER_BOUND ( 'NONE', #49, .T. ) ;
#24 = EDGE_CURVE ( 'NONE', #269, #51, #250, .T. ) ;
#25 = ORIENTED_EDGE ( 'NONE', *, *, #99, .F. ) ;
#26 = DIRECTION ( 'NONE',  ( 2.637700798163530629E-16, 1.000000000000000000, -0.000000000000000000 ) ) ;
#27 = ORIENTED_EDGE ( 'NONE', *, *, #87, .T. ) ;
#28 = VECTOR ( 'NONE', #213, 39.37007874015748143 ) ;
#29 = CARTESIAN_POINT ( 'NONE',  ( 0.000000000000000000, 0.000000000000000000, 0.000000000000000000 ) ) ;
#30 = CARTESIAN_POINT ( 'NONE',  ( 0.000000000000000000, 0.8749999999999997780, 0.000000000000000000 ) ) ;
#31 = PRESENTATION_STYLE_ASSIGNMENT (( #144 ) ) ;
#32 = CIRCLE ( 'NONE', #300, 0.06249999999999959061 ) ;
#33 = DIRECTION ( 'NONE',  ( 2.637700798163530629E-16, 1.000000000000000000, -0.000000000000000000 ) ) ;
#34 = SHAPE_DEFINITION_REPRESENTATION ( #109, #167 ) ;
#35 = VECTOR ( 'NONE', #15, 39.37007874015748143 ) ;
#36 = ADVANCED_FACE ( 'NONE', ( #287 ), #243, .T. ) ;
#37 = CARTESIAN_POINT ( 'NONE',  ( 0.000000000000000000, 0.8749999999999997780, -0.06250000000000001388 ) ) ;
#38 = PRESENTATION_STYLE_ASSIGNMENT (( #257 ) ) ;
#39 = CARTESIAN_POINT ( 'NONE',  ( 0.000000000000000000, 0.000000000000000000, -0.06250000000000001388 ) ) ;
#40 = AXIS2_PLACEMENT_3D ( 'NONE', #305, #123, #209 ) ;
#41 = PRESENTATION_STYLE_ASSIGNMENT (( #174 ) ) ;
#42 = FILL_AREA_STYLE ('',( #183 ) ) ;
#43 = FACE_OUTER_BOUND ( 'NONE', #8, .T. ) ;
#44 = SURFACE_SIDE_STYLE ('',( #265 ) ) ;
#45 = CIRCLE ( 'NONE', #228, 0.06249999999999959061 ) ;
#46 = ORIENTED_EDGE ( 'NONE', *, *, #87, .F. ) ;
#47 = CIRCLE ( 'NONE', #40, 0.06250000000000001388 ) ;
#48 = EDGE_CURVE ( 'NONE', #186, #141, #156, .T. ) ;
#49 = EDGE_LOOP ( 'NONE', ( #162, #190, #221, #25 ) ) ;
#50 =( LENGTH_UNIT ( ) NAMED_UNIT ( * ) SI_UNIT ( $, .METRE. ) );
#51 = VERTEX_POINT ( 'NONE', #61 ) ;
#52 = DIRECTION ( 'NONE',  ( -2.637700798163530629E-16, -1.000000000000000000, 0.000000000000000000 ) ) ;
#53 = STYLED_ITEM ( 'NONE', ( #149 ), #67 ) ;
#54 = AXIS2_PLACEMENT_3D ( 'NONE', #73, #33, #197 ) ;
#55 = LINE ( 'NONE', #94, #302 ) ;
#56 = SURFACE_SIDE_STYLE ('',( #75 ) ) ;
#57 = CARTESIAN_POINT ( 'NONE',  ( -0.06249999999999916039, 2.500000000000000000, 0.000000000000000000 ) ) ;
#58 = DIMENSIONAL_EXPONENTS ( 1.000000000000000000, 0.000000000000000000, 0.000000000000000000, 0.000000000000000000, 0.000000000000000000, 0.000000000000000000, 0.000000000000000000 ) ;
#59 =( GEOMETRIC_REPRESENTATION_CONTEXT ( 3 ) GLOBAL_UNCERTAINTY_ASSIGNED_CONTEXT ( ( #122 ) ) GLOBAL_UNIT_ASSIGNED_CONTEXT ( ( #69, #293, #155 ) ) REPRESENTATION_CONTEXT ( 'NONE', 'WORKASPACE' ) );
#60 = SURFACE_SIDE_STYLE ('',( #1 ) ) ;
#61 = CARTESIAN_POINT ( 'NONE',  ( -0.06250000000000001388, 0.8749999999999997780, 0.000000000000000000 ) ) ;
#62 =( CONVERSION_BASED_UNIT ( 'INCH', #286 ) LENGTH_UNIT ( ) NAMED_UNIT ( #119 ) );
#63 = SURFACE_STYLE_FILL_AREA ( #81 ) ;
#64 = STYLED_ITEM ( 'NONE', ( #264 ), #258 ) ;
#65 = PLANE ( 'NONE',  #284 ) ;
#66 = EDGE_LOOP ( 'NONE', ( #161, #95, #139, #22 ) ) ;
#67 = ADVANCED_FACE ( 'NONE', ( #105 ), #283, .T. ) ;
#68 = VECTOR ( 'NONE', #256, 39.37007874015748143 ) ;
#69 =( CONVERSION_BASED_UNIT ( 'INCH', #184 ) LENGTH_UNIT ( ) NAMED_UNIT ( #170 ) );
#70 = DIRECTION ( 'NONE',  ( 2.637700798163530629E-16, 1.000000000000000000, -0.000000000000000000 ) ) ;
#71 = LINE ( 'NONE', #296, #28 ) ;
#72 = ORIENTED_EDGE ( 'NONE', *, *, #306, .F. ) ;
#73 = CARTESIAN_POINT ( 'NONE',  ( 0.000000000000000000, 0.8749999999999997780, 0.000000000000000000 ) ) ;
#74 =( GEOMETRIC_REPRESENTATION_CONTEXT ( 3 ) GLOBAL_UNCERTAINTY_ASSIGNED_CONTEXT ( ( #172 ) ) GLOBAL_UNIT_ASSIGNED_CONTEXT ( ( #263, #150, #127 ) ) REPRESENTATION_CONTEXT ( 'NONE', 'WORKASPACE' ) );
#75 = SURFACE_STYLE_FILL_AREA ( #273 ) ;
#76 =( NAMED_UNIT ( * ) PLANE_ANGLE_UNIT ( ) SI_UNIT ( $, .RADIAN. ) );
#77 = DIMENSIONAL_EXPONENTS ( 1.000000000000000000, 0.000000000000000000, 0.000000000000000000, 0.000000000000000000, 0.000000000000000000, 0.000000000000000000, 0.000000000000000000 ) ;
#78 = MECHANICAL_DESIGN_GEOMETRIC_PRESENTATION_REPRESENTATION (  '', ( #53 ), #199 ) ;
#79 = ADVANCED_FACE ( 'NONE', ( #137 ), #159, .F. ) ;
#80 = FACE_OUTER_BOUND ( 'NONE', #131, .T. ) ;
#81 = FILL_AREA_STYLE ('',( #151 ) ) ;
#82 =( NAMED_UNIT ( * ) SI_UNIT ( $, .STERADIAN. ) SOLID_ANGLE_UNIT ( ) );
#83 = APPLICATION_CONTEXT ( 'automotive_design' ) ;
#84 =( LENGTH_UNIT ( ) NAMED_UNIT ( * ) SI_UNIT ( $, .METRE. ) );
#85 = COLOUR_RGB ( '',0.7921568627450980005, 0.8196078431372548767, 0.9333333333333333481 ) ;
#86 = PRESENTATION_STYLE_ASSIGNMENT (( #280 ) ) ;
#87 = EDGE_CURVE ( 'NONE', #92, #157, #45, .T. ) ;
#88 = ORIENTED_EDGE ( 'NONE', *, *, #106, .F. ) ;
#89 = DIRECTION ( 'NONE',  ( -1.000000000000000000, 0.000000000000000000, 0.000000000000000000 ) ) ;
#90 = ORIENTED_EDGE ( 'NONE', *, *, #99, .T. ) ;
#91 = DIMENSIONAL_EXPONENTS ( 1.000000000000000000, 0.000000000000000000, 0.000000000000000000, 0.000000000000000000, 0.000000000000000000, 0.000000000000000000, 0.000000000000000000 ) ;
#92 = VERTEX_POINT ( 'NONE', #57 ) ;
#93 = AXIS2_PLACEMENT_3D ( 'NONE', #30, #136, #271 ) ;
#94 = CARTESIAN_POINT ( 'NONE',  ( 0.06250000000000023592, 2.500000000000000000, 7.654042494670934434E-18 ) ) ;
#95 = ORIENTED_EDGE ( 'NONE', *, *, #48, .T. ) ;
#96 = DIRECTION ( 'NONE',  ( 2.637700798163530629E-16, 1.000000000000000000, -0.000000000000000000 ) ) ;
#97 = AXIS2_PLACEMENT_3D ( 'NONE', #188, #224, #194 ) ;
#98 = COLOUR_RGB ( '',1.000000000000000000, 0.000000000000000000, 0.000000000000000000 ) ;
#99 = EDGE_CURVE ( 'NONE', #157, #92, #32, .T. ) ;
#100 = AXIS2_PLACEMENT_3D ( 'NONE', #202, #304, #179 ) ;
#101 = COLOUR_RGB ( '',0.7921568627450980005, 0.8196078431372548767, 0.9333333333333333481 ) ;
#102 = LINE ( 'NONE', #39, #68 ) ;
#103 = DIRECTION ( 'NONE',  ( -0.000000000000000000, -1.000000000000000000, -0.000000000000000000 ) ) ;
#104 =( GEOMETRIC_REPRESENTATION_CONTEXT ( 3 ) GLOBAL_UNCERTAINTY_ASSIGNED_CONTEXT ( ( #180 ) ) GLOBAL_UNIT_ASSIGNED_CONTEXT ( ( #62, #237, #233 ) ) REPRESENTATION_CONTEXT ( 'NONE', 'WORKASPACE' ) );
#105 = FACE_OUTER_BOUND ( 'NONE', #115, .T. ) ;
#106 = EDGE_CURVE ( 'NONE', #51, #92, #71, .T. ) ;
#107 = MANIFOLD_SOLID_BREP ( 'Revolve - Tool Body (Straight Shanked)', #299 ) ;
#108 = DIRECTION ( 'NONE',  ( 0.000000000000000000, 0.000000000000000000, -1.000000000000000000 ) ) ;
#109 = PRODUCT_DEFINITION_SHAPE ( 'NONE', 'NONE',  #275 ) ;
#110 = CARTESIAN_POINT ( 'NONE',  ( 7.654042494670959086E-18, 0.8749999999999997780, 0.06250000000000001388 ) ) ;
#111 =( NAMED_UNIT ( * ) SI_UNIT ( $, .STERADIAN. ) SOLID_ANGLE_UNIT ( ) );
#112 = DIRECTION ( 'NONE',  ( 2.637700798163530629E-16, 1.000000000000000000, -0.000000000000000000 ) ) ;
#113 = CYLINDRICAL_SURFACE ( 'NONE', #169, 0.06249999999999980571 ) ;
#114 = SURFACE_STYLE_FILL_AREA ( #140 ) ;
#115 = EDGE_LOOP ( 'NONE', ( #3, #292, #216, #72 ) ) ;
#116 = DIRECTION ( 'NONE',  ( 0.000000000000000000, 0.000000000000000000, -1.000000000000000000 ) ) ;
#117 = APPLICATION_PROTOCOL_DEFINITION ( 'draft international standard', 'automotive_design', 1998, #83 ) ;
#118 = UNCERTAINTY_MEASURE_WITH_UNIT (LENGTH_MEASURE( 1.000000000000000082E-05 ), #205, 'distance_accuracy_value', 'NONE');
#119 = DIMENSIONAL_EXPONENTS ( 1.000000000000000000, 0.000000000000000000, 0.000000000000000000, 0.000000000000000000, 0.000000000000000000, 0.000000000000000000, 0.000000000000000000 ) ;
#120 = COLOUR_RGB ( '',1.000000000000000000, 0.000000000000000000, 0.000000000000000000 ) ;
#121 =( GEOMETRIC_REPRESENTATION_CONTEXT ( 3 ) GLOBAL_UNCERTAINTY_ASSIGNED_CONTEXT ( ( #154 ) ) GLOBAL_UNIT_ASSIGNED_CONTEXT ( ( #223, #212, #195 ) ) REPRESENTATION_CONTEXT ( 'NONE', 'WORKASPACE' ) );
#122 = UNCERTAINTY_MEASURE_WITH_UNIT (LENGTH_MEASURE( 1.000000000000000082E-05 ), #69, 'distance_accuracy_value', 'NONE');
#123 = DIRECTION ( 'NONE',  ( -0.000000000000000000, -1.000000000000000000, -0.000000000000000000 ) ) ;
#124 = EDGE_CURVE ( 'NONE', #51, #269, #173, .T. ) ;
#125 = MECHANICAL_DESIGN_GEOMETRIC_PRESENTATION_REPRESENTATION (  '', ( #239 ), #74 ) ;
#126 = SURFACE_SIDE_STYLE ('',( #279 ) ) ;
#127 =( NAMED_UNIT ( * ) SI_UNIT ( $, .STERADIAN. ) SOLID_ANGLE_UNIT ( ) );
#128 = FILL_AREA_STYLE ('',( #148 ) ) ;
#129 = EDGE_CURVE ( 'NONE', #186, #135, #253, .T. ) ;
#130 = DIMENSIONAL_EXPONENTS ( 1.000000000000000000, 0.000000000000000000, 0.000000000000000000, 0.000000000000000000, 0.000000000000000000, 0.000000000000000000, 0.000000000000000000 ) ;
#131 = EDGE_LOOP ( 'NONE', ( #288, #266 ) ) ;
#132 = PRESENTATION_LAYER_ASSIGNMENT (  '', '', ( #53 ) ) ;
#133 = PRESENTATION_LAYER_ASSIGNMENT (  '', '', ( #200 ) ) ;
#134 = EDGE_LOOP ( 'NONE', ( #246, #251 ) ) ;
#135 = VERTEX_POINT ( 'NONE', #37 ) ;
#136 = DIRECTION ( 'NONE',  ( 0.000000000000000000, 1.000000000000000000, 0.000000000000000000 ) ) ;
#137 = FACE_OUTER_BOUND ( 'NONE', #134, .T. ) ;
#138 = EDGE_CURVE ( 'NONE', #214, #141, #47, .T. ) ;
#139 = ORIENTED_EDGE ( 'NONE', *, *, #138, .F. ) ;
#140 = FILL_AREA_STYLE ('',( #217 ) ) ;
#141 = VERTEX_POINT ( 'NONE', #303 ) ;
#142 = AXIS2_PLACEMENT_3D ( 'NONE', #215, #52, #158 ) ;
#143 = CARTESIAN_POINT ( 'NONE',  ( 4.286263797015738074E-16, 2.500000000000000000, 0.000000000000000000 ) ) ;
#144 = SURFACE_STYLE_USAGE ( .BOTH. , #56 ) ;
#145 =( LENGTH_UNIT ( ) NAMED_UNIT ( * ) SI_UNIT ( $, .METRE. ) );
#146 = STYLED_ITEM ( 'NONE', ( #38 ), #232 ) ;
#147 = UNCERTAINTY_MEASURE_WITH_UNIT (LENGTH_MEASURE( 1.000000000000000082E-05 ), #13, 'distance_accuracy_value', 'NONE');
#148 = FILL_AREA_STYLE_COLOUR ( '', #290 ) ;
#149 = PRESENTATION_STYLE_ASSIGNMENT (( #261 ) ) ;
#150 =( NAMED_UNIT ( * ) PLANE_ANGLE_UNIT ( ) SI_UNIT ( $, .RADIAN. ) );
#151 = FILL_AREA_STYLE_COLOUR ( '', #168 ) ;
#152 = DIRECTION ( 'NONE',  ( -0.000000000000000000, -1.000000000000000000, -0.000000000000000000 ) ) ;
#153 = DIRECTION ( 'NONE',  ( -1.000000000000000000, 0.000000000000000000, 0.000000000000000000 ) ) ;
#154 = UNCERTAINTY_MEASURE_WITH_UNIT (LENGTH_MEASURE( 1.000000000000000082E-05 ), #223, 'distance_accuracy_value', 'NONE');
#155 =( NAMED_UNIT ( * ) SI_UNIT ( $, .STERADIAN. ) SOLID_ANGLE_UNIT ( ) );
#156 = LINE ( 'NONE', #238, #35 ) ;
#157 = VERTEX_POINT ( 'NONE', #262 ) ;
#158 = DIRECTION ( 'NONE',  ( 1.000000000000000000, -2.637700798163530629E-16, 0.000000000000000000 ) ) ;
#159 = PLANE ( 'NONE',  #297 ) ;
#160 = EDGE_CURVE ( 'NONE', #135, #214, #102, .T. ) ;
#161 = ORIENTED_EDGE ( 'NONE', *, *, #193, .T. ) ;
#162 = ORIENTED_EDGE ( 'NONE', *, *, #285, .F. ) ;
#163 = FILL_AREA_STYLE_COLOUR ( '', #101 ) ;
#164 = AXIS2_PLACEMENT_3D ( 'NONE', #166, #276, #196 ) ;
#165 =( GEOMETRIC_REPRESENTATION_CONTEXT ( 3 ) GLOBAL_UNCERTAINTY_ASSIGNED_CONTEXT ( ( #118 ) ) GLOBAL_UNIT_ASSIGNED_CONTEXT ( ( #205, #178, #82 ) ) REPRESENTATION_CONTEXT ( 'NONE', 'WORKASPACE' ) );
#166 = CARTESIAN_POINT ( 'NONE',  ( 0.000000000000000000, 0.000000000000000000, 0.000000000000000000 ) ) ;
#167 = ADVANCED_BREP_SHAPE_REPRESENTATION ( '82849', ( #218, #107, #164 ), #121 ) ;
#168 = COLOUR_RGB ( '',1.000000000000000000, 0.000000000000000000, 0.000000000000000000 ) ;
#169 = AXIS2_PLACEMENT_3D ( 'NONE', #143, #70, #89 ) ;
#170 = DIMENSIONAL_EXPONENTS ( 1.000000000000000000, 0.000000000000000000, 0.000000000000000000, 0.000000000000000000, 0.000000000000000000, 0.000000000000000000, 0.000000000000000000 ) ;
#171 = APPLICATION_PROTOCOL_DEFINITION ( 'draft international standard', 'automotive_design', 1998, #236 ) ;
#172 = UNCERTAINTY_MEASURE_WITH_UNIT (LENGTH_MEASURE( 1.000000000000000082E-05 ), #263, 'distance_accuracy_value', 'NONE');
#173 = CIRCLE ( 'NONE', #54, 0.06250000000000001388 ) ;
#174 = SURFACE_STYLE_USAGE ( .BOTH. , #60 ) ;
#175 = FACE_OUTER_BOUND ( 'NONE', #210, .T. ) ;
#176 = DIRECTION ( 'NONE',  ( -0.000000000000000000, -1.000000000000000000, -0.000000000000000000 ) ) ;
#177 = CARTESIAN_POINT ( 'NONE',  ( 4.286263797015738074E-16, 2.500000000000000000, 0.000000000000000000 ) ) ;
#178 =( NAMED_UNIT ( * ) PLANE_ANGLE_UNIT ( ) SI_UNIT ( $, .RADIAN. ) );
#179 = DIRECTION ( 'NONE',  ( -1.000000000000000000, 0.000000000000000000, 0.000000000000000000 ) ) ;
#180 = UNCERTAINTY_MEASURE_WITH_UNIT (LENGTH_MEASURE( 1.000000000000000082E-05 ), #62, 'distance_accuracy_value', 'NONE');
#181 = MECHANICAL_DESIGN_GEOMETRIC_PRESENTATION_REPRESENTATION (  '', ( #308 ), #226 ) ;
#182 = CARTESIAN_POINT ( 'NONE',  ( 0.000000000000000000, 0.8749999999999997780, 0.000000000000000000 ) ) ;
#183 = FILL_AREA_STYLE_COLOUR ( '', #120 ) ;
#184 = LENGTH_MEASURE_WITH_UNIT ( LENGTH_MEASURE( 0.02539999999999999897 ), #50 );
#185 = DIMENSIONAL_EXPONENTS ( 1.000000000000000000, 0.000000000000000000, 0.000000000000000000, 0.000000000000000000, 0.000000000000000000, 0.000000000000000000, 0.000000000000000000 ) ;
#186 = VERTEX_POINT ( 'NONE', #110 ) ;
#187 = FACE_OUTER_BOUND ( 'NONE', #192, .T. ) ;
#188 = CARTESIAN_POINT ( 'NONE',  ( 0.000000000000000000, 0.000000000000000000, 0.000000000000000000 ) ) ;
#189 = CIRCLE ( 'NONE', #309, 0.06250000000000001388 ) ;
#190 = ORIENTED_EDGE ( 'NONE', *, *, #24, .T. ) ;
#191 = SURFACE_STYLE_USAGE ( .BOTH. , #241 ) ;
#192 = EDGE_LOOP ( 'NONE', ( #295, #270 ) ) ;
#193 = EDGE_CURVE ( 'NONE', #135, #186, #189, .T. ) ;
#194 = DIRECTION ( 'NONE',  ( 0.000000000000000000, 0.000000000000000000, -1.000000000000000000 ) ) ;
#195 =( NAMED_UNIT ( * ) SI_UNIT ( $, .STERADIAN. ) SOLID_ANGLE_UNIT ( ) );
#196 = DIRECTION ( 'NONE',  ( 1.000000000000000000, 0.000000000000000000, 0.000000000000000000 ) ) ;
#197 = DIRECTION ( 'NONE',  ( -1.000000000000000000, 0.000000000000000000, 0.000000000000000000 ) ) ;
#198 = PRODUCT_RELATED_PRODUCT_CATEGORY ( 'part', '', ( #211 ) ) ;
#199 =( GEOMETRIC_REPRESENTATION_CONTEXT ( 3 ) GLOBAL_UNCERTAINTY_ASSIGNED_CONTEXT ( ( #147 ) ) GLOBAL_UNIT_ASSIGNED_CONTEXT ( ( #13, #208, #111 ) ) REPRESENTATION_CONTEXT ( 'NONE', 'WORKASPACE' ) );
#200 = STYLED_ITEM ( 'NONE', ( #41 ), #218 ) ;
#201 = CARTESIAN_POINT ( 'NONE',  ( 0.000000000000000000, 0.8749999999999997780, 0.000000000000000000 ) ) ;
#202 = CARTESIAN_POINT ( 'NONE',  ( 0.000000000000000000, 0.8749999999999997780, 0.000000000000000000 ) ) ;
#203 = CLOSED_SHELL ( 'NONE', ( #36, #258, #67, #232 ) ) ;
#204 = PRESENTATION_LAYER_ASSIGNMENT (  '', '', ( #308 ) ) ;
#205 =( CONVERSION_BASED_UNIT ( 'INCH', #12 ) LENGTH_UNIT ( ) NAMED_UNIT ( #91 ) );
#206 = CYLINDRICAL_SURFACE ( 'NONE', #272, 0.06249999999999980571 ) ;
#207 = DIRECTION ( 'NONE',  ( 0.000000000000000000, 0.000000000000000000, -1.000000000000000000 ) ) ;
#208 =( NAMED_UNIT ( * ) PLANE_ANGLE_UNIT ( ) SI_UNIT ( $, .RADIAN. ) );
#209 = DIRECTION ( 'NONE',  ( 0.000000000000000000, 0.000000000000000000, -1.000000000000000000 ) ) ;
#210 = EDGE_LOOP ( 'NONE', ( #4, #19, #46, #88 ) ) ;
#211 = PRODUCT ( '82849', '82849', '', ( #298 ) ) ;
#212 =( NAMED_UNIT ( * ) PLANE_ANGLE_UNIT ( ) SI_UNIT ( $, .RADIAN. ) );
#213 = DIRECTION ( 'NONE',  ( 2.637700798163530629E-16, 1.000000000000000000, -0.000000000000000000 ) ) ;
#214 = VERTEX_POINT ( 'NONE', #16 ) ;
#215 = CARTESIAN_POINT ( 'NONE',  ( 0.06250000000000001388, 2.500000000000000000, 0.000000000000000000 ) ) ;
#216 = ORIENTED_EDGE ( 'NONE', *, *, #160, .T. ) ;
#217 = FILL_AREA_STYLE_COLOUR ( '', #98 ) ;
#218 = MANIFOLD_SOLID_BREP ( 'Revolve - Cutting Edge', #203 ) ;
#219 = DIRECTION ( 'NONE',  ( -1.000000000000000000, 2.637700798163530629E-16, 0.000000000000000000 ) ) ;
#220 = MECHANICAL_DESIGN_GEOMETRIC_PRESENTATION_REPRESENTATION (  '', ( #146 ), #165 ) ;
#221 = ORIENTED_EDGE ( 'NONE', *, *, #106, .T. ) ;
#222 = LENGTH_MEASURE_WITH_UNIT ( LENGTH_MEASURE( 0.02539999999999999897 ), #6 );
#223 =( CONVERSION_BASED_UNIT ( 'INCH', #222 ) LENGTH_UNIT ( ) NAMED_UNIT ( #185 ) );
#224 = DIRECTION ( 'NONE',  ( -0.000000000000000000, -1.000000000000000000, -0.000000000000000000 ) ) ;
#225 = AXIS2_PLACEMENT_3D ( 'NONE', #235, #103, #301 ) ;
#226 =( GEOMETRIC_REPRESENTATION_CONTEXT ( 3 ) GLOBAL_UNCERTAINTY_ASSIGNED_CONTEXT ( ( #254 ) ) GLOBAL_UNIT_ASSIGNED_CONTEXT ( ( #278, #76, #229 ) ) REPRESENTATION_CONTEXT ( 'NONE', 'WORKASPACE' ) );
#227 = LENGTH_MEASURE_WITH_UNIT ( LENGTH_MEASURE( 0.02539999999999999897 ), #145 );
#228 = AXIS2_PLACEMENT_3D ( 'NONE', #245, #26, #294 ) ;
#229 =( NAMED_UNIT ( * ) SI_UNIT ( $, .STERADIAN. ) SOLID_ANGLE_UNIT ( ) );
#230 = FILL_AREA_STYLE_COLOUR ( '', #85 ) ;
#231 = LENGTH_MEASURE_WITH_UNIT ( LENGTH_MEASURE( 0.02539999999999999897 ), #307 );
#232 = ADVANCED_FACE ( 'NONE', ( #80 ), #65, .T. ) ;
#233 =( NAMED_UNIT ( * ) SI_UNIT ( $, .STERADIAN. ) SOLID_ANGLE_UNIT ( ) );
#234 =( LENGTH_UNIT ( ) NAMED_UNIT ( * ) SI_UNIT ( $, .METRE. ) );
#235 = CARTESIAN_POINT ( 'NONE',  ( 0.000000000000000000, 0.000000000000000000, 0.000000000000000000 ) ) ;
#236 = APPLICATION_CONTEXT ( 'automotive_design' ) ;
#237 =( NAMED_UNIT ( * ) PLANE_ANGLE_UNIT ( ) SI_UNIT ( $, .RADIAN. ) );
#238 = CARTESIAN_POINT ( 'NONE',  ( 7.654042494670959086E-18, 0.000000000000000000, 0.06250000000000001388 ) ) ;
#239 = STYLED_ITEM ( 'NONE', ( #86 ), #36 ) ;
#240 = MECHANICAL_DESIGN_GEOMETRIC_PRESENTATION_REPRESENTATION (  '', ( #200 ), #104 ) ;
#241 = SURFACE_SIDE_STYLE ('',( #114 ) ) ;
#242 = ADVANCED_FACE ( 'NONE', ( #23 ), #113, .T. ) ;
#243 = CYLINDRICAL_SURFACE ( 'NONE', #225, 0.06250000000000001388 ) ;
#244 = DIRECTION ( 'NONE',  ( 0.000000000000000000, -1.000000000000000000, -0.000000000000000000 ) ) ;
#245 = CARTESIAN_POINT ( 'NONE',  ( 4.286263797015738074E-16, 2.500000000000000000, 0.000000000000000000 ) ) ;
#246 = ORIENTED_EDGE ( 'NONE', *, *, #124, .F. ) ;
#247 = DIRECTION ( 'NONE',  ( 2.637700798163530629E-16, 1.000000000000000000, -0.000000000000000000 ) ) ;
#248 = CARTESIAN_POINT ( 'NONE',  ( 2.174207968947665119E-33, 0.8749999999999997780, 0.000000000000000000 ) ) ;
#249 = CARTESIAN_POINT ( 'NONE',  ( 0.06250000000000001388, 0.8749999999999997780, 7.654042494670946760E-18 ) ) ;
#250 = CIRCLE ( 'NONE', #100, 0.06250000000000001388 ) ;
#251 = ORIENTED_EDGE ( 'NONE', *, *, #24, .F. ) ;
#252 = PLANE ( 'NONE',  #93 ) ;
#253 = CIRCLE ( 'NONE', #267, 0.06250000000000001388 ) ;
#254 = UNCERTAINTY_MEASURE_WITH_UNIT (LENGTH_MEASURE( 1.000000000000000082E-05 ), #278, 'distance_accuracy_value', 'NONE');
#255 = ADVANCED_FACE ( 'NONE', ( #43 ), #291, .F. ) ;
#256 = DIRECTION ( 'NONE',  ( -0.000000000000000000, -1.000000000000000000, -0.000000000000000000 ) ) ;
#257 = SURFACE_STYLE_USAGE ( .BOTH. , #126 ) ;
#258 = ADVANCED_FACE ( 'NONE', ( #187 ), #252, .T. ) ;
#259 = LENGTH_MEASURE_WITH_UNIT ( LENGTH_MEASURE( 0.02539999999999999897 ), #2 );
#260 = PRODUCT_DEFINITION_FORMATION_WITH_SPECIFIED_SOURCE ( 'ANY', '', #211, .NOT_KNOWN. ) ;
#261 = SURFACE_STYLE_USAGE ( .BOTH. , #18 ) ;
#262 = CARTESIAN_POINT ( 'NONE',  ( 0.06250000000000001388, 2.500000000000000000, 7.654042494670946760E-18 ) ) ;
#263 =( CONVERSION_BASED_UNIT ( 'INCH', #259 ) LENGTH_UNIT ( ) NAMED_UNIT ( #58 ) );
#264 = PRESENTATION_STYLE_ASSIGNMENT (( #191 ) ) ;
#265 = SURFACE_STYLE_FILL_AREA ( #42 ) ;
#266 = ORIENTED_EDGE ( 'NONE', *, *, #306, .T. ) ;
#267 = AXIS2_PLACEMENT_3D ( 'NONE', #182, #176, #207 ) ;
#268 = DIRECTION ( 'NONE',  ( -0.000000000000000000, -1.000000000000000000, -0.000000000000000000 ) ) ;
#269 = VERTEX_POINT ( 'NONE', #249 ) ;
#270 = ORIENTED_EDGE ( 'NONE', *, *, #129, .F. ) ;
#271 = DIRECTION ( 'NONE',  ( 0.000000000000000000, -0.000000000000000000, 1.000000000000000000 ) ) ;
#272 = AXIS2_PLACEMENT_3D ( 'NONE', #177, #282, #153 ) ;
#273 = FILL_AREA_STYLE ('',( #163 ) ) ;
#274 = PRESENTATION_LAYER_ASSIGNMENT (  '', '', ( #64 ) ) ;
#275 = PRODUCT_DEFINITION ( 'UNKNOWN', '', #260, #10 ) ;
#276 = DIRECTION ( 'NONE',  ( 0.000000000000000000, 0.000000000000000000, 1.000000000000000000 ) ) ;
#277 = CIRCLE ( 'NONE', #5, 0.06250000000000001388 ) ;
#278 =( CONVERSION_BASED_UNIT ( 'INCH', #227 ) LENGTH_UNIT ( ) NAMED_UNIT ( #77 ) );
#279 = SURFACE_STYLE_FILL_AREA ( #128 ) ;
#280 = SURFACE_STYLE_USAGE ( .BOTH. , #44 ) ;
#281 = FILL_AREA_STYLE ('',( #230 ) ) ;
#282 = DIRECTION ( 'NONE',  ( 2.637700798163530629E-16, 1.000000000000000000, -0.000000000000000000 ) ) ;
#283 = CYLINDRICAL_SURFACE ( 'NONE', #97, 0.06250000000000001388 ) ;
#284 = AXIS2_PLACEMENT_3D ( 'NONE', #17, #244, #21 ) ;
#285 = EDGE_CURVE ( 'NONE', #269, #157, #55, .T. ) ;
#286 = LENGTH_MEASURE_WITH_UNIT ( LENGTH_MEASURE( 0.02539999999999999897 ), #234 );
#287 = FACE_OUTER_BOUND ( 'NONE', #66, .T. ) ;
#288 = ORIENTED_EDGE ( 'NONE', *, *, #138, .T. ) ;
#289 = PRESENTATION_LAYER_ASSIGNMENT (  '', '', ( #239 ) ) ;
#290 = COLOUR_RGB ( '',1.000000000000000000, 0.000000000000000000, 0.000000000000000000 ) ;
#291 = PLANE ( 'NONE',  #142 ) ;
#292 = ORIENTED_EDGE ( 'NONE', *, *, #129, .T. ) ;
#293 =( NAMED_UNIT ( * ) PLANE_ANGLE_UNIT ( ) SI_UNIT ( $, .RADIAN. ) );
#294 = DIRECTION ( 'NONE',  ( -1.000000000000000000, 0.000000000000000000, 0.000000000000000000 ) ) ;
#295 = ORIENTED_EDGE ( 'NONE', *, *, #193, .F. ) ;
#296 = CARTESIAN_POINT ( 'NONE',  ( -0.06249999999999937550, 2.500000000000000000, 0.000000000000000000 ) ) ;
#297 = AXIS2_PLACEMENT_3D ( 'NONE', #248, #112, #219 ) ;
#298 = PRODUCT_CONTEXT ( 'NONE', #236, 'mechanical' ) ;
#299 = CLOSED_SHELL ( 'NONE', ( #11, #79, #242, #255 ) ) ;
#300 = AXIS2_PLACEMENT_3D ( 'NONE', #7, #96, #9 ) ;
#301 = DIRECTION ( 'NONE',  ( 0.000000000000000000, 0.000000000000000000, -1.000000000000000000 ) ) ;
#302 = VECTOR ( 'NONE', #247, 39.37007874015748143 ) ;
#303 = CARTESIAN_POINT ( 'NONE',  ( 7.654042494670959086E-18, 0.000000000000000000, 0.06250000000000001388 ) ) ;
#304 = DIRECTION ( 'NONE',  ( 2.637700798163530629E-16, 1.000000000000000000, -0.000000000000000000 ) ) ;
#305 = CARTESIAN_POINT ( 'NONE',  ( 0.000000000000000000, 0.000000000000000000, 0.000000000000000000 ) ) ;
#306 = EDGE_CURVE ( 'NONE', #141, #214, #277, .T. ) ;
#307 =( LENGTH_UNIT ( ) NAMED_UNIT ( * ) SI_UNIT ( $, .METRE. ) );
#308 = STYLED_ITEM ( 'NONE', ( #31 ), #107 ) ;
#309 = AXIS2_PLACEMENT_3D ( 'NONE', #201, #152, #108 ) ;
ENDSEC;
END-ISO-10303-21;
