ISO-10303-21;
HEADER;
FILE_DESCRIPTION (( 'STEP AP214' ),
    '1' );
FILE_NAME ('00752.STEP',
    '2023-06-22T14:15:40',
    ( '' ),
    ( '' ),
    'SwSTEP 2.0',
    'SolidWorks 2023',
    '' );
FILE_SCHEMA (( 'AUTOMOTIVE_DESIGN' ));
ENDSEC;

DATA;
#1 = CIRCLE ( 'NONE', #38, 0.5000000000000000000 ) ;
#2 = CIRCLE ( 'NONE', #69, 0.4999999999999997224 ) ;
#3 = APPLICATION_PROTOCOL_DEFINITION ( 'draft international standard', 'automotive_design', 1998, #248 ) ;
#4 = EDGE_LOOP ( 'NONE', ( #124, #169, #84, #9 ) ) ;
#5 = ORIENTED_EDGE ( 'NONE', *, *, #20, .T. ) ;
#6 =( NAMED_UNIT ( * ) SI_UNIT ( $, .STERADIAN. ) SOLID_ANGLE_UNIT ( ) );
#7 = COLOUR_RGB ( '',0.7921568627450980005, 0.8196078431372548767, 0.9333333333333333481 ) ;
#8 = PRESENTATION_STYLE_ASSIGNMENT (( #200 ) ) ;
#9 = ORIENTED_EDGE ( 'NONE', *, *, #20, .F. ) ;
#10 = VERTEX_POINT ( 'NONE', #17 ) ;
#11 = DIRECTION ( 'NONE',  ( 0.000000000000000000, 1.000000000000000000, 0.000000000000000000 ) ) ;
#12 = AXIS2_PLACEMENT_3D ( 'NONE', #286, #231, #22 ) ;
#13 = PRESENTATION_LAYER_ASSIGNMENT (  '', '', ( #220 ) ) ;
#14 = SURFACE_STYLE_FILL_AREA ( #263 ) ;
#15 = FILL_AREA_STYLE_COLOUR ( '', #114 ) ;
#16 = AXIS2_PLACEMENT_3D ( 'NONE', #182, #288, #235 ) ;
#17 = CARTESIAN_POINT ( 'NONE',  ( 0.5000000000000001110, 5.000000000000000000, 6.123233995736766036E-17 ) ) ;
#18 =( GEOMETRIC_REPRESENTATION_CONTEXT ( 3 ) GLOBAL_UNCERTAINTY_ASSIGNED_CONTEXT ( ( #285 ) ) GLOBAL_UNIT_ASSIGNED_CONTEXT ( ( #61, #196, #6 ) ) REPRESENTATION_CONTEXT ( 'NONE', 'WORKASPACE' ) );
#19 = SURFACE_STYLE_FILL_AREA ( #134 ) ;
#20 = EDGE_CURVE ( 'NONE', #147, #259, #294, .T. ) ;
#21 = FILL_AREA_STYLE_COLOUR ( '', #275 ) ;
#22 = DIRECTION ( 'NONE',  ( -1.000000000000000000, 0.000000000000000000, 0.000000000000000000 ) ) ;
#23 = PRESENTATION_LAYER_ASSIGNMENT (  '', '', ( #181 ) ) ;
#24 = DIRECTION ( 'NONE',  ( 0.000000000000000000, 0.000000000000000000, -1.000000000000000000 ) ) ;
#25 = PRODUCT_CONTEXT ( 'NONE', #248, 'mechanical' ) ;
#26 = DIRECTION ( 'NONE',  ( 1.000000000000000000, -8.164311994315687637E-17, 0.000000000000000000 ) ) ;
#27 =( LENGTH_UNIT ( ) NAMED_UNIT ( * ) SI_UNIT ( $, .METRE. ) );
#28 = ORIENTED_EDGE ( 'NONE', *, *, #281, .T. ) ;
#29 = LINE ( 'NONE', #184, #121 ) ;
#30 = AXIS2_PLACEMENT_3D ( 'NONE', #70, #271, #102 ) ;
#31 = EDGE_LOOP ( 'NONE', ( #193, #28 ) ) ;
#32 = ORIENTED_EDGE ( 'NONE', *, *, #168, .F. ) ;
#33 = VERTEX_POINT ( 'NONE', #277 ) ;
#34 = STYLED_ITEM ( 'NONE', ( #8 ), #212 ) ;
#35 =( LENGTH_UNIT ( ) NAMED_UNIT ( * ) SI_UNIT ( $, .METRE. ) );
#36 = CARTESIAN_POINT ( 'NONE',  ( 0.000000000000000000, 2.000000000000000000, 0.000000000000000000 ) ) ;
#37 = ORIENTED_EDGE ( 'NONE', *, *, #214, .F. ) ;
#38 = AXIS2_PLACEMENT_3D ( 'NONE', #260, #55, #96 ) ;
#39 = MECHANICAL_DESIGN_GEOMETRIC_PRESENTATION_REPRESENTATION (  '', ( #181 ), #130 ) ;
#40 = SURFACE_STYLE_FILL_AREA ( #155 ) ;
#41 = EDGE_CURVE ( 'NONE', #33, #243, #135, .T. ) ;
#42 = PRESENTATION_STYLE_ASSIGNMENT (( #227 ) ) ;
#43 =( NAMED_UNIT ( * ) PLANE_ANGLE_UNIT ( ) SI_UNIT ( $, .RADIAN. ) );
#44 = DIMENSIONAL_EXPONENTS ( 1.000000000000000000, 0.000000000000000000, 0.000000000000000000, 0.000000000000000000, 0.000000000000000000, 0.000000000000000000, 0.000000000000000000 ) ;
#45 = ADVANCED_FACE ( 'NONE', ( #90 ), #132, .T. ) ;
#46 =( CONVERSION_BASED_UNIT ( 'INCH', #157 ) LENGTH_UNIT ( ) NAMED_UNIT ( #180 ) );
#47 = AXIS2_PLACEMENT_3D ( 'NONE', #234, #166, #167 ) ;
#48 = LINE ( 'NONE', #137, #253 ) ;
#49 =( NAMED_UNIT ( * ) PLANE_ANGLE_UNIT ( ) SI_UNIT ( $, .RADIAN. ) );
#50 = DIRECTION ( 'NONE',  ( -0.000000000000000000, -1.000000000000000000, -0.000000000000000000 ) ) ;
#51 = PRESENTATION_STYLE_ASSIGNMENT (( #282 ) ) ;
#52 = CARTESIAN_POINT ( 'NONE',  ( 0.000000000000000000, 2.000000000000000000, -0.5000000000000000000 ) ) ;
#53 = ORIENTED_EDGE ( 'NONE', *, *, #205, .T. ) ;
#54 = FILL_AREA_STYLE_COLOUR ( '', #189 ) ;
#55 = DIRECTION ( 'NONE',  ( -0.000000000000000000, -1.000000000000000000, -0.000000000000000000 ) ) ;
#56 = PRESENTATION_LAYER_ASSIGNMENT (  '', '', ( #269 ) ) ;
#57 = CARTESIAN_POINT ( 'NONE',  ( 2.449293598294706414E-16, 5.000000000000000000, 0.000000000000000000 ) ) ;
#58 = MECHANICAL_DESIGN_GEOMETRIC_PRESENTATION_REPRESENTATION (  '', ( #220 ), #109 ) ;
#59 =( NAMED_UNIT ( * ) SI_UNIT ( $, .STERADIAN. ) SOLID_ANGLE_UNIT ( ) );
#60 = VERTEX_POINT ( 'NONE', #199 ) ;
#61 =( CONVERSION_BASED_UNIT ( 'INCH', #270 ) LENGTH_UNIT ( ) NAMED_UNIT ( #304 ) );
#62 = ORIENTED_EDGE ( 'NONE', *, *, #284, .T. ) ;
#63 =( NAMED_UNIT ( * ) SI_UNIT ( $, .STERADIAN. ) SOLID_ANGLE_UNIT ( ) );
#64 = AXIS2_PLACEMENT_3D ( 'NONE', #268, #156, #302 ) ;
#65 = PLANE ( 'NONE',  #30 ) ;
#66 = CARTESIAN_POINT ( 'NONE',  ( -0.4999999999999996114, 5.000000000000000000, 0.000000000000000000 ) ) ;
#67 = DIRECTION ( 'NONE',  ( 0.000000000000000000, 0.000000000000000000, -1.000000000000000000 ) ) ;
#68 = DIRECTION ( 'NONE',  ( -1.000000000000000000, 0.000000000000000000, 0.000000000000000000 ) ) ;
#69 = AXIS2_PLACEMENT_3D ( 'NONE', #57, #291, #165 ) ;
#70 = CARTESIAN_POINT ( 'NONE',  ( 1.666399758513175006E-33, 2.000000000000000000, 0.000000000000000000 ) ) ;
#71 = PRESENTATION_STYLE_ASSIGNMENT (( #93 ) ) ;
#72 = FACE_OUTER_BOUND ( 'NONE', #262, .T. ) ;
#73 = DIRECTION ( 'NONE',  ( 8.164311994315687637E-17, 1.000000000000000000, -0.000000000000000000 ) ) ;
#74 =( LENGTH_UNIT ( ) NAMED_UNIT ( * ) SI_UNIT ( $, .METRE. ) );
#75 = SURFACE_STYLE_FILL_AREA ( #236 ) ;
#76 = CIRCLE ( 'NONE', #12, 0.5000000000000000000 ) ;
#77 =( CONVERSION_BASED_UNIT ( 'INCH', #190 ) LENGTH_UNIT ( ) NAMED_UNIT ( #44 ) );
#78 = CIRCLE ( 'NONE', #142, 0.4999999999999997224 ) ;
#79 = MECHANICAL_DESIGN_GEOMETRIC_PRESENTATION_REPRESENTATION (  '', ( #269 ), #306 ) ;
#80 = FACE_OUTER_BOUND ( 'NONE', #191, .T. ) ;
#81 = ORIENTED_EDGE ( 'NONE', *, *, #168, .T. ) ;
#82 = FILL_AREA_STYLE ('',( #54 ) ) ;
#83 = MECHANICAL_DESIGN_GEOMETRIC_PRESENTATION_REPRESENTATION (  '', ( #127 ), #307 ) ;
#84 = ORIENTED_EDGE ( 'NONE', *, *, #148, .F. ) ;
#85 = EDGE_LOOP ( 'NONE', ( #89, #287, #81, #97 ) ) ;
#86 = DIRECTION ( 'NONE',  ( 8.164311994315687637E-17, 1.000000000000000000, -0.000000000000000000 ) ) ;
#87 = CIRCLE ( 'NONE', #150, 0.5000000000000000000 ) ;
#88 = SURFACE_SIDE_STYLE ('',( #40 ) ) ;
#89 = ORIENTED_EDGE ( 'NONE', *, *, #205, .F. ) ;
#90 = FACE_OUTER_BOUND ( 'NONE', #4, .T. ) ;
#91 = PRESENTATION_LAYER_ASSIGNMENT (  '', '', ( #34 ) ) ;
#92 = EDGE_CURVE ( 'NONE', #152, #125, #267, .T. ) ;
#93 = SURFACE_STYLE_USAGE ( .BOTH. , #276 ) ;
#94 = ADVANCED_FACE ( 'NONE', ( #72 ), #65, .F. ) ;
#95 = CARTESIAN_POINT ( 'NONE',  ( 0.000000000000000000, 0.000000000000000000, 0.000000000000000000 ) ) ;
#96 = DIRECTION ( 'NONE',  ( 0.000000000000000000, 0.000000000000000000, -1.000000000000000000 ) ) ;
#97 = ORIENTED_EDGE ( 'NONE', *, *, #281, .F. ) ;
#98 = APPLICATION_CONTEXT ( 'automotive_design' ) ;
#99 = MANIFOLD_SOLID_BREP ( 'Revolve - Cutting Edge', #149 ) ;
#100 = FACE_OUTER_BOUND ( 'NONE', #85, .T. ) ;
#101 = UNCERTAINTY_MEASURE_WITH_UNIT (LENGTH_MEASURE( 1.000000000000000082E-05 ), #103, 'distance_accuracy_value', 'NONE');
#102 = DIRECTION ( 'NONE',  ( -1.000000000000000000, 8.164311994315687637E-17, 0.000000000000000000 ) ) ;
#103 =( CONVERSION_BASED_UNIT ( 'INCH', #170 ) LENGTH_UNIT ( ) NAMED_UNIT ( #112 ) );
#104 =( GEOMETRIC_REPRESENTATION_CONTEXT ( 3 ) GLOBAL_UNCERTAINTY_ASSIGNED_CONTEXT ( ( #101 ) ) GLOBAL_UNIT_ASSIGNED_CONTEXT ( ( #103, #265, #63 ) ) REPRESENTATION_CONTEXT ( 'NONE', 'WORKASPACE' ) );
#105 = UNCERTAINTY_MEASURE_WITH_UNIT (LENGTH_MEASURE( 1.000000000000000082E-05 ), #77, 'distance_accuracy_value', 'NONE');
#106 = FILL_AREA_STYLE ('',( #15 ) ) ;
#107 = CARTESIAN_POINT ( 'NONE',  ( 0.000000000000000000, 2.000000000000000000, 0.000000000000000000 ) ) ;
#108 = PRODUCT_DEFINITION_FORMATION_WITH_SPECIFIED_SOURCE ( 'ANY', '', #203, .NOT_KNOWN. ) ;
#109 =( GEOMETRIC_REPRESENTATION_CONTEXT ( 3 ) GLOBAL_UNCERTAINTY_ASSIGNED_CONTEXT ( ( #244 ) ) GLOBAL_UNIT_ASSIGNED_CONTEXT ( ( #46, #305, #111 ) ) REPRESENTATION_CONTEXT ( 'NONE', 'WORKASPACE' ) );
#110 = FILL_AREA_STYLE_COLOUR ( '', #7 ) ;
#111 =( NAMED_UNIT ( * ) SI_UNIT ( $, .STERADIAN. ) SOLID_ANGLE_UNIT ( ) );
#112 = DIMENSIONAL_EXPONENTS ( 1.000000000000000000, 0.000000000000000000, 0.000000000000000000, 0.000000000000000000, 0.000000000000000000, 0.000000000000000000, 0.000000000000000000 ) ;
#113 = EDGE_CURVE ( 'NONE', #147, #60, #87, .T. ) ;
#114 = COLOUR_RGB ( '',1.000000000000000000, 0.000000000000000000, 0.000000000000000000 ) ;
#115 = SURFACE_SIDE_STYLE ('',( #186 ) ) ;
#116 =( LENGTH_UNIT ( ) NAMED_UNIT ( * ) SI_UNIT ( $, .METRE. ) );
#117 = DIRECTION ( 'NONE',  ( 8.164311994315687637E-17, 1.000000000000000000, -0.000000000000000000 ) ) ;
#118 = SURFACE_SIDE_STYLE ('',( #75 ) ) ;
#119 = PRODUCT_RELATED_PRODUCT_CATEGORY ( 'part', '', ( #203 ) ) ;
#120 = ORIENTED_EDGE ( 'NONE', *, *, #148, .T. ) ;
#121 = VECTOR ( 'NONE', #50, 39.37007874015748143 ) ;
#122 = FACE_OUTER_BOUND ( 'NONE', #242, .T. ) ;
#123 = ORIENTED_EDGE ( 'NONE', *, *, #284, .F. ) ;
#124 = ORIENTED_EDGE ( 'NONE', *, *, #113, .T. ) ;
#125 = VERTEX_POINT ( 'NONE', #224 ) ;
#126 = CARTESIAN_POINT ( 'NONE',  ( 2.449293598294706414E-16, 5.000000000000000000, 0.000000000000000000 ) ) ;
#127 = STYLED_ITEM ( 'NONE', ( #211 ), #144 ) ;
#128 =( CONVERSION_BASED_UNIT ( 'INCH', #246 ) LENGTH_UNIT ( ) NAMED_UNIT ( #273 ) );
#129 =( NAMED_UNIT ( * ) SI_UNIT ( $, .STERADIAN. ) SOLID_ANGLE_UNIT ( ) );
#130 =( GEOMETRIC_REPRESENTATION_CONTEXT ( 3 ) GLOBAL_UNCERTAINTY_ASSIGNED_CONTEXT ( ( #237 ) ) GLOBAL_UNIT_ASSIGNED_CONTEXT ( ( #128, #43, #129 ) ) REPRESENTATION_CONTEXT ( 'NONE', 'WORKASPACE' ) );
#131 =( LENGTH_UNIT ( ) NAMED_UNIT ( * ) SI_UNIT ( $, .METRE. ) );
#132 = CYLINDRICAL_SURFACE ( 'NONE', #215, 0.4999999999999998335 ) ;
#133 = FACE_OUTER_BOUND ( 'NONE', #264, .T. ) ;
#134 = FILL_AREA_STYLE ('',( #21 ) ) ;
#135 = CIRCLE ( 'NONE', #164, 0.5000000000000000000 ) ;
#136 = EDGE_CURVE ( 'NONE', #125, #152, #154, .T. ) ;
#137 = CARTESIAN_POINT ( 'NONE',  ( 0.5000000000000001110, 5.000000000000000000, 6.123233995736764803E-17 ) ) ;
#138 = AXIS2_PLACEMENT_3D ( 'NONE', #298, #173, #67 ) ;
#139 = PRESENTATION_STYLE_ASSIGNMENT (( #161 ) ) ;
#140 = APPLICATION_PROTOCOL_DEFINITION ( 'draft international standard', 'automotive_design', 1998, #98 ) ;
#141 = PRODUCT_DEFINITION_CONTEXT ( 'detailed design', #98, 'design' ) ;
#142 = AXIS2_PLACEMENT_3D ( 'NONE', #230, #73, #301 ) ;
#143 = ORIENTED_EDGE ( 'NONE', *, *, #136, .F. ) ;
#144 = ADVANCED_FACE ( 'NONE', ( #201 ), #194, .T. ) ;
#145 = ORIENTED_EDGE ( 'NONE', *, *, #41, .F. ) ;
#146 = CARTESIAN_POINT ( 'NONE',  ( 6.123233995736766036E-17, 0.000000000000000000, 0.5000000000000000000 ) ) ;
#147 = VERTEX_POINT ( 'NONE', #187 ) ;
#148 = EDGE_CURVE ( 'NONE', #259, #10, #2, .T. ) ;
#149 = CLOSED_SHELL ( 'NONE', ( #226, #293, #212, #144 ) ) ;
#150 = AXIS2_PLACEMENT_3D ( 'NONE', #107, #299, #68 ) ;
#151 = DIRECTION ( 'NONE',  ( 0.000000000000000000, 0.000000000000000000, -1.000000000000000000 ) ) ;
#152 = VERTEX_POINT ( 'NONE', #52 ) ;
#153 = DIRECTION ( 'NONE',  ( -0.000000000000000000, -1.000000000000000000, -0.000000000000000000 ) ) ;
#154 = CIRCLE ( 'NONE', #254, 0.5000000000000000000 ) ;
#155 = FILL_AREA_STYLE ('',( #110 ) ) ;
#156 = DIRECTION ( 'NONE',  ( -0.000000000000000000, -1.000000000000000000, -0.000000000000000000 ) ) ;
#157 = LENGTH_MEASURE_WITH_UNIT ( LENGTH_MEASURE( 0.02539999999999999897 ), #74 );
#158 = DIRECTION ( 'NONE',  ( -8.164311994315687637E-17, -1.000000000000000000, 0.000000000000000000 ) ) ;
#159 =( CONVERSION_BASED_UNIT ( 'INCH', #185 ) LENGTH_UNIT ( ) NAMED_UNIT ( #178 ) );
#160 = CARTESIAN_POINT ( 'NONE',  ( 6.123233995736766036E-17, 0.000000000000000000, 0.5000000000000000000 ) ) ;
#161 = SURFACE_STYLE_USAGE ( .BOTH. , #118 ) ;
#162 = PRODUCT_DEFINITION_SHAPE ( 'NONE', 'NONE',  #177 ) ;
#163 = MECHANICAL_DESIGN_GEOMETRIC_PRESENTATION_REPRESENTATION (  '', ( #34 ), #104 ) ;
#164 = AXIS2_PLACEMENT_3D ( 'NONE', #297, #207, #151 ) ;
#165 = DIRECTION ( 'NONE',  ( -1.000000000000000000, 0.000000000000000000, 0.000000000000000000 ) ) ;
#166 = DIRECTION ( 'NONE',  ( 0.000000000000000000, 0.000000000000000000, 1.000000000000000000 ) ) ;
#167 = DIRECTION ( 'NONE',  ( 1.000000000000000000, 0.000000000000000000, 0.000000000000000000 ) ) ;
#168 = EDGE_CURVE ( 'NONE', #152, #33, #29, .T. ) ;
#169 = ORIENTED_EDGE ( 'NONE', *, *, #256, .T. ) ;
#170 = LENGTH_MEASURE_WITH_UNIT ( LENGTH_MEASURE( 0.02539999999999999897 ), #35 );
#171 = CARTESIAN_POINT ( 'NONE',  ( 2.449293598294706414E-16, 5.000000000000000000, 0.000000000000000000 ) ) ;
#172 = STYLED_ITEM ( 'NONE', ( #139 ), #195 ) ;
#173 = DIRECTION ( 'NONE',  ( -0.000000000000000000, -1.000000000000000000, -0.000000000000000000 ) ) ;
#174 = DIRECTION ( 'NONE',  ( 8.164311994315687637E-17, 1.000000000000000000, -0.000000000000000000 ) ) ;
#175 = DIRECTION ( 'NONE',  ( -1.000000000000000000, 0.000000000000000000, 0.000000000000000000 ) ) ;
#176 = ADVANCED_BREP_SHAPE_REPRESENTATION ( '00752', ( #99, #195, #47 ), #208 ) ;
#177 = PRODUCT_DEFINITION ( 'UNKNOWN', '', #108, #141 ) ;
#178 = DIMENSIONAL_EXPONENTS ( 1.000000000000000000, 0.000000000000000000, 0.000000000000000000, 0.000000000000000000, 0.000000000000000000, 0.000000000000000000, 0.000000000000000000 ) ;
#179 = DIRECTION ( 'NONE',  ( 0.000000000000000000, 0.000000000000000000, -1.000000000000000000 ) ) ;
#180 = DIMENSIONAL_EXPONENTS ( 1.000000000000000000, 0.000000000000000000, 0.000000000000000000, 0.000000000000000000, 0.000000000000000000, 0.000000000000000000, 0.000000000000000000 ) ;
#181 = STYLED_ITEM ( 'NONE', ( #42 ), #99 ) ;
#182 = CARTESIAN_POINT ( 'NONE',  ( 0.000000000000000000, 0.000000000000000000, 0.000000000000000000 ) ) ;
#183 = CARTESIAN_POINT ( 'NONE',  ( -0.4999999999999994449, 5.000000000000000000, 0.000000000000000000 ) ) ;
#184 = CARTESIAN_POINT ( 'NONE',  ( 0.000000000000000000, 0.000000000000000000, -0.5000000000000000000 ) ) ;
#185 = LENGTH_MEASURE_WITH_UNIT ( LENGTH_MEASURE( 0.02539999999999999897 ), #27 );
#186 = SURFACE_STYLE_FILL_AREA ( #82 ) ;
#187 = CARTESIAN_POINT ( 'NONE',  ( -0.5000000000000000000, 2.000000000000000000, 0.000000000000000000 ) ) ;
#188 = AXIS2_PLACEMENT_3D ( 'NONE', #279, #158, #26 ) ;
#189 = COLOUR_RGB ( '',1.000000000000000000, 0.000000000000000000, 0.000000000000000000 ) ;
#190 = LENGTH_MEASURE_WITH_UNIT ( LENGTH_MEASURE( 0.02539999999999999897 ), #216 );
#191 = EDGE_LOOP ( 'NONE', ( #245, #143 ) ) ;
#192 = SHAPE_DEFINITION_REPRESENTATION ( #162, #176 ) ;
#193 = ORIENTED_EDGE ( 'NONE', *, *, #41, .T. ) ;
#194 = PLANE ( 'NONE',  #296 ) ;
#195 = MANIFOLD_SOLID_BREP ( 'Revolve - Tool Body (Straight Shanked)', #283 ) ;
#196 =( NAMED_UNIT ( * ) PLANE_ANGLE_UNIT ( ) SI_UNIT ( $, .RADIAN. ) );
#197 = EDGE_LOOP ( 'NONE', ( #120, #222 ) ) ;
#198 = LINE ( 'NONE', #146, #251 ) ;
#199 = CARTESIAN_POINT ( 'NONE',  ( 0.5000000000000001110, 2.000000000000000000, 6.123233995736766036E-17 ) ) ;
#200 = SURFACE_STYLE_USAGE ( .BOTH. , #202 ) ;
#201 = FACE_OUTER_BOUND ( 'NONE', #31, .T. ) ;
#202 = SURFACE_SIDE_STYLE ('',( #14 ) ) ;
#203 = PRODUCT ( '00752', '00752', '', ( #25 ) ) ;
#204 = DIRECTION ( 'NONE',  ( -1.000000000000000000, 0.000000000000000000, 0.000000000000000000 ) ) ;
#205 = EDGE_CURVE ( 'NONE', #125, #243, #198, .T. ) ;
#206 = UNCERTAINTY_MEASURE_WITH_UNIT (LENGTH_MEASURE( 1.000000000000000082E-05 ), #217, 'distance_accuracy_value', 'NONE');
#207 = DIRECTION ( 'NONE',  ( -0.000000000000000000, -1.000000000000000000, -0.000000000000000000 ) ) ;
#208 =( GEOMETRIC_REPRESENTATION_CONTEXT ( 3 ) GLOBAL_UNCERTAINTY_ASSIGNED_CONTEXT ( ( #249 ) ) GLOBAL_UNIT_ASSIGNED_CONTEXT ( ( #159, #240, #232 ) ) REPRESENTATION_CONTEXT ( 'NONE', 'WORKASPACE' ) );
#209 = ADVANCED_FACE ( 'NONE', ( #122 ), #221, .T. ) ;
#210 = SURFACE_SIDE_STYLE ('',( #228 ) ) ;
#211 = PRESENTATION_STYLE_ASSIGNMENT (( #219 ) ) ;
#212 = ADVANCED_FACE ( 'NONE', ( #100 ), #247, .T. ) ;
#213 = AXIS2_PLACEMENT_3D ( 'NONE', #36, #11, #272 ) ;
#214 = EDGE_CURVE ( 'NONE', #10, #259, #78, .T. ) ;
#215 = AXIS2_PLACEMENT_3D ( 'NONE', #171, #174, #204 ) ;
#216 =( LENGTH_UNIT ( ) NAMED_UNIT ( * ) SI_UNIT ( $, .METRE. ) );
#217 =( CONVERSION_BASED_UNIT ( 'INCH', #289 ) LENGTH_UNIT ( ) NAMED_UNIT ( #300 ) );
#218 =( LENGTH_UNIT ( ) NAMED_UNIT ( * ) SI_UNIT ( $, .METRE. ) );
#219 = SURFACE_STYLE_USAGE ( .BOTH. , #210 ) ;
#220 = STYLED_ITEM ( 'NONE', ( #71 ), #226 ) ;
#221 = CYLINDRICAL_SURFACE ( 'NONE', #278, 0.4999999999999998335 ) ;
#222 = ORIENTED_EDGE ( 'NONE', *, *, #214, .T. ) ;
#223 = FILL_AREA_STYLE_COLOUR ( '', #292 ) ;
#224 = CARTESIAN_POINT ( 'NONE',  ( 6.123233995736766036E-17, 2.000000000000000000, 0.5000000000000000000 ) ) ;
#225 = CARTESIAN_POINT ( 'NONE',  ( 0.000000000000000000, 2.000000000000000000, 0.000000000000000000 ) ) ;
#226 = ADVANCED_FACE ( 'NONE', ( #133 ), #255, .T. ) ;
#227 = SURFACE_STYLE_USAGE ( .BOTH. , #88 ) ;
#228 = SURFACE_STYLE_FILL_AREA ( #106 ) ;
#229 = MECHANICAL_DESIGN_GEOMETRIC_PRESENTATION_REPRESENTATION (  '', ( #172 ), #18 ) ;
#230 = CARTESIAN_POINT ( 'NONE',  ( 2.449293598294706414E-16, 5.000000000000000000, 0.000000000000000000 ) ) ;
#231 = DIRECTION ( 'NONE',  ( 8.164311994315687637E-17, 1.000000000000000000, -0.000000000000000000 ) ) ;
#232 =( NAMED_UNIT ( * ) SI_UNIT ( $, .STERADIAN. ) SOLID_ANGLE_UNIT ( ) );
#233 = ADVANCED_FACE ( 'NONE', ( #238 ), #309, .F. ) ;
#234 = CARTESIAN_POINT ( 'NONE',  ( 0.000000000000000000, 0.000000000000000000, 0.000000000000000000 ) ) ;
#235 = DIRECTION ( 'NONE',  ( 0.000000000000000000, 0.000000000000000000, -1.000000000000000000 ) ) ;
#236 = FILL_AREA_STYLE ('',( #280 ) ) ;
#237 = UNCERTAINTY_MEASURE_WITH_UNIT (LENGTH_MEASURE( 1.000000000000000082E-05 ), #128, 'distance_accuracy_value', 'NONE');
#238 = FACE_OUTER_BOUND ( 'NONE', #197, .T. ) ;
#239 = DIRECTION ( 'NONE',  ( 0.000000000000000000, -1.000000000000000000, -0.000000000000000000 ) ) ;
#240 =( NAMED_UNIT ( * ) PLANE_ANGLE_UNIT ( ) SI_UNIT ( $, .RADIAN. ) );
#241 = PRESENTATION_LAYER_ASSIGNMENT (  '', '', ( #172 ) ) ;
#242 = EDGE_LOOP ( 'NONE', ( #274, #62, #5, #37 ) ) ;
#243 = VERTEX_POINT ( 'NONE', #160 ) ;
#244 = UNCERTAINTY_MEASURE_WITH_UNIT (LENGTH_MEASURE( 1.000000000000000082E-05 ), #46, 'distance_accuracy_value', 'NONE');
#245 = ORIENTED_EDGE ( 'NONE', *, *, #92, .F. ) ;
#246 = LENGTH_MEASURE_WITH_UNIT ( LENGTH_MEASURE( 0.02539999999999999897 ), #131 );
#247 = CYLINDRICAL_SURFACE ( 'NONE', #138, 0.5000000000000000000 ) ;
#248 = APPLICATION_CONTEXT ( 'automotive_design' ) ;
#249 = UNCERTAINTY_MEASURE_WITH_UNIT (LENGTH_MEASURE( 1.000000000000000082E-05 ), #159, 'distance_accuracy_value', 'NONE');
#250 = DIRECTION ( 'NONE',  ( 8.164311994315687637E-17, 1.000000000000000000, -0.000000000000000000 ) ) ;
#251 = VECTOR ( 'NONE', #295, 39.37007874015748143 ) ;
#252 = ORIENTED_EDGE ( 'NONE', *, *, #113, .F. ) ;
#253 = VECTOR ( 'NONE', #117, 39.37007874015748143 ) ;
#254 = AXIS2_PLACEMENT_3D ( 'NONE', #225, #153, #179 ) ;
#255 = CYLINDRICAL_SURFACE ( 'NONE', #16, 0.5000000000000000000 ) ;
#256 = EDGE_CURVE ( 'NONE', #60, #10, #48, .T. ) ;
#257 =( NAMED_UNIT ( * ) SI_UNIT ( $, .STERADIAN. ) SOLID_ANGLE_UNIT ( ) );
#258 = PLANE ( 'NONE',  #213 ) ;
#259 = VERTEX_POINT ( 'NONE', #183 ) ;
#260 = CARTESIAN_POINT ( 'NONE',  ( 0.000000000000000000, 0.000000000000000000, 0.000000000000000000 ) ) ;
#261 = PRESENTATION_LAYER_ASSIGNMENT (  '', '', ( #127 ) ) ;
#262 = EDGE_LOOP ( 'NONE', ( #252, #123 ) ) ;
#263 = FILL_AREA_STYLE ('',( #223 ) ) ;
#264 = EDGE_LOOP ( 'NONE', ( #290, #53, #145, #32 ) ) ;
#265 =( NAMED_UNIT ( * ) PLANE_ANGLE_UNIT ( ) SI_UNIT ( $, .RADIAN. ) );
#266 = VECTOR ( 'NONE', #250, 39.37007874015748143 ) ;
#267 = CIRCLE ( 'NONE', #64, 0.5000000000000000000 ) ;
#268 = CARTESIAN_POINT ( 'NONE',  ( 0.000000000000000000, 2.000000000000000000, 0.000000000000000000 ) ) ;
#269 = STYLED_ITEM ( 'NONE', ( #51 ), #293 ) ;
#270 = LENGTH_MEASURE_WITH_UNIT ( LENGTH_MEASURE( 0.02539999999999999897 ), #218 );
#271 = DIRECTION ( 'NONE',  ( 8.164311994315687637E-17, 1.000000000000000000, -0.000000000000000000 ) ) ;
#272 = DIRECTION ( 'NONE',  ( 0.000000000000000000, -0.000000000000000000, 1.000000000000000000 ) ) ;
#273 = DIMENSIONAL_EXPONENTS ( 1.000000000000000000, 0.000000000000000000, 0.000000000000000000, 0.000000000000000000, 0.000000000000000000, 0.000000000000000000, 0.000000000000000000 ) ;
#274 = ORIENTED_EDGE ( 'NONE', *, *, #256, .F. ) ;
#275 = COLOUR_RGB ( '',1.000000000000000000, 0.000000000000000000, 0.000000000000000000 ) ;
#276 = SURFACE_SIDE_STYLE ('',( #19 ) ) ;
#277 = CARTESIAN_POINT ( 'NONE',  ( 0.000000000000000000, 0.000000000000000000, -0.5000000000000000000 ) ) ;
#278 = AXIS2_PLACEMENT_3D ( 'NONE', #126, #86, #175 ) ;
#279 = CARTESIAN_POINT ( 'NONE',  ( 0.5000000000000000000, 5.000000000000000000, 0.000000000000000000 ) ) ;
#280 = FILL_AREA_STYLE_COLOUR ( '', #303 ) ;
#281 = EDGE_CURVE ( 'NONE', #243, #33, #1, .T. ) ;
#282 = SURFACE_STYLE_USAGE ( .BOTH. , #115 ) ;
#283 = CLOSED_SHELL ( 'NONE', ( #45, #94, #209, #233 ) ) ;
#284 = EDGE_CURVE ( 'NONE', #60, #147, #76, .T. ) ;
#285 = UNCERTAINTY_MEASURE_WITH_UNIT (LENGTH_MEASURE( 1.000000000000000082E-05 ), #61, 'distance_accuracy_value', 'NONE');
#286 = CARTESIAN_POINT ( 'NONE',  ( 0.000000000000000000, 2.000000000000000000, 0.000000000000000000 ) ) ;
#287 = ORIENTED_EDGE ( 'NONE', *, *, #136, .T. ) ;
#288 = DIRECTION ( 'NONE',  ( -0.000000000000000000, -1.000000000000000000, -0.000000000000000000 ) ) ;
#289 = LENGTH_MEASURE_WITH_UNIT ( LENGTH_MEASURE( 0.02539999999999999897 ), #116 );
#290 = ORIENTED_EDGE ( 'NONE', *, *, #92, .T. ) ;
#291 = DIRECTION ( 'NONE',  ( 8.164311994315687637E-17, 1.000000000000000000, -0.000000000000000000 ) ) ;
#292 = COLOUR_RGB ( '',1.000000000000000000, 0.000000000000000000, 0.000000000000000000 ) ;
#293 = ADVANCED_FACE ( 'NONE', ( #80 ), #258, .T. ) ;
#294 = LINE ( 'NONE', #66, #266 ) ;
#295 = DIRECTION ( 'NONE',  ( -0.000000000000000000, -1.000000000000000000, -0.000000000000000000 ) ) ;
#296 = AXIS2_PLACEMENT_3D ( 'NONE', #95, #239, #24 ) ;
#297 = CARTESIAN_POINT ( 'NONE',  ( 0.000000000000000000, 0.000000000000000000, 0.000000000000000000 ) ) ;
#298 = CARTESIAN_POINT ( 'NONE',  ( 0.000000000000000000, 0.000000000000000000, 0.000000000000000000 ) ) ;
#299 = DIRECTION ( 'NONE',  ( 8.164311994315687637E-17, 1.000000000000000000, -0.000000000000000000 ) ) ;
#300 = DIMENSIONAL_EXPONENTS ( 1.000000000000000000, 0.000000000000000000, 0.000000000000000000, 0.000000000000000000, 0.000000000000000000, 0.000000000000000000, 0.000000000000000000 ) ;
#301 = DIRECTION ( 'NONE',  ( -1.000000000000000000, 0.000000000000000000, 0.000000000000000000 ) ) ;
#302 = DIRECTION ( 'NONE',  ( 0.000000000000000000, 0.000000000000000000, -1.000000000000000000 ) ) ;
#303 = COLOUR_RGB ( '',0.7921568627450980005, 0.8196078431372548767, 0.9333333333333333481 ) ;
#304 = DIMENSIONAL_EXPONENTS ( 1.000000000000000000, 0.000000000000000000, 0.000000000000000000, 0.000000000000000000, 0.000000000000000000, 0.000000000000000000, 0.000000000000000000 ) ;
#305 =( NAMED_UNIT ( * ) PLANE_ANGLE_UNIT ( ) SI_UNIT ( $, .RADIAN. ) );
#306 =( GEOMETRIC_REPRESENTATION_CONTEXT ( 3 ) GLOBAL_UNCERTAINTY_ASSIGNED_CONTEXT ( ( #105 ) ) GLOBAL_UNIT_ASSIGNED_CONTEXT ( ( #77, #49, #59 ) ) REPRESENTATION_CONTEXT ( 'NONE', 'WORKASPACE' ) );
#307 =( GEOMETRIC_REPRESENTATION_CONTEXT ( 3 ) GLOBAL_UNCERTAINTY_ASSIGNED_CONTEXT ( ( #206 ) ) GLOBAL_UNIT_ASSIGNED_CONTEXT ( ( #217, #308, #257 ) ) REPRESENTATION_CONTEXT ( 'NONE', 'WORKASPACE' ) );
#308 =( NAMED_UNIT ( * ) PLANE_ANGLE_UNIT ( ) SI_UNIT ( $, .RADIAN. ) );
#309 = PLANE ( 'NONE',  #188 ) ;
ENDSEC;
END-ISO-10303-21;
