ISO-10303-21;
HEADER;
FILE_DESCRIPTION (( 'STEP AP214' ),
    '1' );
FILE_NAME ('Micro_AMRM-015-2X.STEP',
    '2021-09-01T17:14:46',
    ( '' ),
    ( '' ),
    'SwSTEP 2.0',
    'SolidWorks 2020',
    '' );
FILE_SCHEMA (( 'AUTOMOTIVE_DESIGN' ));
ENDSEC;

DATA;
#1 = DIRECTION ( 'NONE',  ( 0.1736481776669313304, 0.0000000000000000000, 0.9848077530122077983 ) ) ;
#2 = EDGE_CURVE ( 'NONE', #49, #41, #160, .T. ) ;
#3 = EDGE_LOOP ( 'NONE', ( #227, #290, #208, #233 ) ) ;
#4 = CARTESIAN_POINT ( 'NONE',  ( 0.02949797250000000398, 3.612459760346164844E-18, 0.0000000000000000000 ) ) ;
#5 = VECTOR ( 'NONE', #1, 39.37007874015748143 ) ;
#6 = VECTOR ( 'NONE', #256, 39.37007874015748143 ) ;
#7 = LENGTH_MEASURE_WITH_UNIT ( LENGTH_MEASURE( 0.02539999999999999897 ), #193 );
#8 = EDGE_CURVE ( 'NONE', #41, #182, #65, .T. ) ;
#9 = FACE_OUTER_BOUND ( 'NONE', #287, .T. ) ;
#10 = DIRECTION ( 'NONE',  ( 1.224646799147353207E-16, 0.0000000000000000000, 1.000000000000000000 ) ) ;
#11 = EDGE_CURVE ( 'NONE', #245, #46, #23, .T. ) ;
#12 = CYLINDRICAL_SURFACE ( 'NONE', #87, 0.07874000000000001831 ) ;
#13 = DIRECTION ( 'NONE',  ( 1.000000000000000000, 0.0000000000000000000, -0.0000000000000000000 ) ) ;
#14 = LINE ( 'NONE', #267, #56 ) ;
#15 = AXIS2_PLACEMENT_3D ( 'NONE', #190, #146, #173 ) ;
#16 = CARTESIAN_POINT ( 'NONE',  ( 0.0000000000000000000, 0.0000000000000000000, 1.968503999999999809 ) ) ;
#17 = ADVANCED_FACE ( 'NONE', ( #207 ), #153, .T. ) ;
#18 = FACE_OUTER_BOUND ( 'NONE', #275, .T. ) ;
#19 = PRESENTATION_STYLE_ASSIGNMENT (( #225 ) ) ;
#20 = AXIS2_PLACEMENT_3D ( 'NONE', #100, #276, #163 ) ;
#21 = DIRECTION ( 'NONE',  ( 0.0000000000000000000, 0.0000000000000000000, 1.000000000000000000 ) ) ;
#22 = VERTEX_POINT ( 'NONE', #69 ) ;
#23 = CIRCLE ( 'NONE', #161, 0.02949797249999999704 ) ;
#24 = CIRCLE ( 'NONE', #139, 0.07874000000000001831 ) ;
#25 = ORIENTED_EDGE ( 'NONE', *, *, #210, .F. ) ;
#26 = ORIENTED_EDGE ( 'NONE', *, *, #242, .T. ) ;
#27 = ORIENTED_EDGE ( 'NONE', *, *, #8, .F. ) ;
#28 = APPLICATION_PROTOCOL_DEFINITION ( 'draft international standard', 'automotive_design', 1998, #181 ) ;
#29 = EDGE_LOOP ( 'NONE', ( #293, #118, #89, #206 ) ) ;
#30 = CLOSED_SHELL ( 'NONE', ( #148, #58, #99, #128, #72, #258, #17, #199, #138, #212 ) ) ;
#31 = SURFACE_SIDE_STYLE ('',( #215 ) ) ;
#32 = CONICAL_SURFACE ( 'NONE', #147, 0.02949797249999999704, 0.1745329251994338360 ) ;
#33 = DIRECTION ( 'NONE',  ( -1.000000000000000000, 0.0000000000000000000, 1.224646799147352961E-16 ) ) ;
#34 = EDGE_CURVE ( 'NONE', #22, #41, #216, .T. ) ;
#35 = LINE ( 'NONE', #145, #279 ) ;
#36 = PRESENTATION_LAYER_ASSIGNMENT (  '', '', ( #103 ) ) ;
#37 = DIRECTION ( 'NONE',  ( 1.000000000000000000, 0.0000000000000000000, -0.0000000000000000000 ) ) ;
#38 = PLANE ( 'NONE',  #43 ) ;
#39 = ORIENTED_EDGE ( 'NONE', *, *, #242, .F. ) ;
#40 = EDGE_CURVE ( 'NONE', #46, #245, #263, .T. ) ;
#41 = VERTEX_POINT ( 'NONE', #255 ) ;
#42 =( GEOMETRIC_REPRESENTATION_CONTEXT ( 3 ) GLOBAL_UNCERTAINTY_ASSIGNED_CONTEXT ( ( #116 ) ) GLOBAL_UNIT_ASSIGNED_CONTEXT ( ( #170, #51, #259 ) ) REPRESENTATION_CONTEXT ( 'NONE', 'WORKASPACE' ) );
#43 = AXIS2_PLACEMENT_3D ( 'NONE', #60, #129, #13 ) ;
#44 = DIRECTION ( 'NONE',  ( 0.0000000000000000000, 0.0000000000000000000, 1.000000000000000000 ) ) ;
#45 = ORIENTED_EDGE ( 'NONE', *, *, #210, .T. ) ;
#46 = VERTEX_POINT ( 'NONE', #162 ) ;
#47 = FACE_OUTER_BOUND ( 'NONE', #29, .T. ) ;
#48 = CARTESIAN_POINT ( 'NONE',  ( 2.025002468262114287E-17, 0.0000000000000000000, 0.1653539999999999732 ) ) ;
#49 = VERTEX_POINT ( 'NONE', #252 ) ;
#50 = DIRECTION ( 'NONE',  ( -1.224646799147353207E-16, -0.0000000000000000000, -1.000000000000000000 ) ) ;
#51 =( NAMED_UNIT ( * ) PLANE_ANGLE_UNIT ( ) SI_UNIT ( $, .RADIAN. ) );
#52 = FACE_OUTER_BOUND ( 'NONE', #61, .T. ) ;
#53 = AXIS2_PLACEMENT_3D ( 'NONE', #265, #85, #224 ) ;
#54 = FACE_OUTER_BOUND ( 'NONE', #155, .T. ) ;
#55 = APPLICATION_PROTOCOL_DEFINITION ( 'draft international standard', 'automotive_design', 1998, #166 ) ;
#56 = VECTOR ( 'NONE', #110, 39.37007874015748143 ) ;
#57 = DIRECTION ( 'NONE',  ( -1.000000000000000000, 0.0000000000000000000, 1.224646799147352961E-16 ) ) ;
#58 = ADVANCED_FACE ( 'NONE', ( #47 ), #257, .T. ) ;
#59 = ORIENTED_EDGE ( 'NONE', *, *, #282, .F. ) ;
#60 = CARTESIAN_POINT ( 'NONE',  ( 0.0000000000000000000, 0.0000000000000000000, 1.968503999999999809 ) ) ;
#61 = EDGE_LOOP ( 'NONE', ( #247, #222, #25, #269 ) ) ;
#62 = EDGE_CURVE ( 'NONE', #41, #22, #24, .T. ) ;
#63 = EDGE_CURVE ( 'NONE', #245, #86, #119, .T. ) ;
#64 = LENGTH_MEASURE_WITH_UNIT ( LENGTH_MEASURE( 0.02539999999999999897 ), #205 );
#65 = LINE ( 'NONE', #144, #228 ) ;
#66 = UNCERTAINTY_MEASURE_WITH_UNIT (LENGTH_MEASURE( 1.000000000000000082E-05 ), #120, 'distance_accuracy_value', 'NONE');
#67 = AXIS2_PLACEMENT_3D ( 'NONE', #174, #158, #57 ) ;
#68 =( GEOMETRIC_REPRESENTATION_CONTEXT ( 3 ) GLOBAL_UNCERTAINTY_ASSIGNED_CONTEXT ( ( #184 ) ) GLOBAL_UNIT_ASSIGNED_CONTEXT ( ( #112, #178, #154 ) ) REPRESENTATION_CONTEXT ( 'NONE', 'WORKASPACE' ) );
#69 = CARTESIAN_POINT ( 'NONE',  ( 0.07874000000000001831, 9.642868896486260050E-18, 1.953504000000000129 ) ) ;
#70 = CARTESIAN_POINT ( 'NONE',  ( 0.02949797250000002133, 0.0000000000000000000, 0.1653539999999999732 ) ) ;
#71 = PRODUCT_DEFINITION_CONTEXT ( 'detailed design', #181, 'design' ) ;
#72 = ADVANCED_FACE ( 'NONE', ( #122 ), #124, .T. ) ;
#73 = ORIENTED_EDGE ( 'NONE', *, *, #285, .T. ) ;
#74 = PRESENTATION_LAYER_ASSIGNMENT (  '', '', ( #101 ) ) ;
#75 = VERTEX_POINT ( 'NONE', #4 ) ;
#76 = CIRCLE ( 'NONE', #289, 0.02949797250000000398 ) ;
#77 = ADVANCED_BREP_SHAPE_REPRESENTATION ( 'Micro_AMRM-015-2X', ( #114, #143 ), #68 ) ;
#78 = EDGE_CURVE ( 'NONE', #137, #22, #149, .T. ) ;
#79 = PRESENTATION_STYLE_ASSIGNMENT (( #105 ) ) ;
#80 = DIRECTION ( 'NONE',  ( -1.000000000000000000, 0.0000000000000000000, 1.224646799147352961E-16 ) ) ;
#81 = DIRECTION ( 'NONE',  ( 1.000000000000000000, 0.0000000000000000000, 0.0000000000000000000 ) ) ;
#82 = CIRCLE ( 'NONE', #172, 0.06374000000000018540 ) ;
#83 = CARTESIAN_POINT ( 'NONE',  ( 0.06374000000000018540, 8.724383797125754882E-18, 1.968503999999999809 ) ) ;
#84 = CARTESIAN_POINT ( 'NONE',  ( 0.0000000000000000000, 0.0000000000000000000, 0.0000000000000000000 ) ) ;
#85 = DIRECTION ( 'NONE',  ( -1.224646799147353207E-16, -0.0000000000000000000, -1.000000000000000000 ) ) ;
#86 = VERTEX_POINT ( 'NONE', #235 ) ;
#87 = AXIS2_PLACEMENT_3D ( 'NONE', #219, #150, #281 ) ;
#88 = CARTESIAN_POINT ( 'NONE',  ( 0.0000000000000000000, 0.0000000000000000000, 1.968503999999999809 ) ) ;
#89 = ORIENTED_EDGE ( 'NONE', *, *, #232, .T. ) ;
#90 = PRODUCT_DEFINITION_SHAPE ( 'NONE', 'NONE',  #157 ) ;
#91 = CARTESIAN_POINT ( 'NONE',  ( -0.02949797250000000398, 0.0000000000000000000, 7.224919520692329689E-18 ) ) ;
#92 = EDGE_LOOP ( 'NONE', ( #131, #140, #253, #59 ) ) ;
#93 = DIRECTION ( 'NONE',  ( -1.224646799147353207E-16, -0.0000000000000000000, -1.000000000000000000 ) ) ;
#94 = AXIS2_PLACEMENT_3D ( 'NONE', #213, #273, #296 ) ;
#95 = DIRECTION ( 'NONE',  ( -0.0000000000000000000, -0.0000000000000000000, -1.000000000000000000 ) ) ;
#96 = EDGE_CURVE ( 'NONE', #86, #182, #189, .T. ) ;
#97 = DIMENSIONAL_EXPONENTS ( 1.000000000000000000, 0.0000000000000000000, 0.0000000000000000000, 0.0000000000000000000, 0.0000000000000000000, 0.0000000000000000000, 0.0000000000000000000 ) ;
#98 = DIRECTION ( 'NONE',  ( -1.224646799147353207E-16, -0.0000000000000000000, -1.000000000000000000 ) ) ;
#99 = ADVANCED_FACE ( 'NONE', ( #54 ), #241, .T. ) ;
#100 = CARTESIAN_POINT ( 'NONE',  ( 0.0000000000000000000, 0.0000000000000000000, 1.953504000000000129 ) ) ;
#101 = STYLED_ITEM ( 'NONE', ( #79 ), #114 ) ;
#102 = DIRECTION ( 'NONE',  ( 1.000000000000000000, 0.0000000000000000000, 0.0000000000000000000 ) ) ;
#103 = STYLED_ITEM ( 'NONE', ( #19 ), #77 ) ;
#104 = FILL_AREA_STYLE_COLOUR ( '', #132 ) ;
#105 = SURFACE_STYLE_USAGE ( .BOTH. , #31 ) ;
#106 = CIRCLE ( 'NONE', #192, 0.06374000000000018540 ) ;
#107 = DIRECTION ( 'NONE',  ( -1.224646799147353207E-16, -0.0000000000000000000, -1.000000000000000000 ) ) ;
#108 = CARTESIAN_POINT ( 'NONE',  ( -0.02949797250000000398, 0.0000000000000000000, 3.612459760346164844E-18 ) ) ;
#109 = ORIENTED_EDGE ( 'NONE', *, *, #96, .F. ) ;
#110 = DIRECTION ( 'NONE',  ( -0.0000000000000000000, -0.0000000000000000000, -1.000000000000000000 ) ) ;
#111 = VECTOR ( 'NONE', #133, 39.37007874015748143 ) ;
#112 =( CONVERSION_BASED_UNIT ( 'INCH', #262 ) LENGTH_UNIT ( ) NAMED_UNIT ( #125 ) );
#113 = DIRECTION ( 'NONE',  ( -0.1736481776669311639, 2.126576849575782392E-17, 0.9848077530122080203 ) ) ;
#114 = MANIFOLD_SOLID_BREP ( 'Cut-Revolve1', #30 ) ;
#115 = ORIENTED_EDGE ( 'NONE', *, *, #274, .T. ) ;
#116 = UNCERTAINTY_MEASURE_WITH_UNIT (LENGTH_MEASURE( 1.000000000000000082E-05 ), #170, 'distance_accuracy_value', 'NONE');
#117 = DIRECTION ( 'NONE',  ( -1.000000000000000000, 0.0000000000000000000, 0.0000000000000000000 ) ) ;
#118 = ORIENTED_EDGE ( 'NONE', *, *, #239, .T. ) ;
#119 = LINE ( 'NONE', #70, #5 ) ;
#120 =( CONVERSION_BASED_UNIT ( 'INCH', #64 ) LENGTH_UNIT ( ) NAMED_UNIT ( #151 ) );
#121 = ORIENTED_EDGE ( 'NONE', *, *, #78, .T. ) ;
#122 = FACE_OUTER_BOUND ( 'NONE', #211, .T. ) ;
#123 = CARTESIAN_POINT ( 'NONE',  ( 0.06374000000000018540, 7.805898697765251255E-18, 1.968503999999999809 ) ) ;
#124 = CYLINDRICAL_SURFACE ( 'NONE', #15, 0.07874000000000001831 ) ;
#125 = DIMENSIONAL_EXPONENTS ( 1.000000000000000000, 0.0000000000000000000, 0.0000000000000000000, 0.0000000000000000000, 0.0000000000000000000, 0.0000000000000000000, 0.0000000000000000000 ) ;
#126 = CARTESIAN_POINT ( 'NONE',  ( 5.445017438126882659E-17, 0.0000000000000000000, 0.4446194153218638867 ) ) ;
#127 = FACE_OUTER_BOUND ( 'NONE', #294, .T. ) ;
#128 = ADVANCED_FACE ( 'NONE', ( #127 ), #12, .T. ) ;
#129 = DIRECTION ( 'NONE',  ( 0.0000000000000000000, 0.0000000000000000000, 1.000000000000000000 ) ) ;
#130 = FILL_AREA_STYLE_COLOUR ( '', #168 ) ;
#131 = ORIENTED_EDGE ( 'NONE', *, *, #171, .F. ) ;
#132 = COLOUR_RGB ( '',0.7921568627450980005, 0.8196078431372548767, 0.9333333333333333481 ) ;
#133 = DIRECTION ( 'NONE',  ( -1.224646799147353207E-16, -0.0000000000000000000, -1.000000000000000000 ) ) ;
#134 = ORIENTED_EDGE ( 'NONE', *, *, #282, .T. ) ;
#135 = SURFACE_SIDE_STYLE ('',( #240 ) ) ;
#136 = SHAPE_DEFINITION_REPRESENTATION ( #90, #77 ) ;
#137 = VERTEX_POINT ( 'NONE', #83 ) ;
#138 = ADVANCED_FACE ( 'NONE', ( #194 ), #237, .T. ) ;
#139 = AXIS2_PLACEMENT_3D ( 'NONE', #231, #141, #186 ) ;
#140 = ORIENTED_EDGE ( 'NONE', *, *, #11, .T. ) ;
#141 = DIRECTION ( 'NONE',  ( 0.0000000000000000000, 0.0000000000000000000, -1.000000000000000000 ) ) ;
#142 = DIRECTION ( 'NONE',  ( 1.000000000000000000, 0.0000000000000000000, 0.0000000000000000000 ) ) ;
#143 = AXIS2_PLACEMENT_3D ( 'NONE', #251, #21, #270 ) ;
#144 = CARTESIAN_POINT ( 'NONE',  ( -0.07874000000000001831, 0.0000000000000000000, 1.968503999999999809 ) ) ;
#145 = CARTESIAN_POINT ( 'NONE',  ( 0.02949797250000000398, 3.612459760346164844E-18, -3.612459760346164844E-18 ) ) ;
#146 = DIRECTION ( 'NONE',  ( -0.0000000000000000000, -0.0000000000000000000, -1.000000000000000000 ) ) ;
#147 = AXIS2_PLACEMENT_3D ( 'NONE', #218, #10, #102 ) ;
#148 = ADVANCED_FACE ( 'NONE', ( #52 ), #234, .T. ) ;
#149 = LINE ( 'NONE', #123, #6 ) ;
#150 = DIRECTION ( 'NONE',  ( -0.0000000000000000000, -0.0000000000000000000, -1.000000000000000000 ) ) ;
#151 = DIMENSIONAL_EXPONENTS ( 1.000000000000000000, 0.0000000000000000000, 0.0000000000000000000, 0.0000000000000000000, 0.0000000000000000000, 0.0000000000000000000, 0.0000000000000000000 ) ;
#152 = DIRECTION ( 'NONE',  ( -1.224646799147353207E-16, -0.0000000000000000000, -1.000000000000000000 ) ) ;
#153 = CONICAL_SURFACE ( 'NONE', #94, 0.06374000000000018540, 0.7853981633974528309 ) ;
#154 =( NAMED_UNIT ( * ) SI_UNIT ( $, .STERADIAN. ) SOLID_ANGLE_UNIT ( ) );
#155 = EDGE_LOOP ( 'NONE', ( #39, #121, #202, #188 ) ) ;
#156 = DIRECTION ( 'NONE',  ( -1.000000000000000000, 0.0000000000000000000, 1.224646799147352961E-16 ) ) ;
#157 = PRODUCT_DEFINITION ( 'UNKNOWN', '', #204, #71 ) ;
#158 = DIRECTION ( 'NONE',  ( -1.224646799147353207E-16, -0.0000000000000000000, -1.000000000000000000 ) ) ;
#159 =( NAMED_UNIT ( * ) PLANE_ANGLE_UNIT ( ) SI_UNIT ( $, .RADIAN. ) );
#160 = LINE ( 'NONE', #297, #271 ) ;
#161 = AXIS2_PLACEMENT_3D ( 'NONE', #248, #93, #117 ) ;
#162 = CARTESIAN_POINT ( 'NONE',  ( -0.02949797249999997623, 6.627664328416212832E-18, 0.1653539999999999732 ) ) ;
#163 = DIRECTION ( 'NONE',  ( 1.000000000000000000, 0.0000000000000000000, 0.0000000000000000000 ) ) ;
#164 = PRODUCT_CONTEXT ( 'NONE', #166, 'mechanical' ) ;
#165 = DIRECTION ( 'NONE',  ( -1.000000000000000000, 0.0000000000000000000, 0.0000000000000000000 ) ) ;
#166 = APPLICATION_CONTEXT ( 'automotive_design' ) ;
#167 = AXIS2_PLACEMENT_3D ( 'NONE', #84, #214, #33 ) ;
#168 = COLOUR_RGB ( '',0.7921568627450980005, 0.8196078431372548767, 0.9333333333333333481 ) ;
#169 = DIRECTION ( 'NONE',  ( 1.224646799147353207E-16, 0.0000000000000000000, 1.000000000000000000 ) ) ;
#170 =( CONVERSION_BASED_UNIT ( 'INCH', #7 ) LENGTH_UNIT ( ) NAMED_UNIT ( #97 ) );
#171 = EDGE_CURVE ( 'NONE', #245, #75, #35, .T. ) ;
#172 = AXIS2_PLACEMENT_3D ( 'NONE', #88, #292, #266 ) ;
#173 = DIRECTION ( 'NONE',  ( -1.000000000000000000, 0.0000000000000000000, 0.0000000000000000000 ) ) ;
#174 = CARTESIAN_POINT ( 'NONE',  ( 4.423987282556545948E-34, 0.0000000000000000000, 3.612459760346164844E-18 ) ) ;
#175 = FACE_OUTER_BOUND ( 'NONE', #226, .T. ) ;
#176 = MECHANICAL_DESIGN_GEOMETRIC_PRESENTATION_REPRESENTATION (  '', ( #101 ), #42 ) ;
#177 = ORIENTED_EDGE ( 'NONE', *, *, #63, .T. ) ;
#178 =( NAMED_UNIT ( * ) PLANE_ANGLE_UNIT ( ) SI_UNIT ( $, .RADIAN. ) );
#179 = ORIENTED_EDGE ( 'NONE', *, *, #34, .T. ) ;
#180 = DIRECTION ( 'NONE',  ( 1.000000000000000000, 0.0000000000000000000, 0.0000000000000000000 ) ) ;
#181 = APPLICATION_CONTEXT ( 'automotive_design' ) ;
#182 = VERTEX_POINT ( 'NONE', #217 ) ;
#183 = DIRECTION ( 'NONE',  ( -0.7071067811865507924, 0.0000000000000000000, -0.7071067811865443531 ) ) ;
#184 = UNCERTAINTY_MEASURE_WITH_UNIT (LENGTH_MEASURE( 1.000000000000000082E-05 ), #112, 'distance_accuracy_value', 'NONE');
#185 = ORIENTED_EDGE ( 'NONE', *, *, #11, .F. ) ;
#186 = DIRECTION ( 'NONE',  ( 1.000000000000000000, 0.0000000000000000000, 0.0000000000000000000 ) ) ;
#187 = ORIENTED_EDGE ( 'NONE', *, *, #239, .F. ) ;
#188 = ORIENTED_EDGE ( 'NONE', *, *, #2, .F. ) ;
#189 = CIRCLE ( 'NONE', #203, 0.07874000000000001831 ) ;
#190 = CARTESIAN_POINT ( 'NONE',  ( 0.0000000000000000000, 0.0000000000000000000, 1.968503999999999809 ) ) ;
#191 = FILL_AREA_STYLE ('',( #104 ) ) ;
#192 = AXIS2_PLACEMENT_3D ( 'NONE', #16, #220, #180 ) ;
#193 =( LENGTH_UNIT ( ) NAMED_UNIT ( * ) SI_UNIT ( $, .METRE. ) );
#194 = FACE_OUTER_BOUND ( 'NONE', #92, .T. ) ;
#195 = LINE ( 'NONE', #221, #298 ) ;
#196 = ORIENTED_EDGE ( 'NONE', *, *, #96, .T. ) ;
#197 =( LENGTH_UNIT ( ) NAMED_UNIT ( * ) SI_UNIT ( $, .METRE. ) );
#198 = CIRCLE ( 'NONE', #67, 0.02949797250000000398 ) ;
#199 = ADVANCED_FACE ( 'NONE', ( #9 ), #32, .T. ) ;
#200 = DIRECTION ( 'NONE',  ( -1.224646799147353207E-16, -0.0000000000000000000, -1.000000000000000000 ) ) ;
#201 = LINE ( 'NONE', #108, #111 ) ;
#202 = ORIENTED_EDGE ( 'NONE', *, *, #62, .F. ) ;
#203 = AXIS2_PLACEMENT_3D ( 'NONE', #126, #152, #81 ) ;
#204 = PRODUCT_DEFINITION_FORMATION_WITH_SPECIFIED_SOURCE ( 'ANY', '', #254, .NOT_KNOWN. ) ;
#205 =( LENGTH_UNIT ( ) NAMED_UNIT ( * ) SI_UNIT ( $, .METRE. ) );
#206 = ORIENTED_EDGE ( 'NONE', *, *, #63, .F. ) ;
#207 = FACE_OUTER_BOUND ( 'NONE', #3, .T. ) ;
#208 = ORIENTED_EDGE ( 'NONE', *, *, #2, .T. ) ;
#209 = CIRCLE ( 'NONE', #53, 0.07874000000000001831 ) ;
#210 = EDGE_CURVE ( 'NONE', #272, #75, #198, .T. ) ;
#211 = EDGE_LOOP ( 'NONE', ( #230, #179, #229, #109 ) ) ;
#212 = ADVANCED_FACE ( 'NONE', ( #18 ), #243, .F. ) ;
#213 = CARTESIAN_POINT ( 'NONE',  ( 0.0000000000000000000, 0.0000000000000000000, 1.968503999999999809 ) ) ;
#214 = DIRECTION ( 'NONE',  ( -1.224646799147353207E-16, -0.0000000000000000000, -1.000000000000000000 ) ) ;
#215 = SURFACE_STYLE_FILL_AREA ( #191 ) ;
#216 = CIRCLE ( 'NONE', #20, 0.07874000000000001831 ) ;
#217 = CARTESIAN_POINT ( 'NONE',  ( -0.07873999999999996280, 0.0000000000000000000, 0.4446194153218638867 ) ) ;
#218 = CARTESIAN_POINT ( 'NONE',  ( 2.025002468262114287E-17, 0.0000000000000000000, 0.1653539999999999732 ) ) ;
#219 = CARTESIAN_POINT ( 'NONE',  ( 0.0000000000000000000, 0.0000000000000000000, 1.968503999999999809 ) ) ;
#220 = DIRECTION ( 'NONE',  ( 0.0000000000000000000, 0.0000000000000000000, 1.000000000000000000 ) ) ;
#221 = CARTESIAN_POINT ( 'NONE',  ( -0.02949797249999997623, 3.612459760346164844E-18, 0.1653539999999999732 ) ) ;
#222 = ORIENTED_EDGE ( 'NONE', *, *, #171, .T. ) ;
#223 = EDGE_CURVE ( 'NONE', #46, #272, #201, .T. ) ;
#224 = DIRECTION ( 'NONE',  ( 1.000000000000000000, 0.0000000000000000000, 0.0000000000000000000 ) ) ;
#225 = SURFACE_STYLE_USAGE ( .BOTH. , #135 ) ;
#226 = EDGE_LOOP ( 'NONE', ( #115, #26 ) ) ;
#227 = ORIENTED_EDGE ( 'NONE', *, *, #78, .F. ) ;
#228 = VECTOR ( 'NONE', #95, 39.37007874015748143 ) ;
#229 = ORIENTED_EDGE ( 'NONE', *, *, #8, .T. ) ;
#230 = ORIENTED_EDGE ( 'NONE', *, *, #285, .F. ) ;
#231 = CARTESIAN_POINT ( 'NONE',  ( 0.0000000000000000000, 0.0000000000000000000, 1.953504000000000129 ) ) ;
#232 = EDGE_CURVE ( 'NONE', #182, #86, #209, .T. ) ;
#233 = ORIENTED_EDGE ( 'NONE', *, *, #34, .F. ) ;
#234 = CYLINDRICAL_SURFACE ( 'NONE', #167, 0.02949797250000000398 ) ;
#235 = CARTESIAN_POINT ( 'NONE',  ( 0.07874000000000007382, 9.642868896486266213E-18, 0.4446194153218638867 ) ) ;
#236 = AXIS2_PLACEMENT_3D ( 'NONE', #246, #44, #37 ) ;
#237 = CYLINDRICAL_SURFACE ( 'NONE', #249, 0.02949797250000000398 ) ;
#238 = CARTESIAN_POINT ( 'NONE',  ( 0.0000000000000000000, 0.0000000000000000000, 0.0000000000000000000 ) ) ;
#239 = EDGE_CURVE ( 'NONE', #46, #182, #195, .T. ) ;
#240 = SURFACE_STYLE_FILL_AREA ( #291 ) ;
#241 = CONICAL_SURFACE ( 'NONE', #250, 0.06374000000000018540, 0.7853981633974528309 ) ;
#242 = EDGE_CURVE ( 'NONE', #137, #49, #82, .T. ) ;
#243 = PLANE ( 'NONE',  #236 ) ;
#244 = ORIENTED_EDGE ( 'NONE', *, *, #62, .T. ) ;
#245 = VERTEX_POINT ( 'NONE', #286 ) ;
#246 = CARTESIAN_POINT ( 'NONE',  ( 0.0000000000000000000, 0.0000000000000000000, 0.0000000000000000000 ) ) ;
#247 = ORIENTED_EDGE ( 'NONE', *, *, #40, .T. ) ;
#248 = CARTESIAN_POINT ( 'NONE',  ( 2.025002468262114287E-17, 0.0000000000000000000, 0.1653539999999999732 ) ) ;
#249 = AXIS2_PLACEMENT_3D ( 'NONE', #238, #107, #80 ) ;
#250 = AXIS2_PLACEMENT_3D ( 'NONE', #280, #284, #283 ) ;
#251 = CARTESIAN_POINT ( 'NONE',  ( 0.0000000000000000000, 0.0000000000000000000, 0.0000000000000000000 ) ) ;
#252 = CARTESIAN_POINT ( 'NONE',  ( -0.06374000000000018540, 0.0000000000000000000, 1.968503999999999809 ) ) ;
#253 = ORIENTED_EDGE ( 'NONE', *, *, #223, .T. ) ;
#254 = PRODUCT ( 'Micro_AMRM-015-2X', 'Micro_AMRM-015-2X', '', ( #164 ) ) ;
#255 = CARTESIAN_POINT ( 'NONE',  ( -0.07874000000000001831, 0.0000000000000000000, 1.953504000000000129 ) ) ;
#256 = DIRECTION ( 'NONE',  ( 0.7071067811865507924, 8.659560562354973534E-17, -0.7071067811865443531 ) ) ;
#257 = CONICAL_SURFACE ( 'NONE', #278, 0.02949797249999999704, 0.1745329251994338360 ) ;
#258 = ADVANCED_FACE ( 'NONE', ( #175 ), #38, .T. ) ;
#259 =( NAMED_UNIT ( * ) SI_UNIT ( $, .STERADIAN. ) SOLID_ANGLE_UNIT ( ) );
#260 = CARTESIAN_POINT ( 'NONE',  ( 4.423987282556545948E-34, 0.0000000000000000000, 3.612459760346164844E-18 ) ) ;
#261 = AXIS2_PLACEMENT_3D ( 'NONE', #48, #98, #165 ) ;
#262 = LENGTH_MEASURE_WITH_UNIT ( LENGTH_MEASURE( 0.02539999999999999897 ), #197 );
#263 = CIRCLE ( 'NONE', #261, 0.02949797249999999704 ) ;
#264 = ORIENTED_EDGE ( 'NONE', *, *, #232, .F. ) ;
#265 = CARTESIAN_POINT ( 'NONE',  ( 5.445017438126882659E-17, 0.0000000000000000000, 0.4446194153218638867 ) ) ;
#266 = DIRECTION ( 'NONE',  ( 1.000000000000000000, 0.0000000000000000000, 0.0000000000000000000 ) ) ;
#267 = CARTESIAN_POINT ( 'NONE',  ( 0.07874000000000001831, 9.642868896486260050E-18, 1.968503999999999809 ) ) ;
#268 =( GEOMETRIC_REPRESENTATION_CONTEXT ( 3 ) GLOBAL_UNCERTAINTY_ASSIGNED_CONTEXT ( ( #66 ) ) GLOBAL_UNIT_ASSIGNED_CONTEXT ( ( #120, #159, #295 ) ) REPRESENTATION_CONTEXT ( 'NONE', 'WORKASPACE' ) );
#269 = ORIENTED_EDGE ( 'NONE', *, *, #223, .F. ) ;
#270 = DIRECTION ( 'NONE',  ( 1.000000000000000000, 0.0000000000000000000, 0.0000000000000000000 ) ) ;
#271 = VECTOR ( 'NONE', #183, 39.37007874015748143 ) ;
#272 = VERTEX_POINT ( 'NONE', #91 ) ;
#273 = DIRECTION ( 'NONE',  ( 0.0000000000000000000, 0.0000000000000000000, -1.000000000000000000 ) ) ;
#274 = EDGE_CURVE ( 'NONE', #49, #137, #106, .T. ) ;
#275 = EDGE_LOOP ( 'NONE', ( #45, #134 ) ) ;
#276 = DIRECTION ( 'NONE',  ( 0.0000000000000000000, 0.0000000000000000000, -1.000000000000000000 ) ) ;
#277 = CARTESIAN_POINT ( 'NONE',  ( 2.025002468262114287E-17, 0.0000000000000000000, 0.1653539999999999732 ) ) ;
#278 = AXIS2_PLACEMENT_3D ( 'NONE', #277, #169, #142 ) ;
#279 = VECTOR ( 'NONE', #50, 39.37007874015748143 ) ;
#280 = CARTESIAN_POINT ( 'NONE',  ( 0.0000000000000000000, 0.0000000000000000000, 1.968503999999999809 ) ) ;
#281 = DIRECTION ( 'NONE',  ( -1.000000000000000000, 0.0000000000000000000, 0.0000000000000000000 ) ) ;
#282 = EDGE_CURVE ( 'NONE', #75, #272, #76, .T. ) ;
#283 = DIRECTION ( 'NONE',  ( -1.000000000000000000, 0.0000000000000000000, 0.0000000000000000000 ) ) ;
#284 = DIRECTION ( 'NONE',  ( 0.0000000000000000000, 0.0000000000000000000, -1.000000000000000000 ) ) ;
#285 = EDGE_CURVE ( 'NONE', #22, #86, #14, .T. ) ;
#286 = CARTESIAN_POINT ( 'NONE',  ( 0.02949797250000002133, 0.0000000000000000000, 0.1653539999999999732 ) ) ;
#287 = EDGE_LOOP ( 'NONE', ( #187, #185, #177, #196 ) ) ;
#288 = PRODUCT_RELATED_PRODUCT_CATEGORY ( 'part', '', ( #254 ) ) ;
#289 = AXIS2_PLACEMENT_3D ( 'NONE', #260, #200, #156 ) ;
#290 = ORIENTED_EDGE ( 'NONE', *, *, #274, .F. ) ;
#291 = FILL_AREA_STYLE ('',( #130 ) ) ;
#292 = DIRECTION ( 'NONE',  ( 0.0000000000000000000, 0.0000000000000000000, 1.000000000000000000 ) ) ;
#293 = ORIENTED_EDGE ( 'NONE', *, *, #40, .F. ) ;
#294 = EDGE_LOOP ( 'NONE', ( #244, #73, #264, #27 ) ) ;
#295 =( NAMED_UNIT ( * ) SI_UNIT ( $, .STERADIAN. ) SOLID_ANGLE_UNIT ( ) );
#296 = DIRECTION ( 'NONE',  ( -1.000000000000000000, 0.0000000000000000000, 0.0000000000000000000 ) ) ;
#297 = CARTESIAN_POINT ( 'NONE',  ( -0.06374000000000018540, 0.0000000000000000000, 1.968503999999999809 ) ) ;
#298 = VECTOR ( 'NONE', #113, 39.37007874015747433 ) ;
#299 = MECHANICAL_DESIGN_GEOMETRIC_PRESENTATION_REPRESENTATION (  '', ( #103 ), #268 ) ;
ENDSEC;
END-ISO-10303-21;
