ISO-10303-21;
HEADER;
FILE_DESCRIPTION (( 'STEP AP214' ),
    '1' );
FILE_NAME ('00527.STEP',
    '2023-06-22T14:10:35',
    ( '' ),
    ( '' ),
    'SwSTEP 2.0',
    'SolidWorks 2023',
    '' );
FILE_SCHEMA (( 'AUTOMOTIVE_DESIGN' ));
ENDSEC;

DATA;
#1 = ORIENTED_EDGE ( 'NONE', *, *, #227, .T. ) ;
#2 =( LENGTH_UNIT ( ) NAMED_UNIT ( * ) SI_UNIT ( $, .METRE. ) );
#3 = ORIENTED_EDGE ( 'NONE', *, *, #89, .F. ) ;
#4 = DIRECTION ( 'NONE',  ( -1.000000000000000000, 0.000000000000000000, 0.000000000000000000 ) ) ;
#5 = VERTEX_POINT ( 'NONE', #96 ) ;
#6 = PRODUCT_DEFINITION_SHAPE ( 'NONE', 'NONE',  #207 ) ;
#7 = PRESENTATION_LAYER_ASSIGNMENT (  '', '', ( #94 ) ) ;
#8 = PRODUCT ( '00527', '00527', '', ( #144 ) ) ;
#9 = CARTESIAN_POINT ( 'NONE',  ( -1.224646799147354440E-16, 6.000000000000000888, 0.000000000000000000 ) ) ;
#10 = CIRCLE ( 'NONE', #129, 0.2500000000000000000 ) ;
#11 = CARTESIAN_POINT ( 'NONE',  ( 0.000000000000000000, 3.125000000000000000, 0.000000000000000000 ) ) ;
#12 = SURFACE_STYLE_USAGE ( .BOTH. , #43 ) ;
#13 =( NAMED_UNIT ( * ) SI_UNIT ( $, .STERADIAN. ) SOLID_ANGLE_UNIT ( ) );
#14 = CLOSED_SHELL ( 'NONE', ( #104, #287, #130, #305 ) ) ;
#15 = PRESENTATION_LAYER_ASSIGNMENT (  '', '', ( #219 ) ) ;
#16 =( NAMED_UNIT ( * ) SI_UNIT ( $, .STERADIAN. ) SOLID_ANGLE_UNIT ( ) );
#17 = UNCERTAINTY_MEASURE_WITH_UNIT (LENGTH_MEASURE( 1.000000000000000082E-05 ), #39, 'distance_accuracy_value', 'NONE');
#18 = DIRECTION ( 'NONE',  ( 1.000000000000000000, 4.259641040512536405E-17, 0.000000000000000000 ) ) ;
#19 = VECTOR ( 'NONE', #62, 39.37007874015748143 ) ;
#20 = UNCERTAINTY_MEASURE_WITH_UNIT (LENGTH_MEASURE( 1.000000000000000082E-05 ), #80, 'distance_accuracy_value', 'NONE');
#21 = ORIENTED_EDGE ( 'NONE', *, *, #166, .F. ) ;
#22 = ORIENTED_EDGE ( 'NONE', *, *, #147, .T. ) ;
#23 = UNCERTAINTY_MEASURE_WITH_UNIT (LENGTH_MEASURE( 1.000000000000000082E-05 ), #162, 'distance_accuracy_value', 'NONE');
#24 = EDGE_CURVE ( 'NONE', #282, #120, #243, .T. ) ;
#25 = SURFACE_SIDE_STYLE ('',( #164 ) ) ;
#26 = CIRCLE ( 'NONE', #197, 0.2500000000000000000 ) ;
#27 = EDGE_LOOP ( 'NONE', ( #125, #1, #209, #21 ) ) ;
#28 = FILL_AREA_STYLE_COLOUR ( '', #213 ) ;
#29 = EDGE_LOOP ( 'NONE', ( #288, #54, #22, #97 ) ) ;
#30 = DIRECTION ( 'NONE',  ( -4.259641040512536405E-17, 1.000000000000000000, -0.000000000000000000 ) ) ;
#31 = DIMENSIONAL_EXPONENTS ( 1.000000000000000000, 0.000000000000000000, 0.000000000000000000, 0.000000000000000000, 0.000000000000000000, 0.000000000000000000, 0.000000000000000000 ) ;
#32 = FACE_OUTER_BOUND ( 'NONE', #50, .T. ) ;
#33 = UNCERTAINTY_MEASURE_WITH_UNIT (LENGTH_MEASURE( 1.000000000000000082E-05 ), #101, 'distance_accuracy_value', 'NONE');
#34 = CIRCLE ( 'NONE', #303, 0.2500000000000000000 ) ;
#35 =( LENGTH_UNIT ( ) NAMED_UNIT ( * ) SI_UNIT ( $, .METRE. ) );
#36 = DIRECTION ( 'NONE',  ( 0.000000000000000000, 0.000000000000000000, -1.000000000000000000 ) ) ;
#37 = DIRECTION ( 'NONE',  ( -0.000000000000000000, -1.000000000000000000, -0.000000000000000000 ) ) ;
#38 = EDGE_CURVE ( 'NONE', #168, #286, #309, .T. ) ;
#39 =( CONVERSION_BASED_UNIT ( 'INCH', #152 ) LENGTH_UNIT ( ) NAMED_UNIT ( #108 ) );
#40 = DIRECTION ( 'NONE',  ( -4.259641040512536405E-17, 1.000000000000000000, -0.000000000000000000 ) ) ;
#41 = COLOUR_RGB ( '',1.000000000000000000, 0.000000000000000000, 0.000000000000000000 ) ;
#42 = PLANE ( 'NONE',  #163 ) ;
#43 = SURFACE_SIDE_STYLE ('',( #223 ) ) ;
#44 = FILL_AREA_STYLE ('',( #299 ) ) ;
#45 = CARTESIAN_POINT ( 'NONE',  ( 3.061616997868383018E-17, 0.000000000000000000, 0.2500000000000000000 ) ) ;
#46 = FACE_OUTER_BOUND ( 'NONE', #29, .T. ) ;
#47 = FILL_AREA_STYLE ('',( #226 ) ) ;
#48 = COLOUR_RGB ( '',0.7921568627450980005, 0.8196078431372548767, 0.9333333333333333481 ) ;
#49 = LENGTH_MEASURE_WITH_UNIT ( LENGTH_MEASURE( 0.02539999999999999897 ), #250 );
#50 = EDGE_LOOP ( 'NONE', ( #190, #51, #77, #71 ) ) ;
#51 = ORIENTED_EDGE ( 'NONE', *, *, #266, .T. ) ;
#52 = PRODUCT_RELATED_PRODUCT_CATEGORY ( 'part', '', ( #8 ) ) ;
#53 = AXIS2_PLACEMENT_3D ( 'NONE', #230, #122, #211 ) ;
#54 = ORIENTED_EDGE ( 'NONE', *, *, #57, .T. ) ;
#55 = CARTESIAN_POINT ( 'NONE',  ( -1.224646799147354440E-16, 6.000000000000000888, 0.000000000000000000 ) ) ;
#56 = CARTESIAN_POINT ( 'NONE',  ( 0.000000000000000000, 3.125000000000000000, 0.000000000000000000 ) ) ;
#57 = EDGE_CURVE ( 'NONE', #74, #212, #182, .T. ) ;
#58 = PRESENTATION_STYLE_ASSIGNMENT (( #176 ) ) ;
#59 = MECHANICAL_DESIGN_GEOMETRIC_PRESENTATION_REPRESENTATION (  '', ( #94 ), #237 ) ;
#60 = CYLINDRICAL_SURFACE ( 'NONE', #173, 0.2500000000000000555 ) ;
#61 = DIRECTION ( 'NONE',  ( -1.000000000000000000, -4.259641040512536405E-17, 0.000000000000000000 ) ) ;
#62 = DIRECTION ( 'NONE',  ( -4.259641040512536405E-17, 1.000000000000000000, -0.000000000000000000 ) ) ;
#63 = DIRECTION ( 'NONE',  ( -0.000000000000000000, -1.000000000000000000, -0.000000000000000000 ) ) ;
#64 =( GEOMETRIC_REPRESENTATION_CONTEXT ( 3 ) GLOBAL_UNCERTAINTY_ASSIGNED_CONTEXT ( ( #33 ) ) GLOBAL_UNIT_ASSIGNED_CONTEXT ( ( #101, #179, #107 ) ) REPRESENTATION_CONTEXT ( 'NONE', 'WORKASPACE' ) );
#65 = DIRECTION ( 'NONE',  ( -0.000000000000000000, -1.000000000000000000, -0.000000000000000000 ) ) ;
#66 = LINE ( 'NONE', #178, #119 ) ;
#67 = FILL_AREA_STYLE_COLOUR ( '', #264 ) ;
#68 = CLOSED_SHELL ( 'NONE', ( #198, #215, #143, #276 ) ) ;
#69 = VECTOR ( 'NONE', #65, 39.37007874015748143 ) ;
#70 = SURFACE_SIDE_STYLE ('',( #186 ) ) ;
#71 = ORIENTED_EDGE ( 'NONE', *, *, #283, .F. ) ;
#72 =( GEOMETRIC_REPRESENTATION_CONTEXT ( 3 ) GLOBAL_UNCERTAINTY_ASSIGNED_CONTEXT ( ( #252 ) ) GLOBAL_UNIT_ASSIGNED_CONTEXT ( ( #116, #307, #172 ) ) REPRESENTATION_CONTEXT ( 'NONE', 'WORKASPACE' ) );
#73 = UNCERTAINTY_MEASURE_WITH_UNIT (LENGTH_MEASURE( 1.000000000000000082E-05 ), #275, 'distance_accuracy_value', 'NONE');
#74 = VERTEX_POINT ( 'NONE', #236 ) ;
#75 = ORIENTED_EDGE ( 'NONE', *, *, #24, .T. ) ;
#76 = UNCERTAINTY_MEASURE_WITH_UNIT (LENGTH_MEASURE( 1.000000000000000082E-05 ), #205, 'distance_accuracy_value', 'NONE');
#77 = ORIENTED_EDGE ( 'NONE', *, *, #38, .F. ) ;
#78 = EDGE_CURVE ( 'NONE', #120, #282, #102, .T. ) ;
#79 = PRODUCT_DEFINITION_CONTEXT ( 'detailed design', #112, 'design' ) ;
#80 =( CONVERSION_BASED_UNIT ( 'INCH', #133 ) LENGTH_UNIT ( ) NAMED_UNIT ( #297 ) );
#81 =( LENGTH_UNIT ( ) NAMED_UNIT ( * ) SI_UNIT ( $, .METRE. ) );
#82 = CARTESIAN_POINT ( 'NONE',  ( 0.2500000000000000555, 6.000000000000000888, 3.061616997868384251E-17 ) ) ;
#83 = LENGTH_MEASURE_WITH_UNIT ( LENGTH_MEASURE( 0.02539999999999999897 ), #35 );
#84 = DIMENSIONAL_EXPONENTS ( 1.000000000000000000, 0.000000000000000000, 0.000000000000000000, 0.000000000000000000, 0.000000000000000000, 0.000000000000000000, 0.000000000000000000 ) ;
#85 = DIRECTION ( 'NONE',  ( -1.000000000000000000, 0.000000000000000000, 0.000000000000000000 ) ) ;
#86 = LENGTH_MEASURE_WITH_UNIT ( LENGTH_MEASURE( 0.02539999999999999897 ), #81 );
#87 = STYLED_ITEM ( 'NONE', ( #244 ), #215 ) ;
#88 = PRESENTATION_STYLE_ASSIGNMENT (( #111 ) ) ;
#89 = EDGE_CURVE ( 'NONE', #231, #5, #10, .T. ) ;
#90 = FILL_AREA_STYLE ('',( #277 ) ) ;
#91 =( LENGTH_UNIT ( ) NAMED_UNIT ( * ) SI_UNIT ( $, .METRE. ) );
#92 = MECHANICAL_DESIGN_GEOMETRIC_PRESENTATION_REPRESENTATION (  '', ( #219 ), #64 ) ;
#93 = MANIFOLD_SOLID_BREP ( 'Revolve - Tool Body (Straight Shanked)', #14 ) ;
#94 = STYLED_ITEM ( 'NONE', ( #58 ), #198 ) ;
#95 = EDGE_LOOP ( 'NONE', ( #235, #188 ) ) ;
#96 = CARTESIAN_POINT ( 'NONE',  ( 3.061616997868383018E-17, 3.125000000000000000, 0.2500000000000000000 ) ) ;
#97 = ORIENTED_EDGE ( 'NONE', *, *, #24, .F. ) ;
#98 =( GEOMETRIC_REPRESENTATION_CONTEXT ( 3 ) GLOBAL_UNCERTAINTY_ASSIGNED_CONTEXT ( ( #23 ) ) GLOBAL_UNIT_ASSIGNED_CONTEXT ( ( #162, #121, #279 ) ) REPRESENTATION_CONTEXT ( 'NONE', 'WORKASPACE' ) );
#99 = COLOUR_RGB ( '',0.7921568627450980005, 0.8196078431372548767, 0.9333333333333333481 ) ;
#100 = FILL_AREA_STYLE ('',( #28 ) ) ;
#101 =( CONVERSION_BASED_UNIT ( 'INCH', #83 ) LENGTH_UNIT ( ) NAMED_UNIT ( #269 ) );
#102 = CIRCLE ( 'NONE', #218, 0.2500000000000001110 ) ;
#103 = STYLED_ITEM ( 'NONE', ( #88 ), #276 ) ;
#104 = ADVANCED_FACE ( 'NONE', ( #139 ), #60, .T. ) ;
#105 = CARTESIAN_POINT ( 'NONE',  ( -0.2500000000000002220, 6.000000000000000888, 0.000000000000000000 ) ) ;
#106 = DIRECTION ( 'NONE',  ( 0.000000000000000000, -0.000000000000000000, 1.000000000000000000 ) ) ;
#107 =( NAMED_UNIT ( * ) SI_UNIT ( $, .STERADIAN. ) SOLID_ANGLE_UNIT ( ) );
#108 = DIMENSIONAL_EXPONENTS ( 1.000000000000000000, 0.000000000000000000, 0.000000000000000000, 0.000000000000000000, 0.000000000000000000, 0.000000000000000000, 0.000000000000000000 ) ;
#109 = CARTESIAN_POINT ( 'NONE',  ( 0.000000000000000000, 0.000000000000000000, 0.000000000000000000 ) ) ;
#110 = EDGE_CURVE ( 'NONE', #212, #74, #34, .T. ) ;
#111 = SURFACE_STYLE_USAGE ( .BOTH. , #273 ) ;
#112 = APPLICATION_CONTEXT ( 'automotive_design' ) ;
#113 = FACE_OUTER_BOUND ( 'NONE', #27, .T. ) ;
#114 = PRESENTATION_LAYER_ASSIGNMENT (  '', '', ( #194 ) ) ;
#115 =( LENGTH_UNIT ( ) NAMED_UNIT ( * ) SI_UNIT ( $, .METRE. ) );
#116 =( CONVERSION_BASED_UNIT ( 'INCH', #260 ) LENGTH_UNIT ( ) NAMED_UNIT ( #241 ) );
#117 = FILL_AREA_STYLE ('',( #67 ) ) ;
#118 = FACE_OUTER_BOUND ( 'NONE', #261, .T. ) ;
#119 = VECTOR ( 'NONE', #158, 39.37007874015748143 ) ;
#120 = VERTEX_POINT ( 'NONE', #247 ) ;
#121 =( NAMED_UNIT ( * ) PLANE_ANGLE_UNIT ( ) SI_UNIT ( $, .RADIAN. ) );
#122 = DIRECTION ( 'NONE',  ( -4.259641040512536405E-17, 1.000000000000000000, -0.000000000000000000 ) ) ;
#123 = ORIENTED_EDGE ( 'NONE', *, *, #78, .F. ) ;
#124 = PRESENTATION_STYLE_ASSIGNMENT (( #203 ) ) ;
#125 = ORIENTED_EDGE ( 'NONE', *, *, #266, .F. ) ;
#126 = DIRECTION ( 'NONE',  ( -4.259641040512536405E-17, 1.000000000000000000, -0.000000000000000000 ) ) ;
#127 = EDGE_LOOP ( 'NONE', ( #3, #232 ) ) ;
#128 = CYLINDRICAL_SURFACE ( 'NONE', #258, 0.2500000000000000000 ) ;
#129 = AXIS2_PLACEMENT_3D ( 'NONE', #254, #239, #36 ) ;
#130 = ADVANCED_FACE ( 'NONE', ( #46 ), #151, .T. ) ;
#131 = ADVANCED_BREP_SHAPE_REPRESENTATION ( '00527', ( #193, #93, #174 ), #98 ) ;
#132 = EDGE_CURVE ( 'NONE', #74, #282, #216, .T. ) ;
#133 = LENGTH_MEASURE_WITH_UNIT ( LENGTH_MEASURE( 0.02539999999999999897 ), #153 );
#134 = STYLED_ITEM ( 'NONE', ( #300 ), #93 ) ;
#135 = FILL_AREA_STYLE ('',( #159 ) ) ;
#136 = CARTESIAN_POINT ( 'NONE',  ( 0.000000000000000000, 3.125000000000000000, -0.2500000000000000000 ) ) ;
#137 = DIRECTION ( 'NONE',  ( 0.000000000000000000, 0.000000000000000000, -1.000000000000000000 ) ) ;
#138 = SURFACE_STYLE_FILL_AREA ( #44 ) ;
#139 = FACE_OUTER_BOUND ( 'NONE', #281, .T. ) ;
#140 = AXIS2_PLACEMENT_3D ( 'NONE', #308, #263, #175 ) ;
#141 = MECHANICAL_DESIGN_GEOMETRIC_PRESENTATION_REPRESENTATION (  '', ( #87 ), #187 ) ;
#142 = AXIS2_PLACEMENT_3D ( 'NONE', #185, #265, #61 ) ;
#143 = ADVANCED_FACE ( 'NONE', ( #113 ), #157, .T. ) ;
#144 = PRODUCT_CONTEXT ( 'NONE', #301, 'mechanical' ) ;
#145 = PLANE ( 'NONE',  #304 ) ;
#146 = MECHANICAL_DESIGN_GEOMETRIC_PRESENTATION_REPRESENTATION (  '', ( #103 ), #217 ) ;
#147 = EDGE_CURVE ( 'NONE', #212, #120, #268, .T. ) ;
#148 = ORIENTED_EDGE ( 'NONE', *, *, #132, .T. ) ;
#149 = DIRECTION ( 'NONE',  ( -1.000000000000000000, 0.000000000000000000, 0.000000000000000000 ) ) ;
#150 = DIRECTION ( 'NONE',  ( -4.259641040512536405E-17, 1.000000000000000000, -0.000000000000000000 ) ) ;
#151 = CYLINDRICAL_SURFACE ( 'NONE', #262, 0.2500000000000000555 ) ;
#152 = LENGTH_MEASURE_WITH_UNIT ( LENGTH_MEASURE( 0.02539999999999999897 ), #115 );
#153 =( LENGTH_UNIT ( ) NAMED_UNIT ( * ) SI_UNIT ( $, .METRE. ) );
#154 = CARTESIAN_POINT ( 'NONE',  ( -0.2500000000000000000, 3.125000000000000000, 0.000000000000000000 ) ) ;
#155 = PRESENTATION_LAYER_ASSIGNMENT (  '', '', ( #134 ) ) ;
#156 = DIMENSIONAL_EXPONENTS ( 1.000000000000000000, 0.000000000000000000, 0.000000000000000000, 0.000000000000000000, 0.000000000000000000, 0.000000000000000000, 0.000000000000000000 ) ;
#157 = CYLINDRICAL_SURFACE ( 'NONE', #289, 0.2500000000000000000 ) ;
#158 = DIRECTION ( 'NONE',  ( -0.000000000000000000, -1.000000000000000000, -0.000000000000000000 ) ) ;
#159 = FILL_AREA_STYLE_COLOUR ( '', #41 ) ;
#160 = PLANE ( 'NONE',  #290 ) ;
#161 = SURFACE_STYLE_FILL_AREA ( #117 ) ;
#162 =( CONVERSION_BASED_UNIT ( 'INCH', #210 ) LENGTH_UNIT ( ) NAMED_UNIT ( #31 ) );
#163 = AXIS2_PLACEMENT_3D ( 'NONE', #11, #204, #106 ) ;
#164 = SURFACE_STYLE_FILL_AREA ( #47 ) ;
#165 = SURFACE_STYLE_USAGE ( .BOTH. , #70 ) ;
#166 = EDGE_CURVE ( 'NONE', #286, #168, #191, .T. ) ;
#167 = APPLICATION_PROTOCOL_DEFINITION ( 'draft international standard', 'automotive_design', 1998, #301 ) ;
#168 = VERTEX_POINT ( 'NONE', #253 ) ;
#169 = MECHANICAL_DESIGN_GEOMETRIC_PRESENTATION_REPRESENTATION (  '', ( #134 ), #245 ) ;
#170 = DIRECTION ( 'NONE',  ( -0.000000000000000000, -1.000000000000000000, -0.000000000000000000 ) ) ;
#171 = ORIENTED_EDGE ( 'NONE', *, *, #110, .T. ) ;
#172 =( NAMED_UNIT ( * ) SI_UNIT ( $, .STERADIAN. ) SOLID_ANGLE_UNIT ( ) );
#173 = AXIS2_PLACEMENT_3D ( 'NONE', #242, #272, #85 ) ;
#174 = AXIS2_PLACEMENT_3D ( 'NONE', #306, #280, #208 ) ;
#175 = DIRECTION ( 'NONE',  ( 0.000000000000000000, 0.000000000000000000, -1.000000000000000000 ) ) ;
#176 = SURFACE_STYLE_USAGE ( .BOTH. , #291 ) ;
#177 = MECHANICAL_DESIGN_GEOMETRIC_PRESENTATION_REPRESENTATION (  '', ( #194 ), #72 ) ;
#178 = CARTESIAN_POINT ( 'NONE',  ( 0.000000000000000000, 0.000000000000000000, -0.2500000000000000000 ) ) ;
#179 =( NAMED_UNIT ( * ) PLANE_ANGLE_UNIT ( ) SI_UNIT ( $, .RADIAN. ) );
#180 = DIRECTION ( 'NONE',  ( -0.000000000000000000, -1.000000000000000000, -0.000000000000000000 ) ) ;
#181 = CARTESIAN_POINT ( 'NONE',  ( 0.000000000000000000, 0.000000000000000000, 0.000000000000000000 ) ) ;
#182 = CIRCLE ( 'NONE', #233, 0.2500000000000000000 ) ;
#183 =( NAMED_UNIT ( * ) SI_UNIT ( $, .STERADIAN. ) SOLID_ANGLE_UNIT ( ) );
#184 = FACE_OUTER_BOUND ( 'NONE', #95, .T. ) ;
#185 = CARTESIAN_POINT ( 'NONE',  ( 2.268067724252340606E-34, 3.125000000000000000, 0.000000000000000000 ) ) ;
#186 = SURFACE_STYLE_FILL_AREA ( #90 ) ;
#187 =( GEOMETRIC_REPRESENTATION_CONTEXT ( 3 ) GLOBAL_UNCERTAINTY_ASSIGNED_CONTEXT ( ( #76 ) ) GLOBAL_UNIT_ASSIGNED_CONTEXT ( ( #205, #267, #240 ) ) REPRESENTATION_CONTEXT ( 'NONE', 'WORKASPACE' ) );
#188 = ORIENTED_EDGE ( 'NONE', *, *, #166, .T. ) ;
#189 = SHAPE_DEFINITION_REPRESENTATION ( #6, #131 ) ;
#190 = ORIENTED_EDGE ( 'NONE', *, *, #89, .T. ) ;
#191 = CIRCLE ( 'NONE', #229, 0.2500000000000000000 ) ;
#192 = EDGE_LOOP ( 'NONE', ( #255, #257 ) ) ;
#193 = MANIFOLD_SOLID_BREP ( 'Revolve - Cutting Edge', #68 ) ;
#194 = STYLED_ITEM ( 'NONE', ( #124 ), #193 ) ;
#195 = SURFACE_STYLE_FILL_AREA ( #100 ) ;
#196 =( NAMED_UNIT ( * ) PLANE_ANGLE_UNIT ( ) SI_UNIT ( $, .RADIAN. ) );
#197 = AXIS2_PLACEMENT_3D ( 'NONE', #294, #180, #270 ) ;
#198 = ADVANCED_FACE ( 'NONE', ( #32 ), #128, .T. ) ;
#199 = FACE_OUTER_BOUND ( 'NONE', #127, .T. ) ;
#200 = DIRECTION ( 'NONE',  ( -1.000000000000000000, 0.000000000000000000, 0.000000000000000000 ) ) ;
#201 = CARTESIAN_POINT ( 'NONE',  ( 0.000000000000000000, 0.000000000000000000, 0.000000000000000000 ) ) ;
#202 = SURFACE_STYLE_USAGE ( .BOTH. , #224 ) ;
#203 = SURFACE_STYLE_USAGE ( .BOTH. , #25 ) ;
#204 = DIRECTION ( 'NONE',  ( 0.000000000000000000, 1.000000000000000000, 0.000000000000000000 ) ) ;
#205 =( CONVERSION_BASED_UNIT ( 'INCH', #49 ) LENGTH_UNIT ( ) NAMED_UNIT ( #156 ) );
#206 = PRODUCT_DEFINITION_FORMATION_WITH_SPECIFIED_SOURCE ( 'ANY', '', #8, .NOT_KNOWN. ) ;
#207 = PRODUCT_DEFINITION ( 'UNKNOWN', '', #206, #79 ) ;
#208 = DIRECTION ( 'NONE',  ( 1.000000000000000000, 0.000000000000000000, 0.000000000000000000 ) ) ;
#209 = ORIENTED_EDGE ( 'NONE', *, *, #283, .T. ) ;
#210 = LENGTH_MEASURE_WITH_UNIT ( LENGTH_MEASURE( 0.02539999999999999897 ), #91 );
#211 = DIRECTION ( 'NONE',  ( -1.000000000000000000, 0.000000000000000000, 0.000000000000000000 ) ) ;
#212 = VERTEX_POINT ( 'NONE', #154 ) ;
#213 = COLOUR_RGB ( '',1.000000000000000000, 0.000000000000000000, 0.000000000000000000 ) ;
#214 = CARTESIAN_POINT ( 'NONE',  ( 0.2499999999999999167, 6.000000000000000888, 3.061616997868383634E-17 ) ) ;
#215 = ADVANCED_FACE ( 'NONE', ( #199 ), #42, .T. ) ;
#216 = LINE ( 'NONE', #214, #251 ) ;
#217 =( GEOMETRIC_REPRESENTATION_CONTEXT ( 3 ) GLOBAL_UNCERTAINTY_ASSIGNED_CONTEXT ( ( #17 ) ) GLOBAL_UNIT_ASSIGNED_CONTEXT ( ( #39, #293, #13 ) ) REPRESENTATION_CONTEXT ( 'NONE', 'WORKASPACE' ) );
#218 = AXIS2_PLACEMENT_3D ( 'NONE', #55, #126, #4 ) ;
#219 = STYLED_ITEM ( 'NONE', ( #292 ), #143 ) ;
#220 = DIRECTION ( 'NONE',  ( -1.000000000000000000, 0.000000000000000000, 0.000000000000000000 ) ) ;
#221 = LINE ( 'NONE', #295, #69 ) ;
#222 = PLANE ( 'NONE',  #142 ) ;
#223 = SURFACE_STYLE_FILL_AREA ( #135 ) ;
#224 = SURFACE_SIDE_STYLE ('',( #161 ) ) ;
#225 =( NAMED_UNIT ( * ) PLANE_ANGLE_UNIT ( ) SI_UNIT ( $, .RADIAN. ) );
#226 = FILL_AREA_STYLE_COLOUR ( '', #99 ) ;
#227 = EDGE_CURVE ( 'NONE', #5, #231, #26, .T. ) ;
#228 = CARTESIAN_POINT ( 'NONE',  ( 0.2500000000000000000, 6.000000000000000888, 0.000000000000000000 ) ) ;
#229 = AXIS2_PLACEMENT_3D ( 'NONE', #109, #170, #249 ) ;
#230 = CARTESIAN_POINT ( 'NONE',  ( -1.224646799147354440E-16, 6.000000000000000888, 0.000000000000000000 ) ) ;
#231 = VERTEX_POINT ( 'NONE', #136 ) ;
#232 = ORIENTED_EDGE ( 'NONE', *, *, #227, .F. ) ;
#233 = AXIS2_PLACEMENT_3D ( 'NONE', #56, #30, #149 ) ;
#234 = COLOUR_RGB ( '',1.000000000000000000, 0.000000000000000000, 0.000000000000000000 ) ;
#235 = ORIENTED_EDGE ( 'NONE', *, *, #38, .T. ) ;
#236 = CARTESIAN_POINT ( 'NONE',  ( 0.2500000000000000555, 3.125000000000000000, 3.061616997868384251E-17 ) ) ;
#237 =( GEOMETRIC_REPRESENTATION_CONTEXT ( 3 ) GLOBAL_UNCERTAINTY_ASSIGNED_CONTEXT ( ( #73 ) ) GLOBAL_UNIT_ASSIGNED_CONTEXT ( ( #275, #225, #16 ) ) REPRESENTATION_CONTEXT ( 'NONE', 'WORKASPACE' ) );
#238 = DIRECTION ( 'NONE',  ( -4.259641040512536405E-17, 1.000000000000000000, -0.000000000000000000 ) ) ;
#239 = DIRECTION ( 'NONE',  ( -0.000000000000000000, -1.000000000000000000, -0.000000000000000000 ) ) ;
#240 =( NAMED_UNIT ( * ) SI_UNIT ( $, .STERADIAN. ) SOLID_ANGLE_UNIT ( ) );
#241 = DIMENSIONAL_EXPONENTS ( 1.000000000000000000, 0.000000000000000000, 0.000000000000000000, 0.000000000000000000, 0.000000000000000000, 0.000000000000000000, 0.000000000000000000 ) ;
#242 = CARTESIAN_POINT ( 'NONE',  ( -1.224646799147354440E-16, 6.000000000000000888, 0.000000000000000000 ) ) ;
#243 = CIRCLE ( 'NONE', #53, 0.2500000000000001110 ) ;
#244 = PRESENTATION_STYLE_ASSIGNMENT (( #202 ) ) ;
#245 =( GEOMETRIC_REPRESENTATION_CONTEXT ( 3 ) GLOBAL_UNCERTAINTY_ASSIGNED_CONTEXT ( ( #20 ) ) GLOBAL_UNIT_ASSIGNED_CONTEXT ( ( #80, #196, #183 ) ) REPRESENTATION_CONTEXT ( 'NONE', 'WORKASPACE' ) );
#246 = CARTESIAN_POINT ( 'NONE',  ( 0.000000000000000000, 0.000000000000000000, 0.000000000000000000 ) ) ;
#247 = CARTESIAN_POINT ( 'NONE',  ( -0.2500000000000002776, 6.000000000000000888, 0.000000000000000000 ) ) ;
#248 = DIRECTION ( 'NONE',  ( 0.000000000000000000, 0.000000000000000000, -1.000000000000000000 ) ) ;
#249 = DIRECTION ( 'NONE',  ( 0.000000000000000000, 0.000000000000000000, -1.000000000000000000 ) ) ;
#250 =( LENGTH_UNIT ( ) NAMED_UNIT ( * ) SI_UNIT ( $, .METRE. ) );
#251 = VECTOR ( 'NONE', #40, 39.37007874015748143 ) ;
#252 = UNCERTAINTY_MEASURE_WITH_UNIT (LENGTH_MEASURE( 1.000000000000000082E-05 ), #116, 'distance_accuracy_value', 'NONE');
#253 = CARTESIAN_POINT ( 'NONE',  ( 0.000000000000000000, 0.000000000000000000, -0.2500000000000000000 ) ) ;
#254 = CARTESIAN_POINT ( 'NONE',  ( 0.000000000000000000, 3.125000000000000000, 0.000000000000000000 ) ) ;
#255 = ORIENTED_EDGE ( 'NONE', *, *, #110, .F. ) ;
#256 = APPLICATION_PROTOCOL_DEFINITION ( 'draft international standard', 'automotive_design', 1998, #112 ) ;
#257 = ORIENTED_EDGE ( 'NONE', *, *, #57, .F. ) ;
#258 = AXIS2_PLACEMENT_3D ( 'NONE', #181, #63, #248 ) ;
#259 = ORIENTED_EDGE ( 'NONE', *, *, #147, .F. ) ;
#260 = LENGTH_MEASURE_WITH_UNIT ( LENGTH_MEASURE( 0.02539999999999999897 ), #2 );
#261 = EDGE_LOOP ( 'NONE', ( #285, #75 ) ) ;
#262 = AXIS2_PLACEMENT_3D ( 'NONE', #9, #150, #220 ) ;
#263 = DIRECTION ( 'NONE',  ( -0.000000000000000000, -1.000000000000000000, -0.000000000000000000 ) ) ;
#264 = COLOUR_RGB ( '',1.000000000000000000, 0.000000000000000000, 0.000000000000000000 ) ;
#265 = DIRECTION ( 'NONE',  ( -4.259641040512536405E-17, 1.000000000000000000, 0.000000000000000000 ) ) ;
#266 = EDGE_CURVE ( 'NONE', #5, #286, #221, .T. ) ;
#267 =( NAMED_UNIT ( * ) PLANE_ANGLE_UNIT ( ) SI_UNIT ( $, .RADIAN. ) );
#268 = LINE ( 'NONE', #105, #19 ) ;
#269 = DIMENSIONAL_EXPONENTS ( 1.000000000000000000, 0.000000000000000000, 0.000000000000000000, 0.000000000000000000, 0.000000000000000000, 0.000000000000000000, 0.000000000000000000 ) ;
#270 = DIRECTION ( 'NONE',  ( 0.000000000000000000, 0.000000000000000000, -1.000000000000000000 ) ) ;
#271 = DIRECTION ( 'NONE',  ( 0.000000000000000000, 0.000000000000000000, -1.000000000000000000 ) ) ;
#272 = DIRECTION ( 'NONE',  ( -4.259641040512536405E-17, 1.000000000000000000, -0.000000000000000000 ) ) ;
#273 = SURFACE_SIDE_STYLE ('',( #138 ) ) ;
#274 = FACE_OUTER_BOUND ( 'NONE', #192, .T. ) ;
#275 =( CONVERSION_BASED_UNIT ( 'INCH', #86 ) LENGTH_UNIT ( ) NAMED_UNIT ( #84 ) );
#276 = ADVANCED_FACE ( 'NONE', ( #184 ), #160, .T. ) ;
#277 = FILL_AREA_STYLE_COLOUR ( '', #48 ) ;
#278 = PRESENTATION_LAYER_ASSIGNMENT (  '', '', ( #103 ) ) ;
#279 =( NAMED_UNIT ( * ) SI_UNIT ( $, .STERADIAN. ) SOLID_ANGLE_UNIT ( ) );
#280 = DIRECTION ( 'NONE',  ( 0.000000000000000000, 0.000000000000000000, 1.000000000000000000 ) ) ;
#281 = EDGE_LOOP ( 'NONE', ( #171, #148, #123, #259 ) ) ;
#282 = VERTEX_POINT ( 'NONE', #82 ) ;
#283 = EDGE_CURVE ( 'NONE', #231, #168, #66, .T. ) ;
#284 = PRESENTATION_LAYER_ASSIGNMENT (  '', '', ( #87 ) ) ;
#285 = ORIENTED_EDGE ( 'NONE', *, *, #78, .T. ) ;
#286 = VERTEX_POINT ( 'NONE', #45 ) ;
#287 = ADVANCED_FACE ( 'NONE', ( #274 ), #222, .F. ) ;
#288 = ORIENTED_EDGE ( 'NONE', *, *, #132, .F. ) ;
#289 = AXIS2_PLACEMENT_3D ( 'NONE', #246, #37, #137 ) ;
#290 = AXIS2_PLACEMENT_3D ( 'NONE', #201, #296, #271 ) ;
#291 = SURFACE_SIDE_STYLE ('',( #195 ) ) ;
#292 = PRESENTATION_STYLE_ASSIGNMENT (( #12 ) ) ;
#293 =( NAMED_UNIT ( * ) PLANE_ANGLE_UNIT ( ) SI_UNIT ( $, .RADIAN. ) );
#294 = CARTESIAN_POINT ( 'NONE',  ( 0.000000000000000000, 3.125000000000000000, 0.000000000000000000 ) ) ;
#295 = CARTESIAN_POINT ( 'NONE',  ( 3.061616997868383018E-17, 0.000000000000000000, 0.2500000000000000000 ) ) ;
#296 = DIRECTION ( 'NONE',  ( 0.000000000000000000, -1.000000000000000000, -0.000000000000000000 ) ) ;
#297 = DIMENSIONAL_EXPONENTS ( 1.000000000000000000, 0.000000000000000000, 0.000000000000000000, 0.000000000000000000, 0.000000000000000000, 0.000000000000000000, 0.000000000000000000 ) ;
#298 = CARTESIAN_POINT ( 'NONE',  ( 0.000000000000000000, 3.125000000000000000, 0.000000000000000000 ) ) ;
#299 = FILL_AREA_STYLE_COLOUR ( '', #234 ) ;
#300 = PRESENTATION_STYLE_ASSIGNMENT (( #165 ) ) ;
#301 = APPLICATION_CONTEXT ( 'automotive_design' ) ;
#302 = DIRECTION ( 'NONE',  ( 4.259641040512536405E-17, -1.000000000000000000, 0.000000000000000000 ) ) ;
#303 = AXIS2_PLACEMENT_3D ( 'NONE', #298, #238, #200 ) ;
#304 = AXIS2_PLACEMENT_3D ( 'NONE', #228, #302, #18 ) ;
#305 = ADVANCED_FACE ( 'NONE', ( #118 ), #145, .F. ) ;
#306 = CARTESIAN_POINT ( 'NONE',  ( 0.000000000000000000, 0.000000000000000000, 0.000000000000000000 ) ) ;
#307 =( NAMED_UNIT ( * ) PLANE_ANGLE_UNIT ( ) SI_UNIT ( $, .RADIAN. ) );
#308 = CARTESIAN_POINT ( 'NONE',  ( 0.000000000000000000, 0.000000000000000000, 0.000000000000000000 ) ) ;
#309 = CIRCLE ( 'NONE', #140, 0.2500000000000000000 ) ;
ENDSEC;
END-ISO-10303-21;
