ISO-10303-21;
HEADER;
FILE_DESCRIPTION (( 'STEP AP214' ),
    '1' );
FILE_NAME ('Micro_GEC-031-4-005X.STEP',
    '2021-09-03T17:02:05',
    ( '' ),
    ( '' ),
    'SwSTEP 2.0',
    'SolidWorks 2020',
    '' );
FILE_SCHEMA (( 'AUTOMOTIVE_DESIGN' ));
ENDSEC;

DATA;
#1 = LINE ( 'NONE', #8, #270 ) ;
#2 = DIRECTION ( 'NONE',  ( 0.0000000000000000000, 0.0000000000000000000, 1.000000000000000000 ) ) ;
#3 = ADVANCED_FACE ( 'NONE', ( #331 ), #219, .F. ) ;
#4 = DIRECTION ( 'NONE',  ( 1.000000000000000000, 0.0000000000000000000, 0.0000000000000000000 ) ) ;
#5 = PLANE ( 'NONE',  #183 ) ;
#6 = CARTESIAN_POINT ( 'NONE',  ( -0.04750000000000064587, 0.0000000000000000000, 1.500000000000000222 ) ) ;
#7 = EDGE_CURVE ( 'NONE', #37, #41, #280, .T. ) ;
#8 = CARTESIAN_POINT ( 'NONE',  ( 0.06250000000000002776, 7.654042494670959086E-18, 1.500000000000000222 ) ) ;
#9 = VERTEX_POINT ( 'NONE', #194 ) ;
#10 = DIRECTION ( 'NONE',  ( 1.000000000000000000, 0.0000000000000000000, 0.0000000000000000000 ) ) ;
#11 = ORIENTED_EDGE ( 'NONE', *, *, #289, .T. ) ;
#12 = AXIS2_PLACEMENT_3D ( 'NONE', #30, #137, #265 ) ;
#13 = ADVANCED_FACE ( 'NONE', ( #298 ), #314, .T. ) ;
#14 = AXIS2_PLACEMENT_3D ( 'NONE', #160, #133, #136 ) ;
#15 = ADVANCED_FACE ( 'NONE', ( #70 ), #94, .T. ) ;
#16 = VERTEX_POINT ( 'NONE', #247 ) ;
#17 =( NAMED_UNIT ( * ) PLANE_ANGLE_UNIT ( ) SI_UNIT ( $, .RADIAN. ) );
#18 = EDGE_LOOP ( 'NONE', ( #344, #310, #157, #299 ) ) ;
#19 = EDGE_CURVE ( 'NONE', #37, #347, #211, .T. ) ;
#20 = MECHANICAL_DESIGN_GEOMETRIC_PRESENTATION_REPRESENTATION (  '', ( #34 ), #65 ) ;
#21 = DIRECTION ( 'NONE',  ( -0.0000000000000000000, -0.0000000000000000000, -1.000000000000000000 ) ) ;
#22 = DIRECTION ( 'NONE',  ( 1.000000000000000000, 0.0000000000000000000, 0.0000000000000000000 ) ) ;
#23 = CARTESIAN_POINT ( 'NONE',  ( 0.0000000000000000000, 0.0000000000000000000, 0.0000000000000000000 ) ) ;
#24 = EDGE_LOOP ( 'NONE', ( #252, #123, #223, #334 ) ) ;
#25 = DIRECTION ( 'NONE',  ( -1.224646799147353700E-16, -0.0000000000000000000, -1.000000000000000000 ) ) ;
#26 = AXIS2_PLACEMENT_3D ( 'NONE', #291, #29, #4 ) ;
#27 = EDGE_CURVE ( 'NONE', #347, #37, #332, .T. ) ;
#28 = CARTESIAN_POINT ( 'NONE',  ( -0.01058440000000000943, 1.296215158089525459E-18, 0.005000000000000000104 ) ) ;
#29 = DIRECTION ( 'NONE',  ( 0.0000000000000000000, 0.0000000000000000000, 1.000000000000000000 ) ) ;
#30 = CARTESIAN_POINT ( 'NONE',  ( 4.213661705584322371E-17, 0.0000000000000000000, 0.3440715893364548750 ) ) ;
#31 = AXIS2_PLACEMENT_3D ( 'NONE', #345, #161, #108 ) ;
#32 = CIRCLE ( 'NONE', #182, 0.005000000000000000104 ) ;
#33 = DIRECTION ( 'NONE',  ( 1.000000000000000000, 0.0000000000000000000, 0.0000000000000000000 ) ) ;
#34 = STYLED_ITEM ( 'NONE', ( #212 ), #317 ) ;
#35 = DIRECTION ( 'NONE',  ( 0.0000000000000000000, 0.0000000000000000000, 1.000000000000000000 ) ) ;
#36 = EDGE_CURVE ( 'NONE', #50, #81, #32, .T. ) ;
#37 = VERTEX_POINT ( 'NONE', #257 ) ;
#38 = VERTEX_POINT ( 'NONE', #235 ) ;
#39 = LENGTH_MEASURE_WITH_UNIT ( LENGTH_MEASURE( 0.02539999999999999897 ), #150 );
#40 = EDGE_LOOP ( 'NONE', ( #76, #146, #220, #200 ) ) ;
#41 = VERTEX_POINT ( 'NONE', #158 ) ;
#42 = DIRECTION ( 'NONE',  ( 0.0000000000000000000, 0.0000000000000000000, 1.000000000000000000 ) ) ;
#43 = EDGE_CURVE ( 'NONE', #38, #44, #185, .T. ) ;
#44 = VERTEX_POINT ( 'NONE', #343 ) ;
#45 = ORIENTED_EDGE ( 'NONE', *, *, #19, .T. ) ;
#46 = AXIS2_PLACEMENT_3D ( 'NONE', #139, #140, #33 ) ;
#47 = APPLICATION_PROTOCOL_DEFINITION ( 'draft international standard', 'automotive_design', 1998, #58 ) ;
#48 = CIRCLE ( 'NONE', #342, 0.06250000000000002776 ) ;
#49 = DIRECTION ( 'NONE',  ( 1.000000000000000000, 0.0000000000000000000, -0.0000000000000000000 ) ) ;
#50 = VERTEX_POINT ( 'NONE', #318 ) ;
#51 = APPLICATION_PROTOCOL_DEFINITION ( 'draft international standard', 'automotive_design', 1998, #309 ) ;
#52 = FACE_OUTER_BOUND ( 'NONE', #253, .T. ) ;
#53 = AXIS2_PLACEMENT_3D ( 'NONE', #57, #106, #86 ) ;
#54 = DIRECTION ( 'NONE',  ( 0.0000000000000000000, 0.0000000000000000000, -1.000000000000000000 ) ) ;
#55 = PRODUCT_DEFINITION_CONTEXT ( 'detailed design', #309, 'design' ) ;
#56 = EDGE_CURVE ( 'NONE', #202, #38, #271, .T. ) ;
#57 = CARTESIAN_POINT ( 'NONE',  ( 9.552245033349369302E-18, 0.0000000000000000000, 0.07800000000000009703 ) ) ;
#58 = APPLICATION_CONTEXT ( 'automotive_design' ) ;
#59 = CARTESIAN_POINT ( 'NONE',  ( 6.123233995736768848E-19, 0.0000000000000000000, 0.0000000000000000000 ) ) ;
#60 = AXIS2_PLACEMENT_3D ( 'NONE', #145, #35, #10 ) ;
#61 =( NAMED_UNIT ( * ) PLANE_ANGLE_UNIT ( ) SI_UNIT ( $, .RADIAN. ) );
#62 = DIRECTION ( 'NONE',  ( 1.000000000000000000, 0.0000000000000000000, -0.0000000000000000000 ) ) ;
#63 = EDGE_CURVE ( 'NONE', #50, #9, #167, .T. ) ;
#64 = LENGTH_MEASURE_WITH_UNIT ( LENGTH_MEASURE( 0.02539999999999999897 ), #189 );
#65 =( GEOMETRIC_REPRESENTATION_CONTEXT ( 3 ) GLOBAL_UNCERTAINTY_ASSIGNED_CONTEXT ( ( #166 ) ) GLOBAL_UNIT_ASSIGNED_CONTEXT ( ( #168, #61, #325 ) ) REPRESENTATION_CONTEXT ( 'NONE', 'WORKASPACE' ) );
#66 = VECTOR ( 'NONE', #187, 39.37007874015748143 ) ;
#67 = DIRECTION ( 'NONE',  ( -1.224646799147353700E-16, -0.0000000000000000000, -1.000000000000000000 ) ) ;
#68 = DIRECTION ( 'NONE',  ( 1.224646799147353700E-16, 0.0000000000000000000, 1.000000000000000000 ) ) ;
#69 = ADVANCED_FACE ( 'NONE', ( #208 ), #130, .T. ) ;
#70 = FACE_OUTER_BOUND ( 'NONE', #40, .T. ) ;
#71 = ORIENTED_EDGE ( 'NONE', *, *, #313, .T. ) ;
#72 = DIMENSIONAL_EXPONENTS ( 1.000000000000000000, 0.0000000000000000000, 0.0000000000000000000, 0.0000000000000000000, 0.0000000000000000000, 0.0000000000000000000, 0.0000000000000000000 ) ;
#73 = PRESENTATION_LAYER_ASSIGNMENT (  '', '', ( #107 ) ) ;
#74 = ORIENTED_EDGE ( 'NONE', *, *, #141, .F. ) ;
#75 = ADVANCED_FACE ( 'NONE', ( #84 ), #285, .T. ) ;
#76 = ORIENTED_EDGE ( 'NONE', *, *, #82, .F. ) ;
#77 = EDGE_CURVE ( 'NONE', #38, #202, #216, .T. ) ;
#78 =( NAMED_UNIT ( * ) PLANE_ANGLE_UNIT ( ) SI_UNIT ( $, .RADIAN. ) );
#79 = ORIENTED_EDGE ( 'NONE', *, *, #27, .T. ) ;
#80 = ORIENTED_EDGE ( 'NONE', *, *, #82, .T. ) ;
#81 = VERTEX_POINT ( 'NONE', #129 ) ;
#82 = EDGE_CURVE ( 'NONE', #202, #16, #256, .T. ) ;
#83 = DIRECTION ( 'NONE',  ( -1.000000000000000000, 0.0000000000000000000, 0.0000000000000000000 ) ) ;
#84 = FACE_OUTER_BOUND ( 'NONE', #281, .T. ) ;
#85 = EDGE_CURVE ( 'NONE', #41, #44, #233, .T. ) ;
#86 = DIRECTION ( 'NONE',  ( 1.000000000000000000, 0.0000000000000000000, 0.0000000000000000000 ) ) ;
#87 = FACE_OUTER_BOUND ( 'NONE', #229, .T. ) ;
#88 = DIRECTION ( 'NONE',  ( -0.1736481776669314414, 2.126576849575786706E-17, 0.9848077530122077983 ) ) ;
#89 = DIRECTION ( 'NONE',  ( 0.0000000000000000000, 0.0000000000000000000, 1.000000000000000000 ) ) ;
#90 = CARTESIAN_POINT ( 'NONE',  ( -0.01558440000000000866, 0.0000000000000000000, 1.908538557663203017E-18 ) ) ;
#91 = AXIS2_PLACEMENT_3D ( 'NONE', #239, #89, #242 ) ;
#92 = DIRECTION ( 'NONE',  ( 1.000000000000000000, 0.0000000000000000000, 0.0000000000000000000 ) ) ;
#93 =( NAMED_UNIT ( * ) SI_UNIT ( $, .STERADIAN. ) SOLID_ANGLE_UNIT ( ) );
#94 = CYLINDRICAL_SURFACE ( 'NONE', #154, 0.01558440000000000866 ) ;
#95 = ORIENTED_EDGE ( 'NONE', *, *, #36, .T. ) ;
#96 = CARTESIAN_POINT ( 'NONE',  ( 0.0000000000000000000, 0.0000000000000000000, 1.485000000000000764 ) ) ;
#97 = CIRCLE ( 'NONE', #91, 0.01558440000000000866 ) ;
#98 = ORIENTED_EDGE ( 'NONE', *, *, #346, .T. ) ;
#99 = CARTESIAN_POINT ( 'NONE',  ( 0.04750000000000064587, 6.735557395310483192E-18, 1.500000000000000222 ) ) ;
#100 = PRODUCT_RELATED_PRODUCT_CATEGORY ( 'part', '', ( #217 ) ) ;
#101 = EDGE_LOOP ( 'NONE', ( #277, #273, #175, #103 ) ) ;
#102 = SURFACE_SIDE_STYLE ('',( #307 ) ) ;
#103 = ORIENTED_EDGE ( 'NONE', *, *, #260, .T. ) ;
#104 =( NAMED_UNIT ( * ) SI_UNIT ( $, .STERADIAN. ) SOLID_ANGLE_UNIT ( ) );
#105 = DIRECTION ( 'NONE',  ( -0.0000000000000000000, -0.0000000000000000000, -1.000000000000000000 ) ) ;
#106 = DIRECTION ( 'NONE',  ( 1.224646799147353700E-16, 0.0000000000000000000, 1.000000000000000000 ) ) ;
#107 = STYLED_ITEM ( 'NONE', ( #221 ), #205 ) ;
#108 = DIRECTION ( 'NONE',  ( 1.000000000000000000, 0.0000000000000000000, 0.0000000000000000000 ) ) ;
#109 = VECTOR ( 'NONE', #105, 39.37007874015748143 ) ;
#110 = CARTESIAN_POINT ( 'NONE',  ( -0.01558439999999999652, 1.908538557663201862E-18, 0.07800000000000009703 ) ) ;
#111 = CARTESIAN_POINT ( 'NONE',  ( 0.06250000000000002776, 7.654042494670959086E-18, 1.485000000000000764 ) ) ;
#112 = TOROIDAL_SURFACE ( 'NONE', #203, 0.01058440000000000943, 0.005000000000000000104 ) ;
#113 = SURFACE_SIDE_STYLE ('',( #293 ) ) ;
#114 = FACE_OUTER_BOUND ( 'NONE', #24, .T. ) ;
#115 = ADVANCED_FACE ( 'NONE', ( #52 ), #192, .T. ) ;
#116 = SURFACE_STYLE_USAGE ( .BOTH. , #113 ) ;
#117 = AXIS2_PLACEMENT_3D ( 'NONE', #328, #143, #92 ) ;
#118 = CARTESIAN_POINT ( 'NONE',  ( 6.123233995736768848E-19, 0.0000000000000000000, 0.005000000000000000104 ) ) ;
#119 = ORIENTED_EDGE ( 'NONE', *, *, #85, .F. ) ;
#120 = FILL_AREA_STYLE_COLOUR ( '', #312 ) ;
#121 = ORIENTED_EDGE ( 'NONE', *, *, #19, .F. ) ;
#122 = DIRECTION ( 'NONE',  ( -1.000000000000000000, 0.0000000000000000000, 1.224646799147353700E-16 ) ) ;
#123 = ORIENTED_EDGE ( 'NONE', *, *, #199, .F. ) ;
#124 = AXIS2_PLACEMENT_3D ( 'NONE', #23, #349, #209 ) ;
#125 = VERTEX_POINT ( 'NONE', #111 ) ;
#126 = CARTESIAN_POINT ( 'NONE',  ( 0.0000000000000000000, 0.0000000000000000000, 0.0000000000000000000 ) ) ;
#127 = EDGE_LOOP ( 'NONE', ( #340, #152 ) ) ;
#128 = FILL_AREA_STYLE ('',( #120 ) ) ;
#129 = CARTESIAN_POINT ( 'NONE',  ( -0.01558440000000000866, 0.0000000000000000000, 0.005000000000000000104 ) ) ;
#130 = CONICAL_SURFACE ( 'NONE', #53, 0.01558440000000000519, 0.1745329251994342246 ) ;
#131 = EDGE_CURVE ( 'NONE', #9, #16, #294, .T. ) ;
#132 = FACE_OUTER_BOUND ( 'NONE', #308, .T. ) ;
#133 = DIRECTION ( 'NONE',  ( -1.224646799147353700E-16, -0.0000000000000000000, -1.000000000000000000 ) ) ;
#134 = CARTESIAN_POINT ( 'NONE',  ( -0.06250000000000002776, 0.0000000000000000000, 1.500000000000000222 ) ) ;
#135 = AXIS2_PLACEMENT_3D ( 'NONE', #59, #21, #204 ) ;
#136 = DIRECTION ( 'NONE',  ( -1.000000000000000000, 0.0000000000000000000, 0.0000000000000000000 ) ) ;
#137 = DIRECTION ( 'NONE',  ( -1.224646799147353700E-16, -0.0000000000000000000, -1.000000000000000000 ) ) ;
#138 =( GEOMETRIC_REPRESENTATION_CONTEXT ( 3 ) GLOBAL_UNCERTAINTY_ASSIGNED_CONTEXT ( ( #327 ) ) GLOBAL_UNIT_ASSIGNED_CONTEXT ( ( #249, #17, #93 ) ) REPRESENTATION_CONTEXT ( 'NONE', 'WORKASPACE' ) );
#139 = CARTESIAN_POINT ( 'NONE',  ( 6.123233995736768848E-19, 0.0000000000000000000, 0.0000000000000000000 ) ) ;
#140 = DIRECTION ( 'NONE',  ( -0.0000000000000000000, -0.0000000000000000000, -1.000000000000000000 ) ) ;
#141 = EDGE_CURVE ( 'NONE', #41, #125, #48, .T. ) ;
#142 = DIRECTION ( 'NONE',  ( -0.0000000000000000000, -0.0000000000000000000, -1.000000000000000000 ) ) ;
#143 = DIRECTION ( 'NONE',  ( -1.224646799147353700E-16, -0.0000000000000000000, -1.000000000000000000 ) ) ;
#144 = AXIS2_PLACEMENT_3D ( 'NONE', #304, #197, #147 ) ;
#145 = CARTESIAN_POINT ( 'NONE',  ( 6.123233995736768848E-19, 0.0000000000000000000, 0.005000000000000000104 ) ) ;
#146 = ORIENTED_EDGE ( 'NONE', *, *, #56, .T. ) ;
#147 = DIRECTION ( 'NONE',  ( -1.000000000000000000, 0.0000000000000000000, 0.0000000000000000000 ) ) ;
#148 = DIRECTION ( 'NONE',  ( -1.224646799147353700E-16, -0.0000000000000000000, -1.000000000000000000 ) ) ;
#149 = EDGE_LOOP ( 'NONE', ( #201, #98, #302, #196 ) ) ;
#150 =( LENGTH_UNIT ( ) NAMED_UNIT ( * ) SI_UNIT ( $, .METRE. ) );
#151 = ADVANCED_FACE ( 'NONE', ( #323 ), #326, .T. ) ;
#152 = ORIENTED_EDGE ( 'NONE', *, *, #63, .T. ) ;
#153 = DIRECTION ( 'NONE',  ( 1.000000000000000000, 0.0000000000000000000, 0.0000000000000000000 ) ) ;
#154 = AXIS2_PLACEMENT_3D ( 'NONE', #272, #148, #122 ) ;
#155 = PRODUCT_CONTEXT ( 'NONE', #58, 'mechanical' ) ;
#156 = ADVANCED_FACE ( 'NONE', ( #132 ), #234, .T. ) ;
#157 = ORIENTED_EDGE ( 'NONE', *, *, #243, .T. ) ;
#158 = CARTESIAN_POINT ( 'NONE',  ( -0.06250000000000002776, 0.0000000000000000000, 1.485000000000000764 ) ) ;
#159 = DIRECTION ( 'NONE',  ( 0.0000000000000000000, 0.0000000000000000000, -1.000000000000000000 ) ) ;
#160 = CARTESIAN_POINT ( 'NONE',  ( 9.552245033349369302E-18, 0.0000000000000000000, 0.07800000000000009703 ) ) ;
#161 = DIRECTION ( 'NONE',  ( 0.0000000000000000000, 0.0000000000000000000, 1.000000000000000000 ) ) ;
#162 = DIRECTION ( 'NONE',  ( -1.000000000000000000, 0.0000000000000000000, 0.0000000000000000000 ) ) ;
#163 = CARTESIAN_POINT ( 'NONE',  ( 0.06250000000000006939, 7.654042494670963708E-18, 0.3440715893364548750 ) ) ;
#164 = ADVANCED_FACE ( 'NONE', ( #87 ), #5, .T. ) ;
#165 = CARTESIAN_POINT ( 'NONE',  ( 0.04750000000000064587, 5.817072295950006528E-18, 1.500000000000000222 ) ) ;
#166 = UNCERTAINTY_MEASURE_WITH_UNIT (LENGTH_MEASURE( 1.000000000000000082E-05 ), #168, 'distance_accuracy_value', 'NONE');
#167 = CIRCLE ( 'NONE', #135, 0.01058440000000000943 ) ;
#168 =( CONVERSION_BASED_UNIT ( 'INCH', #64 ) LENGTH_UNIT ( ) NAMED_UNIT ( #72 ) );
#169 = LINE ( 'NONE', #90, #240 ) ;
#170 = ORIENTED_EDGE ( 'NONE', *, *, #7, .T. ) ;
#171 = ORIENTED_EDGE ( 'NONE', *, *, #27, .F. ) ;
#172 = VERTEX_POINT ( 'NONE', #163 ) ;
#173 =( LENGTH_UNIT ( ) NAMED_UNIT ( * ) SI_UNIT ( $, .METRE. ) );
#174 = ORIENTED_EDGE ( 'NONE', *, *, #266, .F. ) ;
#175 = ORIENTED_EDGE ( 'NONE', *, *, #262, .T. ) ;
#176 = EDGE_CURVE ( 'NONE', #347, #125, #330, .T. ) ;
#177 = DIMENSIONAL_EXPONENTS ( 1.000000000000000000, 0.0000000000000000000, 0.0000000000000000000, 0.0000000000000000000, 0.0000000000000000000, 0.0000000000000000000, 0.0000000000000000000 ) ;
#178 = CIRCLE ( 'NONE', #26, 0.01558440000000000866 ) ;
#179 = CARTESIAN_POINT ( 'NONE',  ( 0.0000000000000000000, 0.0000000000000000000, 0.0000000000000000000 ) ) ;
#180 = ORIENTED_EDGE ( 'NONE', *, *, #289, .F. ) ;
#181 = FACE_OUTER_BOUND ( 'NONE', #149, .T. ) ;
#182 = AXIS2_PLACEMENT_3D ( 'NONE', #28, #206, #254 ) ;
#183 = AXIS2_PLACEMENT_3D ( 'NONE', #333, #215, #62 ) ;
#184 = DIRECTION ( 'NONE',  ( 0.0000000000000000000, -1.000000000000000000, 0.0000000000000000000 ) ) ;
#185 = LINE ( 'NONE', #110, #319 ) ;
#186 = AXIS2_PLACEMENT_3D ( 'NONE', #316, #351, #83 ) ;
#187 = DIRECTION ( 'NONE',  ( -1.224646799147353700E-16, -0.0000000000000000000, -1.000000000000000000 ) ) ;
#188 = CARTESIAN_POINT ( 'NONE',  ( 0.0000000000000000000, 0.0000000000000000000, 1.500000000000000222 ) ) ;
#189 =( LENGTH_UNIT ( ) NAMED_UNIT ( * ) SI_UNIT ( $, .METRE. ) );
#190 = CIRCLE ( 'NONE', #12, 0.06250000000000002776 ) ;
#191 = FILL_AREA_STYLE_COLOUR ( '', #258 ) ;
#192 = CONICAL_SURFACE ( 'NONE', #186, 0.04750000000000064587, 0.7853981633974466137 ) ;
#193 = AXIS2_PLACEMENT_3D ( 'NONE', #188, #322, #287 ) ;
#194 = CARTESIAN_POINT ( 'NONE',  ( 0.01058440000000000943, 0.0000000000000000000, 0.0000000000000000000 ) ) ;
#195 = PRODUCT_DEFINITION ( 'UNKNOWN', '', #214, #55 ) ;
#196 = ORIENTED_EDGE ( 'NONE', *, *, #260, .F. ) ;
#197 = DIRECTION ( 'NONE',  ( -0.0000000000000000000, -0.0000000000000000000, -1.000000000000000000 ) ) ;
#198 = ORIENTED_EDGE ( 'NONE', *, *, #176, .F. ) ;
#199 = EDGE_CURVE ( 'NONE', #9, #50, #288, .T. ) ;
#200 = ORIENTED_EDGE ( 'NONE', *, *, #232, .T. ) ;
#201 = ORIENTED_EDGE ( 'NONE', *, *, #313, .F. ) ;
#202 = VERTEX_POINT ( 'NONE', #263 ) ;
#203 = AXIS2_PLACEMENT_3D ( 'NONE', #118, #2, #297 ) ;
#204 = DIRECTION ( 'NONE',  ( 1.000000000000000000, 0.0000000000000000000, 0.0000000000000000000 ) ) ;
#205 = ADVANCED_BREP_SHAPE_REPRESENTATION ( 'Micro_GEC-031-4-005X', ( #317, #264 ), #138 ) ;
#206 = DIRECTION ( 'NONE',  ( 1.224646799147353207E-16, 1.000000000000000000, -0.0000000000000000000 ) ) ;
#207 = AXIS2_PLACEMENT_3D ( 'NONE', #179, #250, #49 ) ;
#208 = FACE_OUTER_BOUND ( 'NONE', #101, .T. ) ;
#209 = DIRECTION ( 'NONE',  ( -1.000000000000000000, 0.0000000000000000000, 1.224646799147353700E-16 ) ) ;
#210 = DIRECTION ( 'NONE',  ( 0.0000000000000000000, 0.0000000000000000000, -1.000000000000000000 ) ) ;
#211 = CIRCLE ( 'NONE', #193, 0.04750000000000064587 ) ;
#212 = PRESENTATION_STYLE_ASSIGNMENT (( #116 ) ) ;
#213 = LINE ( 'NONE', #246, #341 ) ;
#214 = PRODUCT_DEFINITION_FORMATION_WITH_SPECIFIED_SOURCE ( 'ANY', '', #217, .NOT_KNOWN. ) ;
#215 = DIRECTION ( 'NONE',  ( 0.0000000000000000000, 0.0000000000000000000, 1.000000000000000000 ) ) ;
#216 = CIRCLE ( 'NONE', #14, 0.01558440000000000519 ) ;
#217 = PRODUCT ( 'Micro_GEC-031-4-005X', 'Micro_GEC-031-4-005X', '', ( #155 ) ) ;
#218 = DIRECTION ( 'NONE',  ( -0.7071067811865462405, 0.0000000000000000000, -0.7071067811865486830 ) ) ;
#219 = PLANE ( 'NONE',  #207 ) ;
#220 = ORIENTED_EDGE ( 'NONE', *, *, #266, .T. ) ;
#221 = PRESENTATION_STYLE_ASSIGNMENT (( #276 ) ) ;
#222 = PRODUCT_DEFINITION_SHAPE ( 'NONE', 'NONE',  #195 ) ;
#223 = ORIENTED_EDGE ( 'NONE', *, *, #131, .T. ) ;
#224 = PRESENTATION_LAYER_ASSIGNMENT (  '', '', ( #34 ) ) ;
#225 = EDGE_LOOP ( 'NONE', ( #275, #95, #180, #227 ) ) ;
#226 = AXIS2_PLACEMENT_3D ( 'NONE', #238, #348, #259 ) ;
#227 = ORIENTED_EDGE ( 'NONE', *, *, #131, .F. ) ;
#228 = LENGTH_MEASURE_WITH_UNIT ( LENGTH_MEASURE( 0.02539999999999999897 ), #173 );
#229 = EDGE_LOOP ( 'NONE', ( #45, #79 ) ) ;
#230 = DIRECTION ( 'NONE',  ( 0.0000000000000000000, 0.0000000000000000000, -1.000000000000000000 ) ) ;
#231 = MECHANICAL_DESIGN_GEOMETRIC_PRESENTATION_REPRESENTATION (  '', ( #107 ), #279 ) ;
#232 = EDGE_CURVE ( 'NONE', #81, #16, #178, .T. ) ;
#233 = LINE ( 'NONE', #134, #109 ) ;
#234 = CYLINDRICAL_SURFACE ( 'NONE', #124, 0.01558440000000000866 ) ;
#235 = CARTESIAN_POINT ( 'NONE',  ( -0.01558439999999999652, 4.781290526167081051E-18, 0.07800000000000009703 ) ) ;
#236 = AXIS2_PLACEMENT_3D ( 'NONE', #96, #230, #274 ) ;
#237 = CARTESIAN_POINT ( 'NONE',  ( 0.0000000000000000000, 0.0000000000000000000, 1.485000000000000764 ) ) ;
#238 = CARTESIAN_POINT ( 'NONE',  ( 0.0000000000000000000, 0.0000000000000000000, 1.500000000000000222 ) ) ;
#239 = CARTESIAN_POINT ( 'NONE',  ( 6.123233995736768848E-19, 0.0000000000000000000, 0.005000000000000000104 ) ) ;
#240 = VECTOR ( 'NONE', #67, 39.37007874015748143 ) ;
#241 = CLOSED_SHELL ( 'NONE', ( #13, #156, #335, #115, #75, #350, #164, #151, #69, #15, #3, #301 ) ) ;
#242 = DIRECTION ( 'NONE',  ( 1.000000000000000000, 0.0000000000000000000, 0.0000000000000000000 ) ) ;
#243 = EDGE_CURVE ( 'NONE', #44, #172, #251, .T. ) ;
#244 = FACE_OUTER_BOUND ( 'NONE', #18, .T. ) ;
#245 = CARTESIAN_POINT ( 'NONE',  ( 9.552245033349369302E-18, 0.0000000000000000000, 0.07800000000000009703 ) ) ;
#246 = CARTESIAN_POINT ( 'NONE',  ( 0.01558440000000001387, 0.0000000000000000000, 0.07800000000000009703 ) ) ;
#247 = CARTESIAN_POINT ( 'NONE',  ( 0.01558440000000000866, 1.908538557663202247E-18, 0.005000000000000000104 ) ) ;
#248 = ORIENTED_EDGE ( 'NONE', *, *, #77, .T. ) ;
#249 =( CONVERSION_BASED_UNIT ( 'INCH', #39 ) LENGTH_UNIT ( ) NAMED_UNIT ( #177 ) );
#250 = DIRECTION ( 'NONE',  ( 0.0000000000000000000, 0.0000000000000000000, 1.000000000000000000 ) ) ;
#251 = CIRCLE ( 'NONE', #117, 0.06250000000000002776 ) ;
#252 = ORIENTED_EDGE ( 'NONE', *, *, #36, .F. ) ;
#253 = EDGE_LOOP ( 'NONE', ( #171, #269, #74, #339 ) ) ;
#254 = DIRECTION ( 'NONE',  ( -1.000000000000000000, 1.224646799147353454E-16, 0.0000000000000000000 ) ) ;
#255 = DIRECTION ( 'NONE',  ( -1.000000000000000000, 0.0000000000000000000, 0.0000000000000000000 ) ) ;
#256 = LINE ( 'NONE', #286, #66 ) ;
#257 = CARTESIAN_POINT ( 'NONE',  ( -0.04750000000000064587, 0.0000000000000000000, 1.500000000000000222 ) ) ;
#258 = COLOUR_RGB ( '',0.7921568627450980005, 0.8196078431372548767, 0.9333333333333333481 ) ;
#259 = DIRECTION ( 'NONE',  ( -1.000000000000000000, 0.0000000000000000000, 0.0000000000000000000 ) ) ;
#260 = EDGE_CURVE ( 'NONE', #172, #44, #190, .T. ) ;
#261 = DIRECTION ( 'NONE',  ( 0.7071067811865462405, 8.659560562354916834E-17, -0.7071067811865486830 ) ) ;
#262 = EDGE_CURVE ( 'NONE', #202, #172, #213, .T. ) ;
#263 = CARTESIAN_POINT ( 'NONE',  ( 0.01558440000000001387, 0.0000000000000000000, 0.07800000000000009703 ) ) ;
#264 = AXIS2_PLACEMENT_3D ( 'NONE', #126, #42, #153 ) ;
#265 = DIRECTION ( 'NONE',  ( 1.000000000000000000, 0.0000000000000000000, 0.0000000000000000000 ) ) ;
#266 = EDGE_CURVE ( 'NONE', #38, #81, #169, .T. ) ;
#267 = UNCERTAINTY_MEASURE_WITH_UNIT (LENGTH_MEASURE( 1.000000000000000082E-05 ), #337, 'distance_accuracy_value', 'NONE');
#268 = FILL_AREA_STYLE ('',( #191 ) ) ;
#269 = ORIENTED_EDGE ( 'NONE', *, *, #176, .T. ) ;
#270 = VECTOR ( 'NONE', #142, 39.37007874015748143 ) ;
#271 = CIRCLE ( 'NONE', #320, 0.01558440000000000519 ) ;
#272 = CARTESIAN_POINT ( 'NONE',  ( 0.0000000000000000000, 0.0000000000000000000, 0.0000000000000000000 ) ) ;
#273 = ORIENTED_EDGE ( 'NONE', *, *, #56, .F. ) ;
#274 = DIRECTION ( 'NONE',  ( 1.000000000000000000, 0.0000000000000000000, 0.0000000000000000000 ) ) ;
#275 = ORIENTED_EDGE ( 'NONE', *, *, #63, .F. ) ;
#276 = SURFACE_STYLE_USAGE ( .BOTH. , #102 ) ;
#277 = ORIENTED_EDGE ( 'NONE', *, *, #43, .F. ) ;
#278 = CYLINDRICAL_SURFACE ( 'NONE', #144, 0.06250000000000002776 ) ;
#279 =( GEOMETRIC_REPRESENTATION_CONTEXT ( 3 ) GLOBAL_UNCERTAINTY_ASSIGNED_CONTEXT ( ( #267 ) ) GLOBAL_UNIT_ASSIGNED_CONTEXT ( ( #337, #78, #104 ) ) REPRESENTATION_CONTEXT ( 'NONE', 'WORKASPACE' ) );
#280 = LINE ( 'NONE', #6, #324 ) ;
#281 = EDGE_LOOP ( 'NONE', ( #338, #71, #303, #119 ) ) ;
#282 = CARTESIAN_POINT ( 'NONE',  ( 9.552245033349369302E-18, 0.0000000000000000000, 0.07800000000000009703 ) ) ;
#283 = CARTESIAN_POINT ( 'NONE',  ( 0.0000000000000000000, 0.0000000000000000000, 1.500000000000000222 ) ) ;
#284 = AXIS2_PLACEMENT_3D ( 'NONE', #245, #68, #311 ) ;
#285 = CYLINDRICAL_SURFACE ( 'NONE', #226, 0.06250000000000002776 ) ;
#286 = CARTESIAN_POINT ( 'NONE',  ( 0.01558440000000000866, 1.908538557663202247E-18, -1.908538557663203017E-18 ) ) ;
#287 = DIRECTION ( 'NONE',  ( 1.000000000000000000, 0.0000000000000000000, 0.0000000000000000000 ) ) ;
#288 = CIRCLE ( 'NONE', #46, 0.01058440000000000943 ) ;
#289 = EDGE_CURVE ( 'NONE', #16, #81, #97, .T. ) ;
#290 = DIRECTION ( 'NONE',  ( 0.1736481776669316635, 0.0000000000000000000, 0.9848077530122077983 ) ) ;
#291 = CARTESIAN_POINT ( 'NONE',  ( 6.123233995736768848E-19, 0.0000000000000000000, 0.005000000000000000104 ) ) ;
#292 = CONICAL_SURFACE ( 'NONE', #284, 0.01558440000000000519, 0.1745329251994342246 ) ;
#293 = SURFACE_STYLE_FILL_AREA ( #268 ) ;
#294 = CIRCLE ( 'NONE', #305, 0.005000000000000000104 ) ;
#295 = VECTOR ( 'NONE', #261, 39.37007874015748854 ) ;
#296 = DIMENSIONAL_EXPONENTS ( 1.000000000000000000, 0.0000000000000000000, 0.0000000000000000000, 0.0000000000000000000, 0.0000000000000000000, 0.0000000000000000000, 0.0000000000000000000 ) ;
#297 = DIRECTION ( 'NONE',  ( 1.000000000000000000, 0.0000000000000000000, 0.0000000000000000000 ) ) ;
#298 = FACE_OUTER_BOUND ( 'NONE', #225, .T. ) ;
#299 = ORIENTED_EDGE ( 'NONE', *, *, #262, .F. ) ;
#300 = SHAPE_DEFINITION_REPRESENTATION ( #222, #205 ) ;
#301 = ADVANCED_FACE ( 'NONE', ( #114 ), #112, .T. ) ;
#302 = ORIENTED_EDGE ( 'NONE', *, *, #85, .T. ) ;
#303 = ORIENTED_EDGE ( 'NONE', *, *, #243, .F. ) ;
#304 = CARTESIAN_POINT ( 'NONE',  ( 0.0000000000000000000, 0.0000000000000000000, 1.500000000000000222 ) ) ;
#305 = AXIS2_PLACEMENT_3D ( 'NONE', #321, #184, #210 ) ;
#306 = ORIENTED_EDGE ( 'NONE', *, *, #346, .F. ) ;
#307 = SURFACE_STYLE_FILL_AREA ( #128 ) ;
#308 = EDGE_LOOP ( 'NONE', ( #248, #80, #11, #174 ) ) ;
#309 = APPLICATION_CONTEXT ( 'automotive_design' ) ;
#310 = ORIENTED_EDGE ( 'NONE', *, *, #43, .T. ) ;
#311 = DIRECTION ( 'NONE',  ( 1.000000000000000000, 0.0000000000000000000, 0.0000000000000000000 ) ) ;
#312 = COLOUR_RGB ( '',0.7921568627450980005, 0.8196078431372548767, 0.9333333333333333481 ) ;
#313 = EDGE_CURVE ( 'NONE', #125, #172, #1, .T. ) ;
#314 = TOROIDAL_SURFACE ( 'NONE', #60, 0.01058440000000000943, 0.005000000000000000104 ) ;
#315 = AXIS2_PLACEMENT_3D ( 'NONE', #283, #159, #255 ) ;
#316 = CARTESIAN_POINT ( 'NONE',  ( 0.0000000000000000000, 0.0000000000000000000, 1.500000000000000222 ) ) ;
#317 = MANIFOLD_SOLID_BREP ( 'Fillet1', #241 ) ;
#318 = CARTESIAN_POINT ( 'NONE',  ( -0.01058440000000000943, 1.602376857876363853E-18, 0.0000000000000000000 ) ) ;
#319 = VECTOR ( 'NONE', #88, 39.37007874015748854 ) ;
#320 = AXIS2_PLACEMENT_3D ( 'NONE', #282, #25, #162 ) ;
#321 = CARTESIAN_POINT ( 'NONE',  ( 0.01058440000000000943, 0.0000000000000000000, 0.005000000000000000104 ) ) ;
#322 = DIRECTION ( 'NONE',  ( 0.0000000000000000000, 0.0000000000000000000, 1.000000000000000000 ) ) ;
#323 = FACE_OUTER_BOUND ( 'NONE', #336, .T. ) ;
#324 = VECTOR ( 'NONE', #218, 39.37007874015748854 ) ;
#325 =( NAMED_UNIT ( * ) SI_UNIT ( $, .STERADIAN. ) SOLID_ANGLE_UNIT ( ) );
#326 = CONICAL_SURFACE ( 'NONE', #315, 0.04750000000000064587, 0.7853981633974466137 ) ;
#327 = UNCERTAINTY_MEASURE_WITH_UNIT (LENGTH_MEASURE( 1.000000000000000082E-05 ), #249, 'distance_accuracy_value', 'NONE');
#328 = CARTESIAN_POINT ( 'NONE',  ( 4.213661705584322371E-17, 0.0000000000000000000, 0.3440715893364548750 ) ) ;
#329 = CIRCLE ( 'NONE', #236, 0.06250000000000002776 ) ;
#330 = LINE ( 'NONE', #165, #295 ) ;
#331 = FACE_OUTER_BOUND ( 'NONE', #127, .T. ) ;
#332 = CIRCLE ( 'NONE', #31, 0.04750000000000064587 ) ;
#333 = CARTESIAN_POINT ( 'NONE',  ( 0.0000000000000000000, 0.0000000000000000000, 1.500000000000000222 ) ) ;
#334 = ORIENTED_EDGE ( 'NONE', *, *, #232, .F. ) ;
#335 = ADVANCED_FACE ( 'NONE', ( #244 ), #292, .T. ) ;
#336 = EDGE_LOOP ( 'NONE', ( #198, #121, #170, #306 ) ) ;
#337 =( CONVERSION_BASED_UNIT ( 'INCH', #228 ) LENGTH_UNIT ( ) NAMED_UNIT ( #296 ) );
#338 = ORIENTED_EDGE ( 'NONE', *, *, #141, .T. ) ;
#339 = ORIENTED_EDGE ( 'NONE', *, *, #7, .F. ) ;
#340 = ORIENTED_EDGE ( 'NONE', *, *, #199, .T. ) ;
#341 = VECTOR ( 'NONE', #290, 39.37007874015748854 ) ;
#342 = AXIS2_PLACEMENT_3D ( 'NONE', #237, #54, #22 ) ;
#343 = CARTESIAN_POINT ( 'NONE',  ( -0.06249999999999997918, 0.0000000000000000000, 0.3440715893364548750 ) ) ;
#344 = ORIENTED_EDGE ( 'NONE', *, *, #77, .F. ) ;
#345 = CARTESIAN_POINT ( 'NONE',  ( 0.0000000000000000000, 0.0000000000000000000, 1.500000000000000222 ) ) ;
#346 = EDGE_CURVE ( 'NONE', #125, #41, #329, .T. ) ;
#347 = VERTEX_POINT ( 'NONE', #99 ) ;
#348 = DIRECTION ( 'NONE',  ( -0.0000000000000000000, -0.0000000000000000000, -1.000000000000000000 ) ) ;
#349 = DIRECTION ( 'NONE',  ( -1.224646799147353700E-16, -0.0000000000000000000, -1.000000000000000000 ) ) ;
#350 = ADVANCED_FACE ( 'NONE', ( #181 ), #278, .T. ) ;
#351 = DIRECTION ( 'NONE',  ( 0.0000000000000000000, 0.0000000000000000000, -1.000000000000000000 ) ) ;
ENDSEC;
END-ISO-10303-21;
