ISO-10303-21;
HEADER;
FILE_DESCRIPTION (( 'STEP AP214' ),
    '1' );
FILE_NAME ('59776.STEP',
    '2023-07-24T15:37:38',
    ( '' ),
    ( '' ),
    'SwSTEP 2.0',
    'SolidWorks 2023',
    '' );
FILE_SCHEMA (( 'AUTOMOTIVE_DESIGN' ));
ENDSEC;

DATA;
#1 = VERTEX_POINT ( 'NONE', #132 ) ;
#2 = CIRCLE ( 'NONE', #60, 1.000000000000000000 ) ;
#3 =( NAMED_UNIT ( * ) SI_UNIT ( $, .STERADIAN. ) SOLID_ANGLE_UNIT ( ) );
#4 = UNCERTAINTY_MEASURE_WITH_UNIT (LENGTH_MEASURE( 1.000000000000000082E-05 ), #107, 'distance_accuracy_value', 'NONE');
#5 = ORIENTED_EDGE ( 'NONE', *, *, #187, .T. ) ;
#6 = DIRECTION ( 'NONE',  ( -0.000000000000000000, -1.000000000000000000, -0.000000000000000000 ) ) ;
#7 = EDGE_CURVE ( 'NONE', #180, #211, #253, .T. ) ;
#8 = ORIENTED_EDGE ( 'NONE', *, *, #187, .F. ) ;
#9 = STYLED_ITEM ( 'NONE', ( #298 ), #106 ) ;
#10 = PRESENTATION_LAYER_ASSIGNMENT (  '', '', ( #280 ) ) ;
#11 = AXIS2_PLACEMENT_3D ( 'NONE', #239, #154, #326 ) ;
#12 =( LENGTH_UNIT ( ) NAMED_UNIT ( * ) SI_UNIT ( .MILLI., .METRE. ) );
#13 = FILL_AREA_STYLE ('',( #105 ) ) ;
#14 = EDGE_CURVE ( 'NONE', #310, #285, #293, .T. ) ;
#15 = MECHANICAL_DESIGN_GEOMETRIC_PRESENTATION_REPRESENTATION (  '', ( #288 ), #23 ) ;
#16 = CARTESIAN_POINT ( 'NONE',  ( 7.347880794884119736E-16, 0.000000000000000000, 6.000000000000000000 ) ) ;
#17 = DIRECTION ( 'NONE',  ( 0.000000000000000000, 0.000000000000000000, -1.000000000000000000 ) ) ;
#18 = CARTESIAN_POINT ( 'NONE',  ( 6.000000000000000000, 75.00000000000000000, 0.000000000000000000 ) ) ;
#19 = UNCERTAINTY_MEASURE_WITH_UNIT (LENGTH_MEASURE( 1.000000000000000082E-05 ), #12, 'distance_accuracy_value', 'NONE');
#20 = EDGE_CURVE ( 'NONE', #285, #353, #170, .T. ) ;
#21 = PLANE ( 'NONE',  #89 ) ;
#22 = CLOSED_SHELL ( 'NONE', ( #138, #363, #311, #129 ) ) ;
#23 =( GEOMETRIC_REPRESENTATION_CONTEXT ( 3 ) GLOBAL_UNCERTAINTY_ASSIGNED_CONTEXT ( ( #174 ) ) GLOBAL_UNIT_ASSIGNED_CONTEXT ( ( #86, #88, #275 ) ) REPRESENTATION_CONTEXT ( 'NONE', 'WORKASPACE' ) );
#24 = DIRECTION ( 'NONE',  ( 0.000000000000000000, 0.000000000000000000, -1.000000000000000000 ) ) ;
#25 = EDGE_CURVE ( 'NONE', #198, #180, #246, .T. ) ;
#26 = FILL_AREA_STYLE_COLOUR ( '', #366 ) ;
#27 = AXIS2_PLACEMENT_3D ( 'NONE', #252, #78, #191 ) ;
#28 = CIRCLE ( 'NONE', #262, 5.000000000000000000 ) ;
#29 = DIRECTION ( 'NONE',  ( 0.000000000000000000, 0.000000000000000000, -1.000000000000000000 ) ) ;
#30 = PRODUCT_DEFINITION_CONTEXT ( 'detailed design', #297, 'design' ) ;
#31 =( LENGTH_UNIT ( ) NAMED_UNIT ( * ) SI_UNIT ( .MILLI., .METRE. ) );
#32 = CLOSED_SHELL ( 'NONE', ( #340, #71, #230, #47, #163, #106 ) ) ;
#33 = CARTESIAN_POINT ( 'NONE',  ( 7.347880794884118750E-16, 1.000000000000000000, 6.000000000000000000 ) ) ;
#34 = AXIS2_PLACEMENT_3D ( 'NONE', #286, #151, #90 ) ;
#35 = ORIENTED_EDGE ( 'NONE', *, *, #222, .T. ) ;
#36 = LINE ( 'NONE', #175, #178 ) ;
#37 = UNCERTAINTY_MEASURE_WITH_UNIT (LENGTH_MEASURE( 1.000000000000000082E-05 ), #202, 'distance_accuracy_value', 'NONE');
#38 = FACE_OUTER_BOUND ( 'NONE', #317, .T. ) ;
#39 = ORIENTED_EDGE ( 'NONE', *, *, #205, .F. ) ;
#40 = DIRECTION ( 'NONE',  ( -1.000000000000000000, 1.560495851798313744E-17, 0.000000000000000000 ) ) ;
#41 = AXIS2_PLACEMENT_3D ( 'NONE', #18, #134, #113 ) ;
#42 = DIRECTION ( 'NONE',  ( 1.560495851798313744E-17, 1.000000000000000000, -0.000000000000000000 ) ) ;
#43 = DIRECTION ( 'NONE',  ( 1.000000000000000000, 0.000000000000000000, -1.224646799147353207E-16 ) ) ;
#44 = PRESENTATION_LAYER_ASSIGNMENT (  '', '', ( #248 ) ) ;
#45 = UNCERTAINTY_MEASURE_WITH_UNIT (LENGTH_MEASURE( 1.000000000000000082E-05 ), #309, 'distance_accuracy_value', 'NONE');
#46 = EDGE_LOOP ( 'NONE', ( #237, #35 ) ) ;
#47 = ADVANCED_FACE ( 'NONE', ( #325 ), #139, .T. ) ;
#48 = CARTESIAN_POINT ( 'NONE',  ( -5.999999999999989342, 30.00000000000000000, 0.000000000000000000 ) ) ;
#49 = PRODUCT ( '59776', '59776', '', ( #221 ) ) ;
#50 = SURFACE_SIDE_STYLE ('',( #182 ) ) ;
#51 = SURFACE_SIDE_STYLE ('',( #255 ) ) ;
#52 =( NAMED_UNIT ( * ) SI_UNIT ( $, .STERADIAN. ) SOLID_ANGLE_UNIT ( ) );
#53 = TOROIDAL_SURFACE ( 'NONE', #27, 5.000000000000000000, 0.9999999999999995559 ) ;
#54 =( LENGTH_UNIT ( ) NAMED_UNIT ( * ) SI_UNIT ( .MILLI., .METRE. ) );
#55 = FILL_AREA_STYLE ('',( #368 ) ) ;
#56 = MECHANICAL_DESIGN_GEOMETRIC_PRESENTATION_REPRESENTATION (  '', ( #314 ), #135 ) ;
#57 =( NAMED_UNIT ( * ) SI_UNIT ( $, .STERADIAN. ) SOLID_ANGLE_UNIT ( ) );
#58 = SURFACE_SIDE_STYLE ('',( #313 ) ) ;
#59 = STYLED_ITEM ( 'NONE', ( #335 ), #47 ) ;
#60 = AXIS2_PLACEMENT_3D ( 'NONE', #245, #43, #156 ) ;
#61 = ORIENTED_EDGE ( 'NONE', *, *, #20, .T. ) ;
#62 = CARTESIAN_POINT ( 'NONE',  ( 6.735557395310443009E-16, 0.000000000000000000, 5.000000000000000000 ) ) ;
#63 = DIRECTION ( 'NONE',  ( 1.560495851798313744E-17, 1.000000000000000000, -0.000000000000000000 ) ) ;
#64 = EDGE_LOOP ( 'NONE', ( #82, #61, #147, #348 ) ) ;
#65 = MECHANICAL_DESIGN_GEOMETRIC_PRESENTATION_REPRESENTATION (  '', ( #9 ), #161 ) ;
#66 = CARTESIAN_POINT ( 'NONE',  ( 6.000000000000000000, 30.00000000000000000, 7.347880794884112834E-16 ) ) ;
#67 = PRESENTATION_LAYER_ASSIGNMENT (  '', '', ( #243 ) ) ;
#68 = SURFACE_STYLE_USAGE ( .BOTH. , #266 ) ;
#69 = FACE_OUTER_BOUND ( 'NONE', #185, .T. ) ;
#70 = APPLICATION_PROTOCOL_DEFINITION ( 'draft international standard', 'automotive_design', 1998, #200 ) ;
#71 = ADVANCED_FACE ( 'NONE', ( #69 ), #53, .T. ) ;
#72 = DIRECTION ( 'NONE',  ( -0.000000000000000000, -1.000000000000000000, -0.000000000000000000 ) ) ;
#73 =( NAMED_UNIT ( * ) PLANE_ANGLE_UNIT ( ) SI_UNIT ( $, .RADIAN. ) );
#74 = STYLED_ITEM ( 'NONE', ( #294 ), #85 ) ;
#75 = AXIS2_PLACEMENT_3D ( 'NONE', #199, #347, #146 ) ;
#76 = CARTESIAN_POINT ( 'NONE',  ( 0.000000000000000000, 0.000000000000000000, 0.000000000000000000 ) ) ;
#77 = PRODUCT_DEFINITION_SHAPE ( 'NONE', 'NONE',  #194 ) ;
#78 = DIRECTION ( 'NONE',  ( -0.000000000000000000, -1.000000000000000000, -0.000000000000000000 ) ) ;
#79 = EDGE_CURVE ( 'NONE', #353, #285, #236, .T. ) ;
#80 = UNCERTAINTY_MEASURE_WITH_UNIT (LENGTH_MEASURE( 1.000000000000000082E-05 ), #327, 'distance_accuracy_value', 'NONE');
#81 = PRESENTATION_STYLE_ASSIGNMENT (( #338 ) ) ;
#82 = ORIENTED_EDGE ( 'NONE', *, *, #213, .F. ) ;
#83 = PRESENTATION_STYLE_ASSIGNMENT (( #339 ) ) ;
#84 = CYLINDRICAL_SURFACE ( 'NONE', #11, 6.000000000000000000 ) ;
#85 = MANIFOLD_SOLID_BREP ( 'Revolve - Tool Body (Straight Shanked)', #22 ) ;
#86 =( LENGTH_UNIT ( ) NAMED_UNIT ( * ) SI_UNIT ( .MILLI., .METRE. ) );
#87 = EDGE_CURVE ( 'NONE', #123, #198, #166, .T. ) ;
#88 =( NAMED_UNIT ( * ) PLANE_ANGLE_UNIT ( ) SI_UNIT ( $, .RADIAN. ) );
#89 = AXIS2_PLACEMENT_3D ( 'NONE', #247, #364, #296 ) ;
#90 = DIRECTION ( 'NONE',  ( -1.000000000000000000, 0.000000000000000000, 0.000000000000000000 ) ) ;
#91 = FILL_AREA_STYLE_COLOUR ( '', #193 ) ;
#92 = FACE_OUTER_BOUND ( 'NONE', #125, .T. ) ;
#93 = ORIENTED_EDGE ( 'NONE', *, *, #365, .T. ) ;
#94 = MECHANICAL_DESIGN_GEOMETRIC_PRESENTATION_REPRESENTATION (  '', ( #248 ), #345 ) ;
#95 = SURFACE_STYLE_USAGE ( .BOTH. , #58 ) ;
#96 = CIRCLE ( 'NONE', #171, 6.000000000000000000 ) ;
#97 =( GEOMETRIC_REPRESENTATION_CONTEXT ( 3 ) GLOBAL_UNCERTAINTY_ASSIGNED_CONTEXT ( ( #19 ) ) GLOBAL_UNIT_ASSIGNED_CONTEXT ( ( #12, #160, #244 ) ) REPRESENTATION_CONTEXT ( 'NONE', 'WORKASPACE' ) );
#98 = PLANE ( 'NONE',  #302 ) ;
#99 = ORIENTED_EDGE ( 'NONE', *, *, #213, .T. ) ;
#100 = ORIENTED_EDGE ( 'NONE', *, *, #25, .F. ) ;
#101 = PRESENTATION_LAYER_ASSIGNMENT (  '', '', ( #9 ) ) ;
#102 = CIRCLE ( 'NONE', #110, 5.000000000000000000 ) ;
#103 = CYLINDRICAL_SURFACE ( 'NONE', #122, 5.999999999999994671 ) ;
#104 = DIRECTION ( 'NONE',  ( 0.000000000000000000, 0.000000000000000000, -1.000000000000000000 ) ) ;
#105 = FILL_AREA_STYLE_COLOUR ( '', #232 ) ;
#106 = ADVANCED_FACE ( 'NONE', ( #109 ), #21, .T. ) ;
#107 =( LENGTH_UNIT ( ) NAMED_UNIT ( * ) SI_UNIT ( .MILLI., .METRE. ) );
#108 =( NAMED_UNIT ( * ) PLANE_ANGLE_UNIT ( ) SI_UNIT ( $, .RADIAN. ) );
#109 = FACE_OUTER_BOUND ( 'NONE', #312, .T. ) ;
#110 = AXIS2_PLACEMENT_3D ( 'NONE', #130, #267, #17 ) ;
#111 =( NAMED_UNIT ( * ) SI_UNIT ( $, .STERADIAN. ) SOLID_ANGLE_UNIT ( ) );
#112 = CARTESIAN_POINT ( 'NONE',  ( 6.000000000000000000, 75.00000000000000000, 7.347880794884112834E-16 ) ) ;
#113 = DIRECTION ( 'NONE',  ( 1.000000000000000000, -1.560495851798313744E-17, 0.000000000000000000 ) ) ;
#114 = SURFACE_STYLE_USAGE ( .BOTH. , #369 ) ;
#115 =( NAMED_UNIT ( * ) SI_UNIT ( $, .STERADIAN. ) SOLID_ANGLE_UNIT ( ) );
#116 = AXIS2_PLACEMENT_3D ( 'NONE', #153, #217, #104 ) ;
#117 = CIRCLE ( 'NONE', #184, 1.000000000000000000 ) ;
#118 = EDGE_LOOP ( 'NONE', ( #320, #5, #201, #289 ) ) ;
#119 = DIRECTION ( 'NONE',  ( -0.000000000000000000, -1.000000000000000000, -0.000000000000000000 ) ) ;
#120 =( NAMED_UNIT ( * ) PLANE_ANGLE_UNIT ( ) SI_UNIT ( $, .RADIAN. ) );
#121 = EDGE_LOOP ( 'NONE', ( #172, #271, #349, #159 ) ) ;
#122 = AXIS2_PLACEMENT_3D ( 'NONE', #226, #337, #354 ) ;
#123 = VERTEX_POINT ( 'NONE', #48 ) ;
#124 = AXIS2_PLACEMENT_3D ( 'NONE', #76, #212, #329 ) ;
#125 = EDGE_LOOP ( 'NONE', ( #370, #323, #281, #305 ) ) ;
#126 = ORIENTED_EDGE ( 'NONE', *, *, #176, .F. ) ;
#127 = CYLINDRICAL_SURFACE ( 'NONE', #144, 6.000000000000000000 ) ;
#128 = MECHANICAL_DESIGN_GEOMETRIC_PRESENTATION_REPRESENTATION (  '', ( #280 ), #254 ) ;
#129 = ADVANCED_FACE ( 'NONE', ( #216 ), #158, .F. ) ;
#130 = CARTESIAN_POINT ( 'NONE',  ( 0.000000000000000000, 0.000000000000000000, 0.000000000000000000 ) ) ;
#131 = SURFACE_SIDE_STYLE ('',( #334 ) ) ;
#132 = CARTESIAN_POINT ( 'NONE',  ( 0.000000000000000000, 30.00000000000000000, -6.000000000000000000 ) ) ;
#133 = SURFACE_STYLE_FILL_AREA ( #328 ) ;
#134 = DIRECTION ( 'NONE',  ( -1.560495851798313744E-17, -1.000000000000000000, 0.000000000000000000 ) ) ;
#135 =( GEOMETRIC_REPRESENTATION_CONTEXT ( 3 ) GLOBAL_UNCERTAINTY_ASSIGNED_CONTEXT ( ( #315 ) ) GLOBAL_UNIT_ASSIGNED_CONTEXT ( ( #31, #274, #229 ) ) REPRESENTATION_CONTEXT ( 'NONE', 'WORKASPACE' ) );
#136 = LINE ( 'NONE', #307, #140 ) ;
#137 = SURFACE_STYLE_FILL_AREA ( #273 ) ;
#138 = ADVANCED_FACE ( 'NONE', ( #241 ), #103, .T. ) ;
#139 = TOROIDAL_SURFACE ( 'NONE', #287, 5.000000000000000000, 0.9999999999999995559 ) ;
#140 = VECTOR ( 'NONE', #344, 1000.000000000000000 ) ;
#141 = EDGE_LOOP ( 'NONE', ( #93, #189 ) ) ;
#142 = EDGE_CURVE ( 'NONE', #1, #353, #136, .T. ) ;
#143 = DIRECTION ( 'NONE',  ( 1.560495851798313744E-17, 1.000000000000000000, -0.000000000000000000 ) ) ;
#144 = AXIS2_PLACEMENT_3D ( 'NONE', #284, #6, #238 ) ;
#145 = FILL_AREA_STYLE ('',( #148 ) ) ;
#146 = DIRECTION ( 'NONE',  ( -1.000000000000000000, 0.000000000000000000, 0.000000000000000000 ) ) ;
#147 = ORIENTED_EDGE ( 'NONE', *, *, #205, .T. ) ;
#148 = FILL_AREA_STYLE_COLOUR ( '', #224 ) ;
#149 = EDGE_CURVE ( 'NONE', #1, #310, #322, .T. ) ;
#150 = PRESENTATION_LAYER_ASSIGNMENT (  '', '', ( #314 ) ) ;
#151 = DIRECTION ( 'NONE',  ( 1.560495851798313744E-17, 1.000000000000000000, -0.000000000000000000 ) ) ;
#152 = CARTESIAN_POINT ( 'NONE',  ( 0.000000000000000000, 1.000000000000000000, -5.000000000000000000 ) ) ;
#153 = CARTESIAN_POINT ( 'NONE',  ( 0.000000000000000000, 1.000000000000000000, 0.000000000000000000 ) ) ;
#154 = DIRECTION ( 'NONE',  ( -0.000000000000000000, -1.000000000000000000, -0.000000000000000000 ) ) ;
#155 =( NAMED_UNIT ( * ) SI_UNIT ( $, .STERADIAN. ) SOLID_ANGLE_UNIT ( ) );
#156 = DIRECTION ( 'NONE',  ( -1.224646799147352468E-16, 0.000000000000000000, -1.000000000000000000 ) ) ;
#157 = DIRECTION ( 'NONE',  ( -1.000000000000000000, 0.000000000000000000, 0.000000000000000000 ) ) ;
#158 = PLANE ( 'NONE',  #41 ) ;
#159 = ORIENTED_EDGE ( 'NONE', *, *, #306, .F. ) ;
#160 =( NAMED_UNIT ( * ) PLANE_ANGLE_UNIT ( ) SI_UNIT ( $, .RADIAN. ) );
#161 =( GEOMETRIC_REPRESENTATION_CONTEXT ( 3 ) GLOBAL_UNCERTAINTY_ASSIGNED_CONTEXT ( ( #80 ) ) GLOBAL_UNIT_ASSIGNED_CONTEXT ( ( #327, #73, #155 ) ) REPRESENTATION_CONTEXT ( 'NONE', 'WORKASPACE' ) );
#162 = FILL_AREA_STYLE ('',( #26 ) ) ;
#163 = ADVANCED_FACE ( 'NONE', ( #165 ), #84, .T. ) ;
#164 = ORIENTED_EDGE ( 'NONE', *, *, #7, .F. ) ;
#165 = FACE_OUTER_BOUND ( 'NONE', #118, .T. ) ;
#166 = CIRCLE ( 'NONE', #242, 5.999999999999994671 ) ;
#167 = CIRCLE ( 'NONE', #204, 5.999999999999994671 ) ;
#168 = COLOUR_RGB ( '',1.000000000000000000, 0.000000000000000000, 0.000000000000000000 ) ;
#169 = ORIENTED_EDGE ( 'NONE', *, *, #319, .T. ) ;
#170 = CIRCLE ( 'NONE', #116, 6.000000000000000000 ) ;
#171 = AXIS2_PLACEMENT_3D ( 'NONE', #321, #291, #181 ) ;
#172 = ORIENTED_EDGE ( 'NONE', *, *, #87, .T. ) ;
#173 = DIRECTION ( 'NONE',  ( -1.000000000000000000, 0.000000000000000000, 0.000000000000000000 ) ) ;
#174 = UNCERTAINTY_MEASURE_WITH_UNIT (LENGTH_MEASURE( 1.000000000000000082E-05 ), #86, 'distance_accuracy_value', 'NONE');
#175 = CARTESIAN_POINT ( 'NONE',  ( -5.999999999999988454, 75.00000000000000000, 0.000000000000000000 ) ) ;
#176 = EDGE_CURVE ( 'NONE', #272, #277, #102, .T. ) ;
#177 = ORIENTED_EDGE ( 'NONE', *, *, #149, .F. ) ;
#178 = VECTOR ( 'NONE', #350, 1000.000000000000000 ) ;
#179 = PRODUCT_DEFINITION_FORMATION_WITH_SPECIFIED_SOURCE ( 'ANY', '', #49, .NOT_KNOWN. ) ;
#180 = VERTEX_POINT ( 'NONE', #112 ) ;
#181 = DIRECTION ( 'NONE',  ( 0.000000000000000000, 0.000000000000000000, -1.000000000000000000 ) ) ;
#182 = SURFACE_STYLE_FILL_AREA ( #331 ) ;
#183 =( GEOMETRIC_REPRESENTATION_CONTEXT ( 3 ) GLOBAL_UNCERTAINTY_ASSIGNED_CONTEXT ( ( #4 ) ) GLOBAL_UNIT_ASSIGNED_CONTEXT ( ( #107, #108, #111 ) ) REPRESENTATION_CONTEXT ( 'NONE', 'WORKASPACE' ) );
#184 = AXIS2_PLACEMENT_3D ( 'NONE', #152, #264, #240 ) ;
#185 = EDGE_LOOP ( 'NONE', ( #206, #99, #126, #39 ) ) ;
#186 = SHAPE_DEFINITION_REPRESENTATION ( #77, #219 ) ;
#187 = EDGE_CURVE ( 'NONE', #310, #1, #96, .T. ) ;
#188 = FILL_AREA_STYLE_COLOUR ( '', #196 ) ;
#189 = ORIENTED_EDGE ( 'NONE', *, *, #7, .T. ) ;
#190 = PLANE ( 'NONE',  #361 ) ;
#191 = DIRECTION ( 'NONE',  ( 0.000000000000000000, 0.000000000000000000, -1.000000000000000000 ) ) ;
#192 = PRESENTATION_STYLE_ASSIGNMENT (( #114 ) ) ;
#193 = COLOUR_RGB ( '',0.7921568627450980005, 0.8196078431372548767, 0.9333333333333333481 ) ;
#194 = PRODUCT_DEFINITION ( 'UNKNOWN', '', #179, #30 ) ;
#195 = DIRECTION ( 'NONE',  ( 0.000000000000000000, -1.000000000000000000, -0.000000000000000000 ) ) ;
#196 = COLOUR_RGB ( '',0.7921568627450980005, 0.8196078431372548767, 0.9333333333333333481 ) ;
#197 = AXIS2_PLACEMENT_3D ( 'NONE', #303, #119, #282 ) ;
#198 = VERTEX_POINT ( 'NONE', #66 ) ;
#199 = CARTESIAN_POINT ( 'NONE',  ( 6.123233995736762930E-15, 75.00000000000000000, 0.000000000000000000 ) ) ;
#200 = APPLICATION_CONTEXT ( 'automotive_design' ) ;
#201 = ORIENTED_EDGE ( 'NONE', *, *, #142, .T. ) ;
#202 =( LENGTH_UNIT ( ) NAMED_UNIT ( * ) SI_UNIT ( .MILLI., .METRE. ) );
#203 = PRESENTATION_LAYER_ASSIGNMENT (  '', '', ( #59 ) ) ;
#204 = AXIS2_PLACEMENT_3D ( 'NONE', #261, #143, #173 ) ;
#205 = EDGE_CURVE ( 'NONE', #353, #272, #117, .T. ) ;
#206 = ORIENTED_EDGE ( 'NONE', *, *, #79, .T. ) ;
#207 = PRESENTATION_STYLE_ASSIGNMENT (( #95 ) ) ;
#208 = EDGE_LOOP ( 'NONE', ( #308, #290 ) ) ;
#209 = PRODUCT_RELATED_PRODUCT_CATEGORY ( 'part', '', ( #49 ) ) ;
#210 = CARTESIAN_POINT ( 'NONE',  ( 5.421010862427522170E-15, 30.00000000000000000, 0.000000000000000000 ) ) ;
#211 = VERTEX_POINT ( 'NONE', #215 ) ;
#212 = DIRECTION ( 'NONE',  ( 0.000000000000000000, 0.000000000000000000, 1.000000000000000000 ) ) ;
#213 = EDGE_CURVE ( 'NONE', #285, #277, #2, .T. ) ;
#214 = MECHANICAL_DESIGN_GEOMETRIC_PRESENTATION_REPRESENTATION (  '', ( #243 ), #295 ) ;
#215 = CARTESIAN_POINT ( 'NONE',  ( -5.999999999999987566, 75.00000000000000000, 0.000000000000000000 ) ) ;
#216 = FACE_OUTER_BOUND ( 'NONE', #141, .T. ) ;
#217 = DIRECTION ( 'NONE',  ( -0.000000000000000000, -1.000000000000000000, -0.000000000000000000 ) ) ;
#218 = APPLICATION_PROTOCOL_DEFINITION ( 'draft international standard', 'automotive_design', 1998, #297 ) ;
#219 = ADVANCED_BREP_SHAPE_REPRESENTATION ( '59776', ( #336, #85, #124 ), #97 ) ;
#220 = DIRECTION ( 'NONE',  ( 1.560495851798313744E-17, 1.000000000000000000, -0.000000000000000000 ) ) ;
#221 = PRODUCT_CONTEXT ( 'NONE', #200, 'mechanical' ) ;
#222 = EDGE_CURVE ( 'NONE', #277, #272, #28, .T. ) ;
#223 = AXIS2_PLACEMENT_3D ( 'NONE', #304, #324, #292 ) ;
#224 = COLOUR_RGB ( '',1.000000000000000000, 0.000000000000000000, 0.000000000000000000 ) ;
#225 = CARTESIAN_POINT ( 'NONE',  ( 6.000000000000000888, 75.00000000000000000, 7.347880794884112834E-16 ) ) ;
#226 = CARTESIAN_POINT ( 'NONE',  ( 6.123233995736762930E-15, 75.00000000000000000, 0.000000000000000000 ) ) ;
#227 = DIRECTION ( 'NONE',  ( 0.000000000000000000, 0.000000000000000000, -1.000000000000000000 ) ) ;
#228 = COLOUR_RGB ( '',1.000000000000000000, 0.000000000000000000, 0.000000000000000000 ) ;
#229 =( NAMED_UNIT ( * ) SI_UNIT ( $, .STERADIAN. ) SOLID_ANGLE_UNIT ( ) );
#230 = ADVANCED_FACE ( 'NONE', ( #343 ), #190, .T. ) ;
#231 = SURFACE_SIDE_STYLE ('',( #257 ) ) ;
#232 = COLOUR_RGB ( '',1.000000000000000000, 0.000000000000000000, 0.000000000000000000 ) ;
#233 = CARTESIAN_POINT ( 'NONE',  ( 7.347880794884119736E-16, 30.00000000000000000, 6.000000000000000000 ) ) ;
#234 = UNCERTAINTY_MEASURE_WITH_UNIT (LENGTH_MEASURE( 1.000000000000000082E-05 ), #54, 'distance_accuracy_value', 'NONE');
#235 = SURFACE_STYLE_USAGE ( .BOTH. , #231 ) ;
#236 = CIRCLE ( 'NONE', #223, 6.000000000000000000 ) ;
#237 = ORIENTED_EDGE ( 'NONE', *, *, #176, .T. ) ;
#238 = DIRECTION ( 'NONE',  ( 0.000000000000000000, 0.000000000000000000, -1.000000000000000000 ) ) ;
#239 = CARTESIAN_POINT ( 'NONE',  ( 0.000000000000000000, 0.000000000000000000, 0.000000000000000000 ) ) ;
#240 = DIRECTION ( 'NONE',  ( 0.000000000000000000, 0.000000000000000000, 1.000000000000000000 ) ) ;
#241 = FACE_OUTER_BOUND ( 'NONE', #121, .T. ) ;
#242 = AXIS2_PLACEMENT_3D ( 'NONE', #359, #250, #270 ) ;
#243 = STYLED_ITEM ( 'NONE', ( #263 ), #340 ) ;
#244 =( NAMED_UNIT ( * ) SI_UNIT ( $, .STERADIAN. ) SOLID_ANGLE_UNIT ( ) );
#245 = CARTESIAN_POINT ( 'NONE',  ( 6.123233995736766282E-16, 1.000000000000000000, 5.000000000000000000 ) ) ;
#246 = LINE ( 'NONE', #225, #283 ) ;
#247 = CARTESIAN_POINT ( 'NONE',  ( 0.000000000000000000, 30.00000000000000000, 0.000000000000000000 ) ) ;
#248 = STYLED_ITEM ( 'NONE', ( #81 ), #71 ) ;
#249 = COLOUR_RGB ( '',1.000000000000000000, 0.000000000000000000, 0.000000000000000000 ) ;
#250 = DIRECTION ( 'NONE',  ( 1.560495851798313744E-17, 1.000000000000000000, -0.000000000000000000 ) ) ;
#251 = CARTESIAN_POINT ( 'NONE',  ( 0.000000000000000000, 1.000000000000000000, 0.000000000000000000 ) ) ;
#252 = CARTESIAN_POINT ( 'NONE',  ( 0.000000000000000000, 1.000000000000000000, 0.000000000000000000 ) ) ;
#253 = CIRCLE ( 'NONE', #269, 5.999999999999993783 ) ;
#254 =( GEOMETRIC_REPRESENTATION_CONTEXT ( 3 ) GLOBAL_UNCERTAINTY_ASSIGNED_CONTEXT ( ( #45 ) ) GLOBAL_UNIT_ASSIGNED_CONTEXT ( ( #309, #316, #57 ) ) REPRESENTATION_CONTEXT ( 'NONE', 'WORKASPACE' ) );
#255 = SURFACE_STYLE_FILL_AREA ( #162 ) ;
#256 = FILL_AREA_STYLE_COLOUR ( '', #249 ) ;
#257 = SURFACE_STYLE_FILL_AREA ( #145 ) ;
#258 =( GEOMETRIC_REPRESENTATION_CONTEXT ( 3 ) GLOBAL_UNCERTAINTY_ASSIGNED_CONTEXT ( ( #301 ) ) GLOBAL_UNIT_ASSIGNED_CONTEXT ( ( #268, #265, #52 ) ) REPRESENTATION_CONTEXT ( 'NONE', 'WORKASPACE' ) );
#259 =( NAMED_UNIT ( * ) PLANE_ANGLE_UNIT ( ) SI_UNIT ( $, .RADIAN. ) );
#260 = FILL_AREA_STYLE ('',( #91 ) ) ;
#261 = CARTESIAN_POINT ( 'NONE',  ( 5.421010862427522170E-15, 30.00000000000000000, 0.000000000000000000 ) ) ;
#262 = AXIS2_PLACEMENT_3D ( 'NONE', #330, #72, #227 ) ;
#263 = PRESENTATION_STYLE_ASSIGNMENT (( #235 ) ) ;
#264 = DIRECTION ( 'NONE',  ( -1.000000000000000000, 0.000000000000000000, 0.000000000000000000 ) ) ;
#265 =( NAMED_UNIT ( * ) PLANE_ANGLE_UNIT ( ) SI_UNIT ( $, .RADIAN. ) );
#266 = SURFACE_SIDE_STYLE ('',( #133 ) ) ;
#267 = DIRECTION ( 'NONE',  ( -0.000000000000000000, -1.000000000000000000, -0.000000000000000000 ) ) ;
#268 =( LENGTH_UNIT ( ) NAMED_UNIT ( * ) SI_UNIT ( .MILLI., .METRE. ) );
#269 = AXIS2_PLACEMENT_3D ( 'NONE', #362, #220, #157 ) ;
#270 = DIRECTION ( 'NONE',  ( -1.000000000000000000, 0.000000000000000000, 0.000000000000000000 ) ) ;
#271 = ORIENTED_EDGE ( 'NONE', *, *, #25, .T. ) ;
#272 = VERTEX_POINT ( 'NONE', #278 ) ;
#273 = FILL_AREA_STYLE ('',( #256 ) ) ;
#274 =( NAMED_UNIT ( * ) PLANE_ANGLE_UNIT ( ) SI_UNIT ( $, .RADIAN. ) );
#275 =( NAMED_UNIT ( * ) SI_UNIT ( $, .STERADIAN. ) SOLID_ANGLE_UNIT ( ) );
#276 = SURFACE_STYLE_FILL_AREA ( #55 ) ;
#277 = VERTEX_POINT ( 'NONE', #62 ) ;
#278 = CARTESIAN_POINT ( 'NONE',  ( 0.000000000000000000, 0.000000000000000000, -5.000000000000000000 ) ) ;
#279 = PRESENTATION_LAYER_ASSIGNMENT (  '', '', ( #74 ) ) ;
#280 = STYLED_ITEM ( 'NONE', ( #207 ), #336 ) ;
#281 = ORIENTED_EDGE ( 'NONE', *, *, #79, .F. ) ;
#282 = DIRECTION ( 'NONE',  ( 0.000000000000000000, 0.000000000000000000, -1.000000000000000000 ) ) ;
#283 = VECTOR ( 'NONE', #42, 1000.000000000000000 ) ;
#284 = CARTESIAN_POINT ( 'NONE',  ( 0.000000000000000000, 0.000000000000000000, 0.000000000000000000 ) ) ;
#285 = VERTEX_POINT ( 'NONE', #33 ) ;
#286 = CARTESIAN_POINT ( 'NONE',  ( 6.123233995736762930E-15, 75.00000000000000000, 0.000000000000000000 ) ) ;
#287 = AXIS2_PLACEMENT_3D ( 'NONE', #251, #342, #24 ) ;
#288 = STYLED_ITEM ( 'NONE', ( #83 ), #230 ) ;
#289 = ORIENTED_EDGE ( 'NONE', *, *, #20, .F. ) ;
#290 = ORIENTED_EDGE ( 'NONE', *, *, #319, .F. ) ;
#291 = DIRECTION ( 'NONE',  ( -0.000000000000000000, -1.000000000000000000, -0.000000000000000000 ) ) ;
#292 = DIRECTION ( 'NONE',  ( 0.000000000000000000, 0.000000000000000000, -1.000000000000000000 ) ) ;
#293 = LINE ( 'NONE', #16, #360 ) ;
#294 = PRESENTATION_STYLE_ASSIGNMENT (( #300 ) ) ;
#295 =( GEOMETRIC_REPRESENTATION_CONTEXT ( 3 ) GLOBAL_UNCERTAINTY_ASSIGNED_CONTEXT ( ( #37 ) ) GLOBAL_UNIT_ASSIGNED_CONTEXT ( ( #202, #259, #3 ) ) REPRESENTATION_CONTEXT ( 'NONE', 'WORKASPACE' ) );
#296 = DIRECTION ( 'NONE',  ( 0.000000000000000000, -0.000000000000000000, 1.000000000000000000 ) ) ;
#297 = APPLICATION_CONTEXT ( 'automotive_design' ) ;
#298 = PRESENTATION_STYLE_ASSIGNMENT (( #357 ) ) ;
#299 = SURFACE_SIDE_STYLE ('',( #137 ) ) ;
#300 = SURFACE_STYLE_USAGE ( .BOTH. , #50 ) ;
#301 = UNCERTAINTY_MEASURE_WITH_UNIT (LENGTH_MEASURE( 1.000000000000000082E-05 ), #268, 'distance_accuracy_value', 'NONE');
#302 = AXIS2_PLACEMENT_3D ( 'NONE', #210, #63, #40 ) ;
#303 = CARTESIAN_POINT ( 'NONE',  ( 0.000000000000000000, 30.00000000000000000, 0.000000000000000000 ) ) ;
#304 = CARTESIAN_POINT ( 'NONE',  ( 0.000000000000000000, 1.000000000000000000, 0.000000000000000000 ) ) ;
#305 = ORIENTED_EDGE ( 'NONE', *, *, #142, .F. ) ;
#306 = EDGE_CURVE ( 'NONE', #123, #211, #36, .T. ) ;
#307 = CARTESIAN_POINT ( 'NONE',  ( 0.000000000000000000, 0.000000000000000000, -6.000000000000000000 ) ) ;
#308 = ORIENTED_EDGE ( 'NONE', *, *, #87, .F. ) ;
#309 =( LENGTH_UNIT ( ) NAMED_UNIT ( * ) SI_UNIT ( .MILLI., .METRE. ) );
#310 = VERTEX_POINT ( 'NONE', #233 ) ;
#311 = ADVANCED_FACE ( 'NONE', ( #38 ), #318, .T. ) ;
#312 = EDGE_LOOP ( 'NONE', ( #177, #8 ) ) ;
#313 = SURFACE_STYLE_FILL_AREA ( #260 ) ;
#314 = STYLED_ITEM ( 'NONE', ( #192 ), #163 ) ;
#315 = UNCERTAINTY_MEASURE_WITH_UNIT (LENGTH_MEASURE( 1.000000000000000082E-05 ), #31, 'distance_accuracy_value', 'NONE');
#316 =( NAMED_UNIT ( * ) PLANE_ANGLE_UNIT ( ) SI_UNIT ( $, .RADIAN. ) );
#317 = EDGE_LOOP ( 'NONE', ( #100, #169, #351, #164 ) ) ;
#318 = CYLINDRICAL_SURFACE ( 'NONE', #75, 5.999999999999994671 ) ;
#319 = EDGE_CURVE ( 'NONE', #198, #123, #167, .T. ) ;
#320 = ORIENTED_EDGE ( 'NONE', *, *, #14, .F. ) ;
#321 = CARTESIAN_POINT ( 'NONE',  ( 0.000000000000000000, 30.00000000000000000, 0.000000000000000000 ) ) ;
#322 = CIRCLE ( 'NONE', #197, 6.000000000000000000 ) ;
#323 = ORIENTED_EDGE ( 'NONE', *, *, #14, .T. ) ;
#324 = DIRECTION ( 'NONE',  ( -0.000000000000000000, -1.000000000000000000, -0.000000000000000000 ) ) ;
#325 = FACE_OUTER_BOUND ( 'NONE', #64, .T. ) ;
#326 = DIRECTION ( 'NONE',  ( 0.000000000000000000, 0.000000000000000000, -1.000000000000000000 ) ) ;
#327 =( LENGTH_UNIT ( ) NAMED_UNIT ( * ) SI_UNIT ( .MILLI., .METRE. ) );
#328 = FILL_AREA_STYLE ('',( #333 ) ) ;
#329 = DIRECTION ( 'NONE',  ( 1.000000000000000000, 0.000000000000000000, 0.000000000000000000 ) ) ;
#330 = CARTESIAN_POINT ( 'NONE',  ( 0.000000000000000000, 0.000000000000000000, 0.000000000000000000 ) ) ;
#331 = FILL_AREA_STYLE ('',( #188 ) ) ;
#332 = MECHANICAL_DESIGN_GEOMETRIC_PRESENTATION_REPRESENTATION (  '', ( #74 ), #258 ) ;
#333 = FILL_AREA_STYLE_COLOUR ( '', #228 ) ;
#334 = SURFACE_STYLE_FILL_AREA ( #13 ) ;
#335 = PRESENTATION_STYLE_ASSIGNMENT (( #68 ) ) ;
#336 = MANIFOLD_SOLID_BREP ( 'Revolve - Cutting Edge', #32 ) ;
#337 = DIRECTION ( 'NONE',  ( 1.560495851798313744E-17, 1.000000000000000000, -0.000000000000000000 ) ) ;
#338 = SURFACE_STYLE_USAGE ( .BOTH. , #51 ) ;
#339 = SURFACE_STYLE_USAGE ( .BOTH. , #299 ) ;
#340 = ADVANCED_FACE ( 'NONE', ( #92 ), #127, .T. ) ;
#341 = CARTESIAN_POINT ( 'NONE',  ( 0.000000000000000000, 0.000000000000000000, 0.000000000000000000 ) ) ;
#342 = DIRECTION ( 'NONE',  ( -0.000000000000000000, -1.000000000000000000, -0.000000000000000000 ) ) ;
#343 = FACE_OUTER_BOUND ( 'NONE', #46, .T. ) ;
#344 = DIRECTION ( 'NONE',  ( -0.000000000000000000, -1.000000000000000000, -0.000000000000000000 ) ) ;
#345 =( GEOMETRIC_REPRESENTATION_CONTEXT ( 3 ) GLOBAL_UNCERTAINTY_ASSIGNED_CONTEXT ( ( #234 ) ) GLOBAL_UNIT_ASSIGNED_CONTEXT ( ( #54, #120, #115 ) ) REPRESENTATION_CONTEXT ( 'NONE', 'WORKASPACE' ) );
#346 = FACE_OUTER_BOUND ( 'NONE', #208, .T. ) ;
#347 = DIRECTION ( 'NONE',  ( 1.560495851798313744E-17, 1.000000000000000000, -0.000000000000000000 ) ) ;
#348 = ORIENTED_EDGE ( 'NONE', *, *, #222, .F. ) ;
#349 = ORIENTED_EDGE ( 'NONE', *, *, #365, .F. ) ;
#350 = DIRECTION ( 'NONE',  ( 1.560495851798313744E-17, 1.000000000000000000, -0.000000000000000000 ) ) ;
#351 = ORIENTED_EDGE ( 'NONE', *, *, #306, .T. ) ;
#352 = CARTESIAN_POINT ( 'NONE',  ( 0.000000000000000000, 1.000000000000000000, -6.000000000000000000 ) ) ;
#353 = VERTEX_POINT ( 'NONE', #352 ) ;
#354 = DIRECTION ( 'NONE',  ( -1.000000000000000000, 0.000000000000000000, 0.000000000000000000 ) ) ;
#355 = MECHANICAL_DESIGN_GEOMETRIC_PRESENTATION_REPRESENTATION (  '', ( #59 ), #183 ) ;
#356 = CIRCLE ( 'NONE', #34, 5.999999999999993783 ) ;
#357 = SURFACE_STYLE_USAGE ( .BOTH. , #131 ) ;
#358 = DIRECTION ( 'NONE',  ( -0.000000000000000000, -1.000000000000000000, -0.000000000000000000 ) ) ;
#359 = CARTESIAN_POINT ( 'NONE',  ( 5.421010862427522170E-15, 30.00000000000000000, 0.000000000000000000 ) ) ;
#360 = VECTOR ( 'NONE', #358, 1000.000000000000000 ) ;
#361 = AXIS2_PLACEMENT_3D ( 'NONE', #341, #195, #29 ) ;
#362 = CARTESIAN_POINT ( 'NONE',  ( 6.123233995736762930E-15, 75.00000000000000000, 0.000000000000000000 ) ) ;
#363 = ADVANCED_FACE ( 'NONE', ( #346 ), #98, .F. ) ;
#364 = DIRECTION ( 'NONE',  ( 0.000000000000000000, 1.000000000000000000, 0.000000000000000000 ) ) ;
#365 = EDGE_CURVE ( 'NONE', #211, #180, #356, .T. ) ;
#366 = COLOUR_RGB ( '',1.000000000000000000, 0.000000000000000000, 0.000000000000000000 ) ;
#367 = PRESENTATION_LAYER_ASSIGNMENT (  '', '', ( #288 ) ) ;
#368 = FILL_AREA_STYLE_COLOUR ( '', #168 ) ;
#369 = SURFACE_SIDE_STYLE ('',( #276 ) ) ;
#370 = ORIENTED_EDGE ( 'NONE', *, *, #149, .T. ) ;
ENDSEC;
END-ISO-10303-21;
