ISO-10303-21;
HEADER;
FILE_DESCRIPTION (( 'STEP AP214' ),
    '1' );
FILE_NAME ('Micro_MMBM-010-11.STEP',
    '2021-09-03T16:25:13',
    ( '' ),
    ( '' ),
    'SwSTEP 2.0',
    'SolidWorks 2020',
    '' );
FILE_SCHEMA (( 'AUTOMOTIVE_DESIGN' ));
ENDSEC;

DATA;
#1 = DIRECTION ( 'NONE',  ( -0.0000000000000000000, -0.0000000000000000000, -1.000000000000000000 ) ) ;
#2 = DIRECTION ( 'NONE',  ( -0.1736481776669301647, 0.0000000000000000000, -0.9848077530122080203 ) ) ;
#3 = AXIS2_PLACEMENT_3D ( 'NONE', #138, #230, #85 ) ;
#4 = ADVANCED_FACE ( 'NONE', ( #116 ), #185, .T. ) ;
#5 = DIRECTION ( 'NONE',  ( -0.0000000000000000000, -0.0000000000000000000, -1.000000000000000000 ) ) ;
#6 = FACE_OUTER_BOUND ( 'NONE', #170, .T. ) ;
#7 = CARTESIAN_POINT ( 'NONE',  ( 0.0000000000000000000, 0.0000000000000000000, 0.03937000000000000222 ) ) ;
#8 = EDGE_CURVE ( 'NONE', #155, #163, #90, .T. ) ;
#9 = CARTESIAN_POINT ( 'NONE',  ( 0.0000000000000000000, 0.0000000000000000000, 0.04493937739224183880 ) ) ;
#10 = VECTOR ( 'NONE', #109, 39.37007874015748143 ) ;
#11 = CIRCLE ( 'NONE', #137, 0.1181100000000000066 ) ;
#12 = FILL_AREA_STYLE ('',( #72 ) ) ;
#13 = ORIENTED_EDGE ( 'NONE', *, *, #100, .T. ) ;
#14 = EDGE_CURVE ( 'NONE', #227, #257, #207, .T. ) ;
#15 = CARTESIAN_POINT ( 'NONE',  ( 0.01870100000000002663, 2.290211979085468414E-18, 0.0000000000000000000 ) ) ;
#16 = ORIENTED_EDGE ( 'NONE', *, *, #94, .T. ) ;
#17 = VERTEX_POINT ( 'NONE', #89 ) ;
#18 = AXIS2_PLACEMENT_3D ( 'NONE', #354, #61, #183 ) ;
#19 = CARTESIAN_POINT ( 'NONE',  ( -0.1181100000000000066, 0.0000000000000000000, 2.244094000000000033 ) ) ;
#20 = EDGE_LOOP ( 'NONE', ( #193, #73, #287, #310 ) ) ;
#21 = EDGE_CURVE ( 'NONE', #155, #341, #344, .T. ) ;
#22 = VERTEX_POINT ( 'NONE', #379 ) ;
#23 = CARTESIAN_POINT ( 'NONE',  ( -0.1031100000000002570, 0.0000000000000000000, 2.244094000000000033 ) ) ;
#24 = VECTOR ( 'NONE', #277, 39.37007874015748143 ) ;
#25 =( LENGTH_UNIT ( ) NAMED_UNIT ( * ) SI_UNIT ( $, .METRE. ) );
#26 = FACE_OUTER_BOUND ( 'NONE', #333, .T. ) ;
#27 = ORIENTED_EDGE ( 'NONE', *, *, #222, .T. ) ;
#28 = DIRECTION ( 'NONE',  ( -1.000000000000000000, 0.0000000000000000000, 0.0000000000000000000 ) ) ;
#29 = APPLICATION_PROTOCOL_DEFINITION ( 'draft international standard', 'automotive_design', 1998, #299 ) ;
#30 = DIRECTION ( 'NONE',  ( -1.000000000000000000, 0.0000000000000000000, 0.0000000000000000000 ) ) ;
#31 = ORIENTED_EDGE ( 'NONE', *, *, #329, .T. ) ;
#32 = CARTESIAN_POINT ( 'NONE',  ( 0.01968303149999999294, 2.410476152399151743E-18, 0.0000000000000000000 ) ) ;
#33 = ADVANCED_FACE ( 'NONE', ( #295, #26 ), #236, .T. ) ;
#34 = DIRECTION ( 'NONE',  ( -1.000000000000000000, 0.0000000000000000000, 0.0000000000000000000 ) ) ;
#35 = CIRCLE ( 'NONE', #18, 0.1031100000000002570 ) ;
#36 = CARTESIAN_POINT ( 'NONE',  ( 0.1181100000000000066, 1.446430334472939084E-17, 2.229093999999999465 ) ) ;
#37 = DIRECTION ( 'NONE',  ( -1.000000000000000000, 0.0000000000000000000, 0.0000000000000000000 ) ) ;
#38 = CARTESIAN_POINT ( 'NONE',  ( 0.0000000000000000000, 0.0000000000000000000, 0.0000000000000000000 ) ) ;
#39 = DIRECTION ( 'NONE',  ( -1.000000000000000000, 0.0000000000000000000, 0.0000000000000000000 ) ) ;
#40 = COLOUR_RGB ( '',0.7921568627450980005, 0.8196078431372548767, 0.9333333333333333481 ) ;
#41 = SURFACE_SIDE_STYLE ('',( #258 ) ) ;
#42 = ORIENTED_EDGE ( 'NONE', *, *, #220, .T. ) ;
#43 = PRODUCT_DEFINITION_CONTEXT ( 'detailed design', #299, 'design' ) ;
#44 = CARTESIAN_POINT ( 'NONE',  ( 0.0000000000000000000, 0.0000000000000000000, 0.03937000000000000222 ) ) ;
#45 = ORIENTED_EDGE ( 'NONE', *, *, #8, .T. ) ;
#46 = ORIENTED_EDGE ( 'NONE', *, *, #14, .T. ) ;
#47 =( GEOMETRIC_REPRESENTATION_CONTEXT ( 3 ) GLOBAL_UNCERTAINTY_ASSIGNED_CONTEXT ( ( #74 ) ) GLOBAL_UNIT_ASSIGNED_CONTEXT ( ( #88, #320, #265 ) ) REPRESENTATION_CONTEXT ( 'NONE', 'WORKASPACE' ) );
#48 = CARTESIAN_POINT ( 'NONE',  ( 0.01870100000000005439, 2.290211979085471495E-18, 0.4330709999999999837 ) ) ;
#49 = DIRECTION ( 'NONE',  ( 1.000000000000000000, 0.0000000000000000000, 0.0000000000000000000 ) ) ;
#50 = EDGE_LOOP ( 'NONE', ( #105, #16, #278, #70 ) ) ;
#51 = EDGE_CURVE ( 'NONE', #17, #113, #165, .T. ) ;
#52 = PRODUCT_DEFINITION_FORMATION_WITH_SPECIFIED_SOURCE ( 'ANY', '', #366, .NOT_KNOWN. ) ;
#53 = CARTESIAN_POINT ( 'NONE',  ( 0.0000000000000000000, 0.0000000000000000000, 2.244094000000000033 ) ) ;
#54 = ORIENTED_EDGE ( 'NONE', *, *, #288, .F. ) ;
#55 = EDGE_CURVE ( 'NONE', #341, #196, #321, .T. ) ;
#56 = DIRECTION ( 'NONE',  ( 0.0000000000000000000, 0.0000000000000000000, -1.000000000000000000 ) ) ;
#57 = ORIENTED_EDGE ( 'NONE', *, *, #51, .F. ) ;
#58 = VECTOR ( 'NONE', #174, 39.37007874015748854 ) ;
#59 = AXIS2_PLACEMENT_3D ( 'NONE', #148, #297, #34 ) ;
#60 = CARTESIAN_POINT ( 'NONE',  ( 0.0000000000000000000, 0.0000000000000000000, 0.04493937739224183880 ) ) ;
#61 = DIRECTION ( 'NONE',  ( 0.0000000000000000000, 0.0000000000000000000, 1.000000000000000000 ) ) ;
#62 = DIRECTION ( 'NONE',  ( -0.0000000000000000000, -0.0000000000000000000, -1.000000000000000000 ) ) ;
#63 = AXIS2_PLACEMENT_3D ( 'NONE', #171, #115, #173 ) ;
#64 = DIRECTION ( 'NONE',  ( -1.000000000000000000, 0.0000000000000000000, 0.0000000000000000000 ) ) ;
#65 = DIRECTION ( 'NONE',  ( -0.0000000000000000000, -0.0000000000000000000, -1.000000000000000000 ) ) ;
#66 = LINE ( 'NONE', #154, #147 ) ;
#67 = FACE_OUTER_BOUND ( 'NONE', #358, .T. ) ;
#68 = VECTOR ( 'NONE', #172, 39.37007874015748854 ) ;
#69 = AXIS2_PLACEMENT_3D ( 'NONE', #9, #62, #352 ) ;
#70 = ORIENTED_EDGE ( 'NONE', *, *, #279, .F. ) ;
#71 = ADVANCED_FACE ( 'NONE', ( #136 ), #240, .T. ) ;
#72 = FILL_AREA_STYLE_COLOUR ( '', #40 ) ;
#73 = ORIENTED_EDGE ( 'NONE', *, *, #205, .F. ) ;
#74 = UNCERTAINTY_MEASURE_WITH_UNIT (LENGTH_MEASURE( 1.000000000000000082E-05 ), #88, 'distance_accuracy_value', 'NONE');
#75 = CARTESIAN_POINT ( 'NONE',  ( -0.01870100000000005092, 0.0000000000000000000, 0.4330709999999999837 ) ) ;
#76 = ORIENTED_EDGE ( 'NONE', *, *, #199, .F. ) ;
#77 = DIRECTION ( 'NONE',  ( -1.000000000000000000, 0.0000000000000000000, 0.0000000000000000000 ) ) ;
#78 = VECTOR ( 'NONE', #1, 39.37007874015748143 ) ;
#79 = ORIENTED_EDGE ( 'NONE', *, *, #356, .F. ) ;
#80 = CIRCLE ( 'NONE', #378, 0.01968303149999999294 ) ;
#81 = SHAPE_DEFINITION_REPRESENTATION ( #252, #283 ) ;
#82 = EDGE_LOOP ( 'NONE', ( #284, #219 ) ) ;
#83 = PRESENTATION_STYLE_ASSIGNMENT (( #347 ) ) ;
#84 = CARTESIAN_POINT ( 'NONE',  ( 0.0000000000000000000, 0.0000000000000000000, 2.229093999999999465 ) ) ;
#85 = DIRECTION ( 'NONE',  ( -1.000000000000000000, 0.0000000000000000000, 0.0000000000000000000 ) ) ;
#86 = EDGE_CURVE ( 'NONE', #257, #221, #376, .T. ) ;
#87 = DIRECTION ( 'NONE',  ( 0.0000000000000000000, 0.0000000000000000000, 1.000000000000000000 ) ) ;
#88 =( CONVERSION_BASED_UNIT ( 'INCH', #164 ) LENGTH_UNIT ( ) NAMED_UNIT ( #362 ) );
#89 = CARTESIAN_POINT ( 'NONE',  ( -0.01968303149999999294, 0.0000000000000000000, 0.03937000000000000222 ) ) ;
#90 = LINE ( 'NONE', #342, #68 ) ;
#91 = PRESENTATION_LAYER_ASSIGNMENT (  '', '', ( #160 ) ) ;
#92 = CARTESIAN_POINT ( 'NONE',  ( 0.0000000000000000000, 0.0000000000000000000, 0.4330709999999999837 ) ) ;
#93 = CARTESIAN_POINT ( 'NONE',  ( 0.0000000000000000000, 0.0000000000000000000, 2.229093999999999465 ) ) ;
#94 = EDGE_CURVE ( 'NONE', #257, #17, #218, .T. ) ;
#95 = CARTESIAN_POINT ( 'NONE',  ( 0.1031100000000002570, 1.354581824536888722E-17, 2.244094000000000033 ) ) ;
#96 = AXIS2_PLACEMENT_3D ( 'NONE', #92, #330, #242 ) ;
#97 = CARTESIAN_POINT ( 'NONE',  ( 0.0000000000000000000, 0.0000000000000000000, 2.244094000000000033 ) ) ;
#98 = DIRECTION ( 'NONE',  ( -0.0000000000000000000, -0.0000000000000000000, -1.000000000000000000 ) ) ;
#99 = DIRECTION ( 'NONE',  ( -0.0000000000000000000, -0.0000000000000000000, -1.000000000000000000 ) ) ;
#100 = EDGE_CURVE ( 'NONE', #163, #196, #175, .T. ) ;
#101 = EDGE_LOOP ( 'NONE', ( #369, #360, #319, #158 ) ) ;
#102 = EDGE_LOOP ( 'NONE', ( #308, #45, #316, #117 ) ) ;
#103 = ORIENTED_EDGE ( 'NONE', *, *, #340, .F. ) ;
#104 = FACE_OUTER_BOUND ( 'NONE', #82, .T. ) ;
#105 = ORIENTED_EDGE ( 'NONE', *, *, #86, .F. ) ;
#106 = APPLICATION_PROTOCOL_DEFINITION ( 'draft international standard', 'automotive_design', 1998, #243 ) ;
#107 = ORIENTED_EDGE ( 'NONE', *, *, #225, .T. ) ;
#108 = MECHANICAL_DESIGN_GEOMETRIC_PRESENTATION_REPRESENTATION (  '', ( #339 ), #47 ) ;
#109 = DIRECTION ( 'NONE',  ( -0.0000000000000000000, -0.0000000000000000000, -1.000000000000000000 ) ) ;
#110 = ADVANCED_FACE ( 'NONE', ( #200 ), #111, .T. ) ;
#111 = CYLINDRICAL_SURFACE ( 'NONE', #3, 0.01968303149999999294 ) ;
#112 =( NAMED_UNIT ( * ) SI_UNIT ( $, .STERADIAN. ) SOLID_ANGLE_UNIT ( ) );
#113 = VERTEX_POINT ( 'NONE', #204 ) ;
#114 = CONICAL_SURFACE ( 'NONE', #168, 0.01968303149999999294, 0.1745329251994327535 ) ;
#115 = DIRECTION ( 'NONE',  ( 0.0000000000000000000, 0.0000000000000000000, 1.000000000000000000 ) ) ;
#116 = FACE_OUTER_BOUND ( 'NONE', #20, .T. ) ;
#117 = ORIENTED_EDGE ( 'NONE', *, *, #55, .F. ) ;
#118 = FACE_OUTER_BOUND ( 'NONE', #368, .T. ) ;
#119 = CIRCLE ( 'NONE', #268, 0.1181100000000000066 ) ;
#120 = CARTESIAN_POINT ( 'NONE',  ( 0.01870100000000000581, 2.350344065742308730E-18, 0.04493937739224183880 ) ) ;
#121 = DIRECTION ( 'NONE',  ( -0.0000000000000000000, -0.0000000000000000000, -1.000000000000000000 ) ) ;
#122 = ADVANCED_FACE ( 'NONE', ( #202 ), #318, .T. ) ;
#123 = DIRECTION ( 'NONE',  ( -0.0000000000000000000, -0.0000000000000000000, -1.000000000000000000 ) ) ;
#124 = LINE ( 'NONE', #351, #153 ) ;
#125 = ORIENTED_EDGE ( 'NONE', *, *, #288, .T. ) ;
#126 = ORIENTED_EDGE ( 'NONE', *, *, #264, .F. ) ;
#127 = ADVANCED_FACE ( 'NONE', ( #263 ), #346, .F. ) ;
#128 = LENGTH_MEASURE_WITH_UNIT ( LENGTH_MEASURE( 0.02539999999999999897 ), #184 );
#129 = ADVANCED_FACE ( 'NONE', ( #6 ), #211, .T. ) ;
#130 = ORIENTED_EDGE ( 'NONE', *, *, #279, .T. ) ;
#131 = DIRECTION ( 'NONE',  ( 0.0000000000000000000, 0.0000000000000000000, 1.000000000000000000 ) ) ;
#132 = ORIENTED_EDGE ( 'NONE', *, *, #228, .F. ) ;
#133 = CARTESIAN_POINT ( 'NONE',  ( 0.0000000000000000000, 0.0000000000000000000, 0.0000000000000000000 ) ) ;
#134 = VERTEX_POINT ( 'NONE', #144 ) ;
#135 = PRODUCT_RELATED_PRODUCT_CATEGORY ( 'part', '', ( #366 ) ) ;
#136 = FACE_OUTER_BOUND ( 'NONE', #102, .T. ) ;
#137 = AXIS2_PLACEMENT_3D ( 'NONE', #298, #180, #64 ) ;
#138 = CARTESIAN_POINT ( 'NONE',  ( 0.0000000000000000000, 0.0000000000000000000, 0.0000000000000000000 ) ) ;
#139 = DIRECTION ( 'NONE',  ( -1.000000000000000000, 0.0000000000000000000, 0.0000000000000000000 ) ) ;
#140 = FILL_AREA_STYLE ('',( #231 ) ) ;
#141 = CARTESIAN_POINT ( 'NONE',  ( 0.0000000000000000000, 0.0000000000000000000, 0.03937000000000000222 ) ) ;
#142 = CIRCLE ( 'NONE', #186, 0.01968303149999999294 ) ;
#143 = EDGE_LOOP ( 'NONE', ( #31, #335, #126, #57 ) ) ;
#144 = CARTESIAN_POINT ( 'NONE',  ( -0.01870100000000000581, 0.0000000000000000000, 0.04493937739224183880 ) ) ;
#145 = EDGE_CURVE ( 'NONE', #163, #285, #124, .T. ) ;
#146 = FACE_OUTER_BOUND ( 'NONE', #338, .T. ) ;
#147 = VECTOR ( 'NONE', #192, 39.37007874015748143 ) ;
#148 = CARTESIAN_POINT ( 'NONE',  ( 0.0000000000000000000, 0.0000000000000000000, 0.0000000000000000000 ) ) ;
#149 = EDGE_CURVE ( 'NONE', #227, #134, #328, .T. ) ;
#150 = FACE_OUTER_BOUND ( 'NONE', #101, .T. ) ;
#151 = DIRECTION ( 'NONE',  ( -1.000000000000000000, 0.0000000000000000000, 0.0000000000000000000 ) ) ;
#152 = AXIS2_PLACEMENT_3D ( 'NONE', #53, #292, #139 ) ;
#153 = VECTOR ( 'NONE', #296, 39.37007874015748143 ) ;
#154 = CARTESIAN_POINT ( 'NONE',  ( -0.01870100000000002663, 0.0000000000000000000, 0.0000000000000000000 ) ) ;
#155 = VERTEX_POINT ( 'NONE', #95 ) ;
#156 = LINE ( 'NONE', #15, #24 ) ;
#157 = ORIENTED_EDGE ( 'NONE', *, *, #222, .F. ) ;
#158 = ORIENTED_EDGE ( 'NONE', *, *, #94, .F. ) ;
#159 = CLOSED_SHELL ( 'NONE', ( #372, #191, #234, #71, #122, #129, #305, #4, #33, #261, #311, #110, #127 ) ) ;
#160 = STYLED_ITEM ( 'NONE', ( #248 ), #303 ) ;
#161 = ORIENTED_EDGE ( 'NONE', *, *, #149, .F. ) ;
#162 = CARTESIAN_POINT ( 'NONE',  ( 0.0000000000000000000, 0.0000000000000000000, 0.4330709999999999837 ) ) ;
#163 = VERTEX_POINT ( 'NONE', #36 ) ;
#164 = LENGTH_MEASURE_WITH_UNIT ( LENGTH_MEASURE( 0.02539999999999999897 ), #25 );
#165 = LINE ( 'NONE', #374, #78 ) ;
#166 = AXIS2_PLACEMENT_3D ( 'NONE', #141, #267, #229 ) ;
#167 = DIRECTION ( 'NONE',  ( -0.0000000000000000000, 0.0000000000000000000, -1.000000000000000000 ) ) ;
#168 = AXIS2_PLACEMENT_3D ( 'NONE', #274, #210, #37 ) ;
#169 = UNCERTAINTY_MEASURE_WITH_UNIT (LENGTH_MEASURE( 1.000000000000000082E-05 ), #363, 'distance_accuracy_value', 'NONE');
#170 = EDGE_LOOP ( 'NONE', ( #255, #13, #125, #251 ) ) ;
#171 = CARTESIAN_POINT ( 'NONE',  ( 0.0000000000000000000, 0.0000000000000000000, 0.0000000000000000000 ) ) ;
#172 = DIRECTION ( 'NONE',  ( 0.7071067811865358044, 8.659560562354788645E-17, -0.7071067811865590080 ) ) ;
#173 = DIRECTION ( 'NONE',  ( 1.000000000000000000, 0.0000000000000000000, 0.0000000000000000000 ) ) ;
#174 = DIRECTION ( 'NONE',  ( 0.1736481776669301647, 2.126576849575769450E-17, -0.9848077530122080203 ) ) ;
#175 = CIRCLE ( 'NONE', #289, 0.1181100000000000066 ) ;
#176 = AXIS2_PLACEMENT_3D ( 'NONE', #162, #189, #216 ) ;
#177 = ORIENTED_EDGE ( 'NONE', *, *, #329, .F. ) ;
#178 = DIRECTION ( 'NONE',  ( 1.000000000000000000, 0.0000000000000000000, 0.0000000000000000000 ) ) ;
#179 = DIRECTION ( 'NONE',  ( 0.0000000000000000000, 0.0000000000000000000, -1.000000000000000000 ) ) ;
#180 = DIRECTION ( 'NONE',  ( -0.0000000000000000000, -0.0000000000000000000, -1.000000000000000000 ) ) ;
#181 = DIRECTION ( 'NONE',  ( -1.000000000000000000, 0.0000000000000000000, 0.0000000000000000000 ) ) ;
#182 = PRODUCT_DEFINITION ( 'UNKNOWN', '', #52, #43 ) ;
#183 = DIRECTION ( 'NONE',  ( 1.000000000000000000, 0.0000000000000000000, 0.0000000000000000000 ) ) ;
#184 =( LENGTH_UNIT ( ) NAMED_UNIT ( * ) SI_UNIT ( $, .METRE. ) );
#185 = CONICAL_SURFACE ( 'NONE', #313, 0.1031100000000002570, 0.7853981633974318477 ) ;
#186 = AXIS2_PLACEMENT_3D ( 'NONE', #247, #209, #357 ) ;
#187 = PLANE ( 'NONE',  #233 ) ;
#188 = ORIENTED_EDGE ( 'NONE', *, *, #356, .T. ) ;
#189 = DIRECTION ( 'NONE',  ( -0.0000000000000000000, -0.0000000000000000000, -1.000000000000000000 ) ) ;
#190 = ORIENTED_EDGE ( 'NONE', *, *, #365, .F. ) ;
#191 = ADVANCED_FACE ( 'NONE', ( #118 ), #302, .T. ) ;
#192 = DIRECTION ( 'NONE',  ( -0.0000000000000000000, -0.0000000000000000000, -1.000000000000000000 ) ) ;
#193 = ORIENTED_EDGE ( 'NONE', *, *, #8, .F. ) ;
#194 =( CONVERSION_BASED_UNIT ( 'INCH', #128 ) LENGTH_UNIT ( ) NAMED_UNIT ( #197 ) );
#195 = MECHANICAL_DESIGN_GEOMETRIC_PRESENTATION_REPRESENTATION (  '', ( #160 ), #246 ) ;
#196 = VERTEX_POINT ( 'NONE', #244 ) ;
#197 = DIMENSIONAL_EXPONENTS ( 1.000000000000000000, 0.0000000000000000000, 0.0000000000000000000, 0.0000000000000000000, 0.0000000000000000000, 0.0000000000000000000, 0.0000000000000000000 ) ;
#198 = ORIENTED_EDGE ( 'NONE', *, *, #264, .T. ) ;
#199 = EDGE_CURVE ( 'NONE', #22, #285, #119, .T. ) ;
#200 = FACE_OUTER_BOUND ( 'NONE', #50, .T. ) ;
#201 = PRODUCT_CONTEXT ( 'NONE', #243, 'mechanical' ) ;
#202 = FACE_OUTER_BOUND ( 'NONE', #364, .T. ) ;
#203 = CONICAL_SURFACE ( 'NONE', #208, 0.01968303149999999294, 0.1745329251994327535 ) ;
#204 = CARTESIAN_POINT ( 'NONE',  ( -0.01968303149999999294, 0.0000000000000000000, 0.0000000000000000000 ) ) ;
#205 = EDGE_CURVE ( 'NONE', #341, #155, #35, .T. ) ;
#206 = CARTESIAN_POINT ( 'NONE',  ( 0.01870100000000005092, 0.0000000000000000000, 0.4330709999999999837 ) ) ;
#207 = LINE ( 'NONE', #232, #58 ) ;
#208 = AXIS2_PLACEMENT_3D ( 'NONE', #7, #65, #275 ) ;
#209 = DIRECTION ( 'NONE',  ( -0.0000000000000000000, -0.0000000000000000000, -1.000000000000000000 ) ) ;
#210 = DIRECTION ( 'NONE',  ( -0.0000000000000000000, -0.0000000000000000000, -1.000000000000000000 ) ) ;
#211 = CYLINDRICAL_SURFACE ( 'NONE', #350, 0.1181100000000000066 ) ;
#212 = AXIS2_PLACEMENT_3D ( 'NONE', #206, #167, #30 ) ;
#213 = AXIS2_PLACEMENT_3D ( 'NONE', #280, #250, #359 ) ;
#214 = DIRECTION ( 'NONE',  ( 0.0000000000000000000, 0.0000000000000000000, 1.000000000000000000 ) ) ;
#215 = DIRECTION ( 'NONE',  ( -0.0000000000000000000, -0.0000000000000000000, -1.000000000000000000 ) ) ;
#216 = DIRECTION ( 'NONE',  ( -1.000000000000000000, 0.0000000000000000000, 0.0000000000000000000 ) ) ;
#217 = ORIENTED_EDGE ( 'NONE', *, *, #145, .T. ) ;
#218 = CIRCLE ( 'NONE', #166, 0.01968303149999999294 ) ;
#219 = ORIENTED_EDGE ( 'NONE', *, *, #21, .T. ) ;
#220 = EDGE_CURVE ( 'NONE', #285, #22, #11, .T. ) ;
#221 = VERTEX_POINT ( 'NONE', #32 ) ;
#222 = EDGE_CURVE ( 'NONE', #134, #227, #334, .T. ) ;
#223 =( NAMED_UNIT ( * ) SI_UNIT ( $, .STERADIAN. ) SOLID_ANGLE_UNIT ( ) );
#224 = ORIENTED_EDGE ( 'NONE', *, *, #340, .T. ) ;
#225 = EDGE_CURVE ( 'NONE', #196, #163, #266, .T. ) ;
#226 = AXIS2_PLACEMENT_3D ( 'NONE', #93, #179, #178 ) ;
#227 = VERTEX_POINT ( 'NONE', #120 ) ;
#228 = EDGE_CURVE ( 'NONE', #312, #294, #300, .T. ) ;
#229 = DIRECTION ( 'NONE',  ( -1.000000000000000000, 0.0000000000000000000, 0.0000000000000000000 ) ) ;
#230 = DIRECTION ( 'NONE',  ( -0.0000000000000000000, -0.0000000000000000000, -1.000000000000000000 ) ) ;
#231 = FILL_AREA_STYLE_COLOUR ( '', #253 ) ;
#232 = CARTESIAN_POINT ( 'NONE',  ( 0.01968303149999999294, 2.410476152399151743E-18, 0.03937000000000000222 ) ) ;
#233 = AXIS2_PLACEMENT_3D ( 'NONE', #256, #131, #337 ) ;
#234 = ADVANCED_FACE ( 'NONE', ( #146 ), #114, .T. ) ;
#235 = SURFACE_STYLE_FILL_AREA ( #140 ) ;
#236 = PLANE ( 'NONE',  #212 ) ;
#237 = DIRECTION ( 'NONE',  ( -0.7071067811865358044, 0.0000000000000000000, -0.7071067811865590080 ) ) ;
#238 = EDGE_CURVE ( 'NONE', #134, #17, #325, .T. ) ;
#239 = DIRECTION ( 'NONE',  ( -1.000000000000000000, 0.0000000000000000000, 0.0000000000000000000 ) ) ;
#240 = CONICAL_SURFACE ( 'NONE', #245, 0.1031100000000002570, 0.7853981633974318477 ) ;
#241 =( GEOMETRIC_REPRESENTATION_CONTEXT ( 3 ) GLOBAL_UNCERTAINTY_ASSIGNED_CONTEXT ( ( #169 ) ) GLOBAL_UNIT_ASSIGNED_CONTEXT ( ( #363, #375, #112 ) ) REPRESENTATION_CONTEXT ( 'NONE', 'WORKASPACE' ) );
#242 = DIRECTION ( 'NONE',  ( -1.000000000000000000, 0.0000000000000000000, 0.0000000000000000000 ) ) ;
#243 = APPLICATION_CONTEXT ( 'automotive_design' ) ;
#244 = CARTESIAN_POINT ( 'NONE',  ( -0.1181100000000000066, 0.0000000000000000000, 2.229093999999999465 ) ) ;
#245 = AXIS2_PLACEMENT_3D ( 'NONE', #260, #291, #28 ) ;
#246 =( GEOMETRIC_REPRESENTATION_CONTEXT ( 3 ) GLOBAL_UNCERTAINTY_ASSIGNED_CONTEXT ( ( #293 ) ) GLOBAL_UNIT_ASSIGNED_CONTEXT ( ( #194, #304, #223 ) ) REPRESENTATION_CONTEXT ( 'NONE', 'WORKASPACE' ) );
#247 = CARTESIAN_POINT ( 'NONE',  ( 0.0000000000000000000, 0.0000000000000000000, 0.0000000000000000000 ) ) ;
#248 = PRESENTATION_STYLE_ASSIGNMENT (( #286 ) ) ;
#249 = ORIENTED_EDGE ( 'NONE', *, *, #238, .F. ) ;
#250 = DIRECTION ( 'NONE',  ( -0.0000000000000000000, -0.0000000000000000000, -1.000000000000000000 ) ) ;
#251 = ORIENTED_EDGE ( 'NONE', *, *, #220, .F. ) ;
#252 = PRODUCT_DEFINITION_SHAPE ( 'NONE', 'NONE',  #182 ) ;
#253 = COLOUR_RGB ( '',0.7921568627450980005, 0.8196078431372548767, 0.9333333333333333481 ) ;
#254 = LENGTH_MEASURE_WITH_UNIT ( LENGTH_MEASURE( 0.02539999999999999897 ), #309 );
#255 = ORIENTED_EDGE ( 'NONE', *, *, #145, .F. ) ;
#256 = CARTESIAN_POINT ( 'NONE',  ( 0.0000000000000000000, 0.0000000000000000000, 2.244094000000000033 ) ) ;
#257 = VERTEX_POINT ( 'NONE', #326 ) ;
#258 = SURFACE_STYLE_FILL_AREA ( #12 ) ;
#259 = ORIENTED_EDGE ( 'NONE', *, *, #199, .T. ) ;
#260 = CARTESIAN_POINT ( 'NONE',  ( 0.0000000000000000000, 0.0000000000000000000, 2.244094000000000033 ) ) ;
#261 = ADVANCED_FACE ( 'NONE', ( #150 ), #203, .T. ) ;
#262 = CARTESIAN_POINT ( 'NONE',  ( 0.0000000000000000000, 0.0000000000000000000, 2.244094000000000033 ) ) ;
#263 = FACE_OUTER_BOUND ( 'NONE', #281, .T. ) ;
#264 = EDGE_CURVE ( 'NONE', #113, #221, #142, .T. ) ;
#265 =( NAMED_UNIT ( * ) SI_UNIT ( $, .STERADIAN. ) SOLID_ANGLE_UNIT ( ) );
#266 = CIRCLE ( 'NONE', #226, 0.1181100000000000066 ) ;
#267 = DIRECTION ( 'NONE',  ( -0.0000000000000000000, -0.0000000000000000000, -1.000000000000000000 ) ) ;
#268 = AXIS2_PLACEMENT_3D ( 'NONE', #327, #98, #151 ) ;
#269 = DIRECTION ( 'NONE',  ( -1.000000000000000000, 0.0000000000000000000, 0.0000000000000000000 ) ) ;
#270 = CARTESIAN_POINT ( 'NONE',  ( -0.01968303149999999294, 0.0000000000000000000, 0.03937000000000000222 ) ) ;
#271 = CARTESIAN_POINT ( 'NONE',  ( 0.1181100000000000066, 1.446430334472939084E-17, 0.4330709999999999837 ) ) ;
#272 = AXIS2_PLACEMENT_3D ( 'NONE', #324, #123, #239 ) ;
#273 = LINE ( 'NONE', #19, #276 ) ;
#274 = CARTESIAN_POINT ( 'NONE',  ( 0.0000000000000000000, 0.0000000000000000000, 0.03937000000000000222 ) ) ;
#275 = DIRECTION ( 'NONE',  ( -1.000000000000000000, 0.0000000000000000000, 0.0000000000000000000 ) ) ;
#276 = VECTOR ( 'NONE', #314, 39.37007874015748143 ) ;
#277 = DIRECTION ( 'NONE',  ( -0.0000000000000000000, -0.0000000000000000000, -1.000000000000000000 ) ) ;
#278 = ORIENTED_EDGE ( 'NONE', *, *, #51, .T. ) ;
#279 = EDGE_CURVE ( 'NONE', #221, #113, #355, .T. ) ;
#280 = CARTESIAN_POINT ( 'NONE',  ( 0.0000000000000000000, 0.0000000000000000000, 0.0000000000000000000 ) ) ;
#281 = EDGE_LOOP ( 'NONE', ( #198, #130 ) ) ;
#282 = DIMENSIONAL_EXPONENTS ( 1.000000000000000000, 0.0000000000000000000, 0.0000000000000000000, 0.0000000000000000000, 0.0000000000000000000, 0.0000000000000000000, 0.0000000000000000000 ) ;
#283 = ADVANCED_BREP_SHAPE_REPRESENTATION ( 'Micro_MMBM-010-11', ( #303, #63 ), #241 ) ;
#284 = ORIENTED_EDGE ( 'NONE', *, *, #205, .T. ) ;
#285 = VERTEX_POINT ( 'NONE', #271 ) ;
#286 = SURFACE_STYLE_USAGE ( .BOTH. , #41 ) ;
#287 = ORIENTED_EDGE ( 'NONE', *, *, #55, .T. ) ;
#288 = EDGE_CURVE ( 'NONE', #196, #22, #273, .T. ) ;
#289 = AXIS2_PLACEMENT_3D ( 'NONE', #84, #317, #343 ) ;
#290 = AXIS2_PLACEMENT_3D ( 'NONE', #60, #121, #181 ) ;
#291 = DIRECTION ( 'NONE',  ( 0.0000000000000000000, 0.0000000000000000000, -1.000000000000000000 ) ) ;
#292 = DIRECTION ( 'NONE',  ( -0.0000000000000000000, -0.0000000000000000000, -1.000000000000000000 ) ) ;
#293 = UNCERTAINTY_MEASURE_WITH_UNIT (LENGTH_MEASURE( 1.000000000000000082E-05 ), #194, 'distance_accuracy_value', 'NONE');
#294 = VERTEX_POINT ( 'NONE', #48 ) ;
#295 = FACE_BOUND ( 'NONE', #315, .T. ) ;
#296 = DIRECTION ( 'NONE',  ( -0.0000000000000000000, -0.0000000000000000000, -1.000000000000000000 ) ) ;
#297 = DIRECTION ( 'NONE',  ( -0.0000000000000000000, -0.0000000000000000000, -1.000000000000000000 ) ) ;
#298 = CARTESIAN_POINT ( 'NONE',  ( 0.0000000000000000000, 0.0000000000000000000, 0.4330709999999999837 ) ) ;
#299 = APPLICATION_CONTEXT ( 'automotive_design' ) ;
#300 = CIRCLE ( 'NONE', #96, 0.01870100000000005092 ) ;
#301 = DIRECTION ( 'NONE',  ( 1.000000000000000000, 0.0000000000000000000, -0.0000000000000000000 ) ) ;
#302 = CYLINDRICAL_SURFACE ( 'NONE', #272, 0.01870100000000002663 ) ;
#303 = MANIFOLD_SOLID_BREP ( 'Cut-Revolve1', #159 ) ;
#304 =( NAMED_UNIT ( * ) PLANE_ANGLE_UNIT ( ) SI_UNIT ( $, .RADIAN. ) );
#305 = ADVANCED_FACE ( 'NONE', ( #104 ), #187, .T. ) ;
#306 = CIRCLE ( 'NONE', #176, 0.01870100000000005092 ) ;
#307 = CYLINDRICAL_SURFACE ( 'NONE', #213, 0.01968303149999999294 ) ;
#308 = ORIENTED_EDGE ( 'NONE', *, *, #21, .F. ) ;
#309 =( LENGTH_UNIT ( ) NAMED_UNIT ( * ) SI_UNIT ( $, .METRE. ) );
#310 = ORIENTED_EDGE ( 'NONE', *, *, #100, .F. ) ;
#311 = ADVANCED_FACE ( 'NONE', ( #67 ), #367, .T. ) ;
#312 = VERTEX_POINT ( 'NONE', #75 ) ;
#313 = AXIS2_PLACEMENT_3D ( 'NONE', #348, #56, #269 ) ;
#314 = DIRECTION ( 'NONE',  ( -0.0000000000000000000, -0.0000000000000000000, -1.000000000000000000 ) ) ;
#315 = EDGE_LOOP ( 'NONE', ( #132, #103 ) ) ;
#316 = ORIENTED_EDGE ( 'NONE', *, *, #225, .F. ) ;
#317 = DIRECTION ( 'NONE',  ( 0.0000000000000000000, 0.0000000000000000000, -1.000000000000000000 ) ) ;
#318 = CYLINDRICAL_SURFACE ( 'NONE', #152, 0.1181100000000000066 ) ;
#319 = ORIENTED_EDGE ( 'NONE', *, *, #238, .T. ) ;
#320 =( NAMED_UNIT ( * ) PLANE_ANGLE_UNIT ( ) SI_UNIT ( $, .RADIAN. ) );
#321 = LINE ( 'NONE', #23, #370 ) ;
#322 = AXIS2_PLACEMENT_3D ( 'NONE', #38, #214, #301 ) ;
#323 = PRESENTATION_LAYER_ASSIGNMENT (  '', '', ( #339 ) ) ;
#324 = CARTESIAN_POINT ( 'NONE',  ( 0.0000000000000000000, 0.0000000000000000000, 0.0000000000000000000 ) ) ;
#325 = LINE ( 'NONE', #270, #371 ) ;
#326 = CARTESIAN_POINT ( 'NONE',  ( 0.01968303149999999294, 2.410476152399151743E-18, 0.03937000000000000222 ) ) ;
#327 = CARTESIAN_POINT ( 'NONE',  ( 0.0000000000000000000, 0.0000000000000000000, 0.4330709999999999837 ) ) ;
#328 = CIRCLE ( 'NONE', #69, 0.01870100000000000581 ) ;
#329 = EDGE_CURVE ( 'NONE', #17, #257, #80, .T. ) ;
#330 = DIRECTION ( 'NONE',  ( -0.0000000000000000000, -0.0000000000000000000, -1.000000000000000000 ) ) ;
#331 = CARTESIAN_POINT ( 'NONE',  ( -0.1031100000000002570, 0.0000000000000000000, 2.244094000000000033 ) ) ;
#332 = FACE_OUTER_BOUND ( 'NONE', #143, .T. ) ;
#333 = EDGE_LOOP ( 'NONE', ( #259, #42 ) ) ;
#334 = CIRCLE ( 'NONE', #290, 0.01870100000000000581 ) ;
#335 = ORIENTED_EDGE ( 'NONE', *, *, #86, .T. ) ;
#336 = ORIENTED_EDGE ( 'NONE', *, *, #365, .T. ) ;
#337 = DIRECTION ( 'NONE',  ( 1.000000000000000000, 0.0000000000000000000, -0.0000000000000000000 ) ) ;
#338 = EDGE_LOOP ( 'NONE', ( #27, #46, #177, #249 ) ) ;
#339 = STYLED_ITEM ( 'NONE', ( #83 ), #283 ) ;
#340 = EDGE_CURVE ( 'NONE', #294, #312, #306, .T. ) ;
#341 = VERTEX_POINT ( 'NONE', #331 ) ;
#342 = CARTESIAN_POINT ( 'NONE',  ( 0.1031100000000002570, 1.262733314600838667E-17, 2.244094000000000033 ) ) ;
#343 = DIRECTION ( 'NONE',  ( 1.000000000000000000, 0.0000000000000000000, 0.0000000000000000000 ) ) ;
#344 = CIRCLE ( 'NONE', #377, 0.1031100000000002570 ) ;
#345 = SURFACE_SIDE_STYLE ('',( #235 ) ) ;
#346 = PLANE ( 'NONE',  #322 ) ;
#347 = SURFACE_STYLE_USAGE ( .BOTH. , #345 ) ;
#348 = CARTESIAN_POINT ( 'NONE',  ( 0.0000000000000000000, 0.0000000000000000000, 2.244094000000000033 ) ) ;
#349 = ORIENTED_EDGE ( 'NONE', *, *, #228, .T. ) ;
#350 = AXIS2_PLACEMENT_3D ( 'NONE', #97, #5, #353 ) ;
#351 = CARTESIAN_POINT ( 'NONE',  ( 0.1181100000000000066, 1.446430334472939084E-17, 2.244094000000000033 ) ) ;
#352 = DIRECTION ( 'NONE',  ( -1.000000000000000000, 0.0000000000000000000, 0.0000000000000000000 ) ) ;
#353 = DIRECTION ( 'NONE',  ( -1.000000000000000000, 0.0000000000000000000, 0.0000000000000000000 ) ) ;
#354 = CARTESIAN_POINT ( 'NONE',  ( 0.0000000000000000000, 0.0000000000000000000, 2.244094000000000033 ) ) ;
#355 = CIRCLE ( 'NONE', #59, 0.01968303149999999294 ) ;
#356 = EDGE_CURVE ( 'NONE', #312, #134, #66, .T. ) ;
#357 = DIRECTION ( 'NONE',  ( -1.000000000000000000, 0.0000000000000000000, 0.0000000000000000000 ) ) ;
#358 = EDGE_LOOP ( 'NONE', ( #190, #224, #188, #161 ) ) ;
#359 = DIRECTION ( 'NONE',  ( -1.000000000000000000, 0.0000000000000000000, 0.0000000000000000000 ) ) ;
#360 = ORIENTED_EDGE ( 'NONE', *, *, #149, .T. ) ;
#361 = AXIS2_PLACEMENT_3D ( 'NONE', #133, #99, #39 ) ;
#362 = DIMENSIONAL_EXPONENTS ( 1.000000000000000000, 0.0000000000000000000, 0.0000000000000000000, 0.0000000000000000000, 0.0000000000000000000, 0.0000000000000000000, 0.0000000000000000000 ) ;
#363 =( CONVERSION_BASED_UNIT ( 'INCH', #254 ) LENGTH_UNIT ( ) NAMED_UNIT ( #282 ) );
#364 = EDGE_LOOP ( 'NONE', ( #107, #217, #76, #54 ) ) ;
#365 = EDGE_CURVE ( 'NONE', #294, #227, #156, .T. ) ;
#366 = PRODUCT ( 'Micro_MMBM-010-11', 'Micro_MMBM-010-11', '', ( #201 ) ) ;
#367 = CYLINDRICAL_SURFACE ( 'NONE', #361, 0.01870100000000002663 ) ;
#368 = EDGE_LOOP ( 'NONE', ( #349, #336, #157, #79 ) ) ;
#369 = ORIENTED_EDGE ( 'NONE', *, *, #14, .F. ) ;
#370 = VECTOR ( 'NONE', #237, 39.37007874015748854 ) ;
#371 = VECTOR ( 'NONE', #2, 39.37007874015748854 ) ;
#372 = ADVANCED_FACE ( 'NONE', ( #332 ), #307, .T. ) ;
#373 = CARTESIAN_POINT ( 'NONE',  ( 0.01968303149999999294, 2.410476152399151743E-18, 0.0000000000000000000 ) ) ;
#374 = CARTESIAN_POINT ( 'NONE',  ( -0.01968303149999999294, 0.0000000000000000000, 0.0000000000000000000 ) ) ;
#375 =( NAMED_UNIT ( * ) PLANE_ANGLE_UNIT ( ) SI_UNIT ( $, .RADIAN. ) );
#376 = LINE ( 'NONE', #373, #10 ) ;
#377 = AXIS2_PLACEMENT_3D ( 'NONE', #262, #87, #49 ) ;
#378 = AXIS2_PLACEMENT_3D ( 'NONE', #44, #215, #77 ) ;
#379 = CARTESIAN_POINT ( 'NONE',  ( -0.1181100000000000066, 0.0000000000000000000, 0.4330709999999999837 ) ) ;
ENDSEC;
END-ISO-10303-21;
