ISO-10303-21;
HEADER;
FILE_DESCRIPTION (( 'STEP AP214' ),
    '1' );
FILE_NAME ('81455.STEP',
    '2023-06-30T22:25:47',
    ( '' ),
    ( '' ),
    'SwSTEP 2.0',
    'SolidWorks 2023',
    '' );
FILE_SCHEMA (( 'AUTOMOTIVE_DESIGN' ));
ENDSEC;

DATA;
#1 = MECHANICAL_DESIGN_GEOMETRIC_PRESENTATION_REPRESENTATION (  '', ( #353 ), #287 ) ;
#2 = CARTESIAN_POINT ( 'NONE',  ( -7.654042494670954463E-18, 0.06249999999999995143, 0.000000000000000000 ) ) ;
#3 = FILL_AREA_STYLE_COLOUR ( '', #171 ) ;
#4 = CIRCLE ( 'NONE', #97, 0.06249999999999961836 ) ;
#5 = MANIFOLD_SOLID_BREP ( 'Revolve - Cutting Edge', #270 ) ;
#6 = PRODUCT_CONTEXT ( 'NONE', #16, 'mechanical' ) ;
#7 = LENGTH_MEASURE_WITH_UNIT ( LENGTH_MEASURE( 0.02539999999999999897 ), #264 );
#8 = ORIENTED_EDGE ( 'NONE', *, *, #263, .F. ) ;
#9 = ORIENTED_EDGE ( 'NONE', *, *, #213, .F. ) ;
#10 = FACE_OUTER_BOUND ( 'NONE', #295, .T. ) ;
#11 = SURFACE_STYLE_USAGE ( .BOTH. , #205 ) ;
#12 = AXIS2_PLACEMENT_3D ( 'NONE', #214, #108, #153 ) ;
#13 = DIRECTION ( 'NONE',  ( 1.191837212941282051E-16, -1.000000000000000000, 0.000000000000000000 ) ) ;
#14 = DIRECTION ( 'NONE',  ( 0.000000000000000000, 0.000000000000000000, -1.000000000000000000 ) ) ;
#15 = EDGE_CURVE ( 'NONE', #167, #289, #35, .T. ) ;
#16 = APPLICATION_CONTEXT ( 'automotive_design' ) ;
#17 = SURFACE_STYLE_USAGE ( .BOTH. , #241 ) ;
#18 = PRESENTATION_STYLE_ASSIGNMENT (( #160 ) ) ;
#19 = VECTOR ( 'NONE', #48, 39.37007874015748143 ) ;
#20 = CYLINDRICAL_SURFACE ( 'NONE', #262, 0.06249999999999993061 ) ;
#21 = FILL_AREA_STYLE ('',( #85 ) ) ;
#22 = PLANE ( 'NONE',  #88 ) ;
#23 =( CONVERSION_BASED_UNIT ( 'INCH', #216 ) LENGTH_UNIT ( ) NAMED_UNIT ( #355 ) );
#24 = ORIENTED_EDGE ( 'NONE', *, *, #164, .F. ) ;
#25 = FACE_OUTER_BOUND ( 'NONE', #286, .T. ) ;
#26 = PRESENTATION_LAYER_ASSIGNMENT (  '', '', ( #206 ) ) ;
#27 = PRESENTATION_LAYER_ASSIGNMENT (  '', '', ( #256 ) ) ;
#28 = SURFACE_SIDE_STYLE ('',( #93 ) ) ;
#29 = CARTESIAN_POINT ( 'NONE',  ( -7.654042494670954463E-18, 0.06249999999999995143, 0.000000000000000000 ) ) ;
#30 = MECHANICAL_DESIGN_GEOMETRIC_PRESENTATION_REPRESENTATION (  '', ( #206 ), #215 ) ;
#31 = PRESENTATION_STYLE_ASSIGNMENT (( #137 ) ) ;
#32 = EDGE_LOOP ( 'NONE', ( #136, #261 ) ) ;
#33 = EDGE_LOOP ( 'NONE', ( #328, #368, #349, #196 ) ) ;
#34 = ORIENTED_EDGE ( 'NONE', *, *, #239, .T. ) ;
#35 = CIRCLE ( 'NONE', #110, 0.06249999999999997918 ) ;
#36 = CARTESIAN_POINT ( 'NONE',  ( 0.000000000000000000, 0.7500000000000001110, 0.000000000000000000 ) ) ;
#37 = CARTESIAN_POINT ( 'NONE',  ( 0.06249999999999996531, 0.06249999999999991673, 0.000000000000000000 ) ) ;
#38 = ORIENTED_EDGE ( 'NONE', *, *, #297, .T. ) ;
#39 = AXIS2_PLACEMENT_3D ( 'NONE', #44, #83, #186 ) ;
#40 = LENGTH_MEASURE_WITH_UNIT ( LENGTH_MEASURE( 0.02539999999999999897 ), #273 );
#41 = UNCERTAINTY_MEASURE_WITH_UNIT (LENGTH_MEASURE( 1.000000000000000082E-05 ), #180, 'distance_accuracy_value', 'NONE');
#42 = EDGE_LOOP ( 'NONE', ( #106, #115, #351, #254, #132 ) ) ;
#43 = CARTESIAN_POINT ( 'NONE',  ( 0.000000000000000000, 0.000000000000000000, -0.06249999999999993061 ) ) ;
#44 = CARTESIAN_POINT ( 'NONE',  ( -7.654042494670954463E-18, 0.06249999999999995143, 0.000000000000000000 ) ) ;
#45 = FILL_AREA_STYLE ('',( #104 ) ) ;
#46 = SURFACE_SIDE_STYLE ('',( #165 ) ) ;
#47 = PLANE ( 'NONE',  #249 ) ;
#48 = DIRECTION ( 'NONE',  ( -0.000000000000000000, -1.000000000000000000, -0.000000000000000000 ) ) ;
#49 = CARTESIAN_POINT ( 'NONE',  ( 6.123233995736772199E-17, 2.500000000000000000, 0.000000000000000000 ) ) ;
#50 = SURFACE_STYLE_FILL_AREA ( #127 ) ;
#51 = AXIS2_PLACEMENT_3D ( 'NONE', #29, #317, #330 ) ;
#52 = CARTESIAN_POINT ( 'NONE',  ( 0.000000000000000000, 0.7500000000000001110, 0.000000000000000000 ) ) ;
#53 = CARTESIAN_POINT ( 'NONE',  ( -0.06249999999999975714, 2.500000000000000000, 0.000000000000000000 ) ) ;
#54 = VERTEX_POINT ( 'NONE', #339 ) ;
#55 = APPLICATION_CONTEXT ( 'automotive_design' ) ;
#56 = LINE ( 'NONE', #111, #76 ) ;
#57 = DIRECTION ( 'NONE',  ( -0.000000000000000000, -1.000000000000000000, -0.000000000000000000 ) ) ;
#58 = UNCERTAINTY_MEASURE_WITH_UNIT (LENGTH_MEASURE( 1.000000000000000082E-05 ), #114, 'distance_accuracy_value', 'NONE');
#59 = ORIENTED_EDGE ( 'NONE', *, *, #159, .F. ) ;
#60 = PRESENTATION_STYLE_ASSIGNMENT (( #226 ) ) ;
#61 = CLOSED_SHELL ( 'NONE', ( #252, #223, #72, #192 ) ) ;
#62 = CIRCLE ( 'NONE', #128, 0.06249999999999997918 ) ;
#63 = CIRCLE ( 'NONE', #134, 0.06249999999999997918 ) ;
#64 = LENGTH_MEASURE_WITH_UNIT ( LENGTH_MEASURE( 0.02539999999999999897 ), #140 );
#65 = ORIENTED_EDGE ( 'NONE', *, *, #15, .T. ) ;
#66 = CARTESIAN_POINT ( 'NONE',  ( 0.000000000000000000, 0.06249999999999991673, 0.000000000000000000 ) ) ;
#67 = CARTESIAN_POINT ( 'NONE',  ( 0.06249999999999988898, 0.7499999999999998890, 7.654042494670928271E-18 ) ) ;
#68 = UNCERTAINTY_MEASURE_WITH_UNIT (LENGTH_MEASURE( 1.000000000000000082E-05 ), #357, 'distance_accuracy_value', 'NONE');
#69 = CIRCLE ( 'NONE', #282, 0.06249999999999961836 ) ;
#70 = VERTEX_POINT ( 'NONE', #53 ) ;
#71 = LINE ( 'NONE', #43, #19 ) ;
#72 = ADVANCED_FACE ( 'NONE', ( #166 ), #285, .T. ) ;
#73 = PRESENTATION_STYLE_ASSIGNMENT (( #11 ) ) ;
#74 = FACE_OUTER_BOUND ( 'NONE', #365, .T. ) ;
#75 =( LENGTH_UNIT ( ) NAMED_UNIT ( * ) SI_UNIT ( $, .METRE. ) );
#76 = VECTOR ( 'NONE', #217, 39.37007874015748143 ) ;
#77 = DIRECTION ( 'NONE',  ( 0.000000000000000000, 0.000000000000000000, -1.000000000000000000 ) ) ;
#78 = CARTESIAN_POINT ( 'NONE',  ( 0.000000000000000000, 0.7500000000000001110, 0.000000000000000000 ) ) ;
#79 = FILL_AREA_STYLE ('',( #235 ) ) ;
#80 = LENGTH_MEASURE_WITH_UNIT ( LENGTH_MEASURE( 0.02539999999999999897 ), #360 );
#81 = DIRECTION ( 'NONE',  ( -1.191837212941282051E-16, 1.000000000000000000, -0.000000000000000000 ) ) ;
#82 = CARTESIAN_POINT ( 'NONE',  ( 0.06249999999999988898, 2.500000000000000000, 7.654042494670928271E-18 ) ) ;
#83 = DIRECTION ( 'NONE',  ( 0.000000000000000000, 0.000000000000000000, 1.000000000000000000 ) ) ;
#84 = CARTESIAN_POINT ( 'NONE',  ( 0.000000000000000000, 0.000000000000000000, 0.000000000000000000 ) ) ;
#85 = FILL_AREA_STYLE_COLOUR ( '', #234 ) ;
#86 = VERTEX_POINT ( 'NONE', #142 ) ;
#87 = EDGE_CURVE ( 'NONE', #293, #167, #71, .T. ) ;
#88 = AXIS2_PLACEMENT_3D ( 'NONE', #366, #13, #107 ) ;
#89 = CIRCLE ( 'NONE', #121, 0.06249999999999981959 ) ;
#90 = STYLED_ITEM ( 'NONE', ( #18 ), #335 ) ;
#91 = FILL_AREA_STYLE ('',( #200 ) ) ;
#92 = ORIENTED_EDGE ( 'NONE', *, *, #130, .T. ) ;
#93 = SURFACE_STYLE_FILL_AREA ( #79 ) ;
#94 = FACE_OUTER_BOUND ( 'NONE', #271, .T. ) ;
#95 = UNCERTAINTY_MEASURE_WITH_UNIT (LENGTH_MEASURE( 1.000000000000000082E-05 ), #184, 'distance_accuracy_value', 'NONE');
#96 = AXIS2_PLACEMENT_3D ( 'NONE', #84, #188, #169 ) ;
#97 = AXIS2_PLACEMENT_3D ( 'NONE', #302, #277, #309 ) ;
#98 = SURFACE_STYLE_FILL_AREA ( #149 ) ;
#99 = ADVANCED_FACE ( 'NONE', ( #303 ), #20, .T. ) ;
#100 = SURFACE_SIDE_STYLE ('',( #237 ) ) ;
#101 = ORIENTED_EDGE ( 'NONE', *, *, #87, .F. ) ;
#102 = APPLICATION_PROTOCOL_DEFINITION ( 'draft international standard', 'automotive_design', 1998, #16 ) ;
#103 = FILL_AREA_STYLE_COLOUR ( '', #222 ) ;
#104 = FILL_AREA_STYLE_COLOUR ( '', #120 ) ;
#105 = DIRECTION ( 'NONE',  ( 0.000000000000000000, 0.000000000000000000, -1.000000000000000000 ) ) ;
#106 = ORIENTED_EDGE ( 'NONE', *, *, #130, .F. ) ;
#107 = DIRECTION ( 'NONE',  ( 1.000000000000000000, 1.191837212941282051E-16, 0.000000000000000000 ) ) ;
#108 = DIRECTION ( 'NONE',  ( -0.000000000000000000, -1.000000000000000000, -0.000000000000000000 ) ) ;
#109 =( NAMED_UNIT ( * ) SI_UNIT ( $, .STERADIAN. ) SOLID_ANGLE_UNIT ( ) );
#110 = AXIS2_PLACEMENT_3D ( 'NONE', #66, #57, #369 ) ;
#111 = CARTESIAN_POINT ( 'NONE',  ( -0.06249999999999964612, 2.500000000000000000, 0.000000000000000000 ) ) ;
#112 =( NAMED_UNIT ( * ) SI_UNIT ( $, .STERADIAN. ) SOLID_ANGLE_UNIT ( ) );
#113 = PRESENTATION_LAYER_ASSIGNMENT (  '', '', ( #272 ) ) ;
#114 =( CONVERSION_BASED_UNIT ( 'INCH', #284 ) LENGTH_UNIT ( ) NAMED_UNIT ( #275 ) );
#115 = ORIENTED_EDGE ( 'NONE', *, *, #345, .T. ) ;
#116 = VERTEX_POINT ( 'NONE', #370 ) ;
#117 = AXIS2_PLACEMENT_3D ( 'NONE', #363, #311, #155 ) ;
#118 = PRESENTATION_LAYER_ASSIGNMENT (  '', '', ( #90 ) ) ;
#119 =( NAMED_UNIT ( * ) SI_UNIT ( $, .STERADIAN. ) SOLID_ANGLE_UNIT ( ) );
#120 = COLOUR_RGB ( '',1.000000000000000000, 0.000000000000000000, 0.000000000000000000 ) ;
#121 = AXIS2_PLACEMENT_3D ( 'NONE', #49, #283, #361 ) ;
#122 = UNCERTAINTY_MEASURE_WITH_UNIT (LENGTH_MEASURE( 1.000000000000000082E-05 ), #356, 'distance_accuracy_value', 'NONE');
#123 = MANIFOLD_SOLID_BREP ( 'Revolve - Tool Body (Straight Shanked)', #61 ) ;
#124 = CIRCLE ( 'NONE', #243, 0.06249999999999988204 ) ;
#125 =( LENGTH_UNIT ( ) NAMED_UNIT ( * ) SI_UNIT ( $, .METRE. ) );
#126 = FACE_OUTER_BOUND ( 'NONE', #32, .T. ) ;
#127 = FILL_AREA_STYLE ('',( #331 ) ) ;
#128 = AXIS2_PLACEMENT_3D ( 'NONE', #185, #158, #14 ) ;
#129 = LINE ( 'NONE', #133, #301 ) ;
#130 = EDGE_CURVE ( 'NONE', #86, #367, #224, .T. ) ;
#131 = ADVANCED_FACE ( 'NONE', ( #94 ), #204, .T. ) ;
#132 = ORIENTED_EDGE ( 'NONE', *, *, #297, .F. ) ;
#133 = CARTESIAN_POINT ( 'NONE',  ( 0.06249999999999977102, 2.500000000000000000, 7.654042494670922108E-18 ) ) ;
#134 = AXIS2_PLACEMENT_3D ( 'NONE', #227, #151, #105 ) ;
#135 = DIRECTION ( 'NONE',  ( 0.000000000000000000, 0.000000000000000000, -1.000000000000000000 ) ) ;
#136 = ORIENTED_EDGE ( 'NONE', *, *, #263, .T. ) ;
#137 = SURFACE_STYLE_USAGE ( .BOTH. , #28 ) ;
#138 =( GEOMETRIC_REPRESENTATION_CONTEXT ( 3 ) GLOBAL_UNCERTAINTY_ASSIGNED_CONTEXT ( ( #195 ) ) GLOBAL_UNIT_ASSIGNED_CONTEXT ( ( #150, #154, #109 ) ) REPRESENTATION_CONTEXT ( 'NONE', 'WORKASPACE' ) );
#139 = MECHANICAL_DESIGN_GEOMETRIC_PRESENTATION_REPRESENTATION (  '', ( #256 ), #333 ) ;
#140 =( LENGTH_UNIT ( ) NAMED_UNIT ( * ) SI_UNIT ( $, .METRE. ) );
#141 = LENGTH_MEASURE_WITH_UNIT ( LENGTH_MEASURE( 0.02539999999999999897 ), #197 );
#142 = CARTESIAN_POINT ( 'NONE',  ( 7.654042494670945219E-18, 0.7500000000000001110, 0.06249999999999988204 ) ) ;
#143 = EDGE_LOOP ( 'NONE', ( #259, #92, #9, #238, #101 ) ) ;
#144 = EDGE_CURVE ( 'NONE', #212, #70, #146, .T. ) ;
#145 = ORIENTED_EDGE ( 'NONE', *, *, #213, .T. ) ;
#146 = CIRCLE ( 'NONE', #199, 0.06249999999999981959 ) ;
#147 = PRODUCT_DEFINITION_FORMATION_WITH_SPECIFIED_SOURCE ( 'ANY', '', #174, .NOT_KNOWN. ) ;
#148 = DIRECTION ( 'NONE',  ( 1.000000000000000000, 0.000000000000000000, 0.000000000000000000 ) ) ;
#149 = FILL_AREA_STYLE ('',( #3 ) ) ;
#150 =( CONVERSION_BASED_UNIT ( 'INCH', #40 ) LENGTH_UNIT ( ) NAMED_UNIT ( #240 ) );
#151 = DIRECTION ( 'NONE',  ( -0.000000000000000000, -1.000000000000000000, -0.000000000000000000 ) ) ;
#152 = MECHANICAL_DESIGN_GEOMETRIC_PRESENTATION_REPRESENTATION (  '', ( #272 ), #316 ) ;
#153 = DIRECTION ( 'NONE',  ( 0.000000000000000000, 0.000000000000000000, -1.000000000000000000 ) ) ;
#154 =( NAMED_UNIT ( * ) PLANE_ANGLE_UNIT ( ) SI_UNIT ( $, .RADIAN. ) );
#155 = DIRECTION ( 'NONE',  ( -1.000000000000000000, 0.000000000000000000, 0.000000000000000000 ) ) ;
#156 = DIRECTION ( 'NONE',  ( -0.000000000000000000, -1.000000000000000000, -0.000000000000000000 ) ) ;
#157 = DIRECTION ( 'NONE',  ( -0.000000000000000000, -1.000000000000000000, -0.000000000000000000 ) ) ;
#158 = DIRECTION ( 'NONE',  ( -0.000000000000000000, -1.000000000000000000, -0.000000000000000000 ) ) ;
#159 = EDGE_CURVE ( 'NONE', #293, #86, #124, .T. ) ;
#160 = SURFACE_STYLE_USAGE ( .BOTH. , #46 ) ;
#161 = DIRECTION ( 'NONE',  ( -1.191837212941282051E-16, 1.000000000000000000, 0.000000000000000000 ) ) ;
#162 = CIRCLE ( 'NONE', #117, 0.06249999999999996531 ) ;
#163 = MECHANICAL_DESIGN_GEOMETRIC_PRESENTATION_REPRESENTATION (  '', ( #90 ), #244 ) ;
#164 = EDGE_CURVE ( 'NONE', #289, #116, #162, .T. ) ;
#165 = SURFACE_STYLE_FILL_AREA ( #21 ) ;
#166 = FACE_OUTER_BOUND ( 'NONE', #33, .T. ) ;
#167 = VERTEX_POINT ( 'NONE', #276 ) ;
#168 = DIRECTION ( 'NONE',  ( -1.191837212941282051E-16, 1.000000000000000000, -0.000000000000000000 ) ) ;
#169 = DIRECTION ( 'NONE',  ( 0.000000000000000000, 0.000000000000000000, -1.000000000000000000 ) ) ;
#170 = CARTESIAN_POINT ( 'NONE',  ( 0.000000000000000000, 0.000000000000000000, 0.000000000000000000 ) ) ;
#171 = COLOUR_RGB ( '',0.7921568627450980005, 0.8196078431372548767, 0.9333333333333333481 ) ;
#172 = AXIS2_PLACEMENT_3D ( 'NONE', #78, #246, #280 ) ;
#173 = ORIENTED_EDGE ( 'NONE', *, *, #198, .T. ) ;
#174 = PRODUCT ( '81455', '81455', '', ( #6 ) ) ;
#175 = CARTESIAN_POINT ( 'NONE',  ( 7.654042494670948300E-18, 0.000000000000000000, 0.06249999999999993061 ) ) ;
#176 =( NAMED_UNIT ( * ) SI_UNIT ( $, .STERADIAN. ) SOLID_ANGLE_UNIT ( ) );
#177 = DIMENSIONAL_EXPONENTS ( 1.000000000000000000, 0.000000000000000000, 0.000000000000000000, 0.000000000000000000, 0.000000000000000000, 0.000000000000000000, 0.000000000000000000 ) ;
#178 = COLOUR_RGB ( '',1.000000000000000000, 0.000000000000000000, 0.000000000000000000 ) ;
#179 = VERTEX_POINT ( 'NONE', #67 ) ;
#180 =( CONVERSION_BASED_UNIT ( 'INCH', #141 ) LENGTH_UNIT ( ) NAMED_UNIT ( #265 ) );
#181 = SURFACE_SIDE_STYLE ('',( #279 ) ) ;
#182 = PRESENTATION_LAYER_ASSIGNMENT (  '', '', ( #255 ) ) ;
#183 =( LENGTH_UNIT ( ) NAMED_UNIT ( * ) SI_UNIT ( $, .METRE. ) );
#184 =( CONVERSION_BASED_UNIT ( 'INCH', #80 ) LENGTH_UNIT ( ) NAMED_UNIT ( #352 ) );
#185 = CARTESIAN_POINT ( 'NONE',  ( 0.000000000000000000, 0.06249999999999991673, 0.000000000000000000 ) ) ;
#186 = DIRECTION ( 'NONE',  ( 1.000000000000000000, 0.000000000000000000, 0.000000000000000000 ) ) ;
#187 = AXIS2_PLACEMENT_3D ( 'NONE', #266, #347, #236 ) ;
#188 = DIRECTION ( 'NONE',  ( -0.000000000000000000, -1.000000000000000000, -0.000000000000000000 ) ) ;
#189 = EDGE_LOOP ( 'NONE', ( #322, #34, #8, #343 ) ) ;
#190 = ORIENTED_EDGE ( 'NONE', *, *, #164, .T. ) ;
#191 = COLOUR_RGB ( '',0.7921568627450980005, 0.8196078431372548767, 0.9333333333333333481 ) ;
#192 = ADVANCED_FACE ( 'NONE', ( #126 ), #22, .F. ) ;
#193 = MECHANICAL_DESIGN_GEOMETRIC_PRESENTATION_REPRESENTATION (  '', ( #359 ), #138 ) ;
#194 = PRODUCT_DEFINITION_SHAPE ( 'NONE', 'NONE',  #372 ) ;
#195 = UNCERTAINTY_MEASURE_WITH_UNIT (LENGTH_MEASURE( 1.000000000000000082E-05 ), #150, 'distance_accuracy_value', 'NONE');
#196 = ORIENTED_EDGE ( 'NONE', *, *, #144, .F. ) ;
#197 =( LENGTH_UNIT ( ) NAMED_UNIT ( * ) SI_UNIT ( $, .METRE. ) );
#198 = EDGE_CURVE ( 'NONE', #54, #167, #296, .T. ) ;
#199 = AXIS2_PLACEMENT_3D ( 'NONE', #299, #231, #268 ) ;
#200 = FILL_AREA_STYLE_COLOUR ( '', #178 ) ;
#201 = DIRECTION ( 'NONE',  ( -0.000000000000000000, -1.000000000000000000, -0.000000000000000000 ) ) ;
#202 = VERTEX_POINT ( 'NONE', #362 ) ;
#203 = UNCERTAINTY_MEASURE_WITH_UNIT (LENGTH_MEASURE( 1.000000000000000082E-05 ), #229, 'distance_accuracy_value', 'NONE');
#204 = SPHERICAL_SURFACE ( 'NONE', #233, 0.06249999999999996531 ) ;
#205 = SURFACE_SIDE_STYLE ('',( #98 ) ) ;
#206 = STYLED_ITEM ( 'NONE', ( #60 ), #131 ) ;
#207 = SURFACE_STYLE_USAGE ( .BOTH. , #181 ) ;
#208 = AXIS2_PLACEMENT_3D ( 'NONE', #52, #156, #135 ) ;
#209 = SHAPE_DEFINITION_REPRESENTATION ( #194, #258 ) ;
#210 = PRESENTATION_STYLE_ASSIGNMENT (( #326 ) ) ;
#211 = ORIENTED_EDGE ( 'NONE', *, *, #345, .F. ) ;
#212 = VERTEX_POINT ( 'NONE', #82 ) ;
#213 = EDGE_CURVE ( 'NONE', #289, #367, #62, .T. ) ;
#214 = CARTESIAN_POINT ( 'NONE',  ( 0.000000000000000000, 0.06249999999999991673, 0.000000000000000000 ) ) ;
#215 =( GEOMETRIC_REPRESENTATION_CONTEXT ( 3 ) GLOBAL_UNCERTAINTY_ASSIGNED_CONTEXT ( ( #203 ) ) GLOBAL_UNIT_ASSIGNED_CONTEXT ( ( #229, #320, #176 ) ) REPRESENTATION_CONTEXT ( 'NONE', 'WORKASPACE' ) );
#216 = LENGTH_MEASURE_WITH_UNIT ( LENGTH_MEASURE( 0.02539999999999999897 ), #75 );
#217 = DIRECTION ( 'NONE',  ( -1.191837212941282051E-16, 1.000000000000000000, -0.000000000000000000 ) ) ;
#218 = PRESENTATION_LAYER_ASSIGNMENT (  '', '', ( #353 ) ) ;
#219 = CARTESIAN_POINT ( 'NONE',  ( 2.698038522220921055E-16, 0.7499999999999998890, 0.000000000000000000 ) ) ;
#220 = CARTESIAN_POINT ( 'NONE',  ( 6.123233995736772199E-17, 2.500000000000000000, 0.000000000000000000 ) ) ;
#221 = ADVANCED_FACE ( 'NONE', ( #306 ), #278, .T. ) ;
#222 = COLOUR_RGB ( '',1.000000000000000000, 0.000000000000000000, 0.000000000000000000 ) ;
#223 = ADVANCED_FACE ( 'NONE', ( #25 ), #47, .F. ) ;
#224 = LINE ( 'NONE', #175, #332 ) ;
#225 = AXIS2_PLACEMENT_3D ( 'NONE', #220, #342, #313 ) ;
#226 = SURFACE_STYLE_USAGE ( .BOTH. , #290 ) ;
#227 = CARTESIAN_POINT ( 'NONE',  ( 0.000000000000000000, 0.06249999999999991673, 0.000000000000000000 ) ) ;
#228 = ORIENTED_EDGE ( 'NONE', *, *, #269, .F. ) ;
#229 =( CONVERSION_BASED_UNIT ( 'INCH', #64 ) LENGTH_UNIT ( ) NAMED_UNIT ( #350 ) );
#230 = APPLICATION_PROTOCOL_DEFINITION ( 'draft international standard', 'automotive_design', 1998, #55 ) ;
#231 = DIRECTION ( 'NONE',  ( -1.191837212941282051E-16, 1.000000000000000000, -0.000000000000000000 ) ) ;
#232 = PRODUCT_DEFINITION_CONTEXT ( 'detailed design', #55, 'design' ) ;
#233 = AXIS2_PLACEMENT_3D ( 'NONE', #2, #294, #148 ) ;
#234 = COLOUR_RGB ( '',1.000000000000000000, 0.000000000000000000, 0.000000000000000000 ) ;
#235 = FILL_AREA_STYLE_COLOUR ( '', #191 ) ;
#236 = DIRECTION ( 'NONE',  ( 1.000000000000000000, 0.000000000000000000, 0.000000000000000000 ) ) ;
#237 = SURFACE_STYLE_FILL_AREA ( #260 ) ;
#238 = ORIENTED_EDGE ( 'NONE', *, *, #15, .F. ) ;
#239 = EDGE_CURVE ( 'NONE', #179, #212, #129, .T. ) ;
#240 = DIMENSIONAL_EXPONENTS ( 1.000000000000000000, 0.000000000000000000, 0.000000000000000000, 0.000000000000000000, 0.000000000000000000, 0.000000000000000000, 0.000000000000000000 ) ;
#241 = SURFACE_SIDE_STYLE ('',( #50 ) ) ;
#242 =( NAMED_UNIT ( * ) PLANE_ANGLE_UNIT ( ) SI_UNIT ( $, .RADIAN. ) );
#243 = AXIS2_PLACEMENT_3D ( 'NONE', #36, #323, #77 ) ;
#244 =( GEOMETRIC_REPRESENTATION_CONTEXT ( 3 ) GLOBAL_UNCERTAINTY_ASSIGNED_CONTEXT ( ( #95 ) ) GLOBAL_UNIT_ASSIGNED_CONTEXT ( ( #184, #247, #250 ) ) REPRESENTATION_CONTEXT ( 'NONE', 'WORKASPACE' ) );
#245 = AXIS2_PLACEMENT_3D ( 'NONE', #341, #312, #315 ) ;
#246 = DIRECTION ( 'NONE',  ( 0.000000000000000000, 1.000000000000000000, 0.000000000000000000 ) ) ;
#247 =( NAMED_UNIT ( * ) PLANE_ANGLE_UNIT ( ) SI_UNIT ( $, .RADIAN. ) );
#248 = CYLINDRICAL_SURFACE ( 'NONE', #245, 0.06249999999999970857 ) ;
#249 = AXIS2_PLACEMENT_3D ( 'NONE', #336, #161, #281 ) ;
#250 =( NAMED_UNIT ( * ) SI_UNIT ( $, .STERADIAN. ) SOLID_ANGLE_UNIT ( ) );
#251 = ORIENTED_EDGE ( 'NONE', *, *, #337, .F. ) ;
#252 = ADVANCED_FACE ( 'NONE', ( #305 ), #248, .T. ) ;
#253 = CARTESIAN_POINT ( 'NONE',  ( 7.654042494670956004E-18, 0.06249999999999991673, 0.06249999999999999306 ) ) ;
#254 = ORIENTED_EDGE ( 'NONE', *, *, #198, .F. ) ;
#255 = STYLED_ITEM ( 'NONE', ( #73 ), #5 ) ;
#256 = STYLED_ITEM ( 'NONE', ( #210 ), #310 ) ;
#257 = LENGTH_MEASURE_WITH_UNIT ( LENGTH_MEASURE( 0.02539999999999999897 ), #125 );
#258 = ADVANCED_BREP_SHAPE_REPRESENTATION ( '81455', ( #5, #123, #187 ), #354 ) ;
#259 = ORIENTED_EDGE ( 'NONE', *, *, #159, .T. ) ;
#260 = FILL_AREA_STYLE ('',( #103 ) ) ;
#261 = ORIENTED_EDGE ( 'NONE', *, *, #144, .T. ) ;
#262 = AXIS2_PLACEMENT_3D ( 'NONE', #170, #157, #329 ) ;
#263 = EDGE_CURVE ( 'NONE', #70, #212, #89, .T. ) ;
#264 =( LENGTH_UNIT ( ) NAMED_UNIT ( * ) SI_UNIT ( $, .METRE. ) );
#265 = DIMENSIONAL_EXPONENTS ( 1.000000000000000000, 0.000000000000000000, 0.000000000000000000, 0.000000000000000000, 0.000000000000000000, 0.000000000000000000, 0.000000000000000000 ) ;
#266 = CARTESIAN_POINT ( 'NONE',  ( 0.000000000000000000, 0.000000000000000000, 0.000000000000000000 ) ) ;
#267 = EDGE_CURVE ( 'NONE', #202, #70, #56, .T. ) ;
#268 = DIRECTION ( 'NONE',  ( -1.000000000000000000, 0.000000000000000000, 0.000000000000000000 ) ) ;
#269 = EDGE_CURVE ( 'NONE', #54, #116, #308, .T. ) ;
#270 = CLOSED_SHELL ( 'NONE', ( #131, #99, #310, #221, #335 ) ) ;
#271 = EDGE_LOOP ( 'NONE', ( #38, #346, #24, #145 ) ) ;
#272 = STYLED_ITEM ( 'NONE', ( #358 ), #221 ) ;
#273 =( LENGTH_UNIT ( ) NAMED_UNIT ( * ) SI_UNIT ( $, .METRE. ) );
#274 = CIRCLE ( 'NONE', #208, 0.06249999999999988204 ) ;
#275 = DIMENSIONAL_EXPONENTS ( 1.000000000000000000, 0.000000000000000000, 0.000000000000000000, 0.000000000000000000, 0.000000000000000000, 0.000000000000000000, 0.000000000000000000 ) ;
#276 = CARTESIAN_POINT ( 'NONE',  ( 0.000000000000000000, 0.06249999999999991673, -0.06249999999999997918 ) ) ;
#277 = DIRECTION ( 'NONE',  ( -1.191837212941282051E-16, 1.000000000000000000, -0.000000000000000000 ) ) ;
#278 = CYLINDRICAL_SURFACE ( 'NONE', #96, 0.06249999999999993061 ) ;
#279 = SURFACE_STYLE_FILL_AREA ( #45 ) ;
#280 = DIRECTION ( 'NONE',  ( 0.000000000000000000, -0.000000000000000000, 1.000000000000000000 ) ) ;
#281 = DIRECTION ( 'NONE',  ( -1.000000000000000000, -1.191837212941282051E-16, 0.000000000000000000 ) ) ;
#282 = AXIS2_PLACEMENT_3D ( 'NONE', #219, #168, #340 ) ;
#283 = DIRECTION ( 'NONE',  ( -1.191837212941282051E-16, 1.000000000000000000, -0.000000000000000000 ) ) ;
#284 = LENGTH_MEASURE_WITH_UNIT ( LENGTH_MEASURE( 0.02539999999999999897 ), #183 );
#285 = CYLINDRICAL_SURFACE ( 'NONE', #225, 0.06249999999999970857 ) ;
#286 = EDGE_LOOP ( 'NONE', ( #327, #251 ) ) ;
#287 =( GEOMETRIC_REPRESENTATION_CONTEXT ( 3 ) GLOBAL_UNCERTAINTY_ASSIGNED_CONTEXT ( ( #41 ) ) GLOBAL_UNIT_ASSIGNED_CONTEXT ( ( #180, #373, #119 ) ) REPRESENTATION_CONTEXT ( 'NONE', 'WORKASPACE' ) );
#288 =( NAMED_UNIT ( * ) PLANE_ANGLE_UNIT ( ) SI_UNIT ( $, .RADIAN. ) );
#289 = VERTEX_POINT ( 'NONE', #37 ) ;
#290 = SURFACE_SIDE_STYLE ('',( #291 ) ) ;
#291 = SURFACE_STYLE_FILL_AREA ( #91 ) ;
#292 = CARTESIAN_POINT ( 'NONE',  ( 0.000000000000000000, 0.7500000000000001110, -0.06249999999999988204 ) ) ;
#293 = VERTEX_POINT ( 'NONE', #292 ) ;
#294 = DIRECTION ( 'NONE',  ( 0.000000000000000000, 0.000000000000000000, 1.000000000000000000 ) ) ;
#295 = EDGE_LOOP ( 'NONE', ( #59, #211 ) ) ;
#296 = CIRCLE ( 'NONE', #12, 0.06249999999999997918 ) ;
#297 = EDGE_CURVE ( 'NONE', #367, #54, #63, .T. ) ;
#298 = PRODUCT_RELATED_PRODUCT_CATEGORY ( 'part', '', ( #174 ) ) ;
#299 = CARTESIAN_POINT ( 'NONE',  ( 6.123233995736772199E-17, 2.500000000000000000, 0.000000000000000000 ) ) ;
#300 = PLANE ( 'NONE',  #172 ) ;
#301 = VECTOR ( 'NONE', #81, 39.37007874015748143 ) ;
#302 = CARTESIAN_POINT ( 'NONE',  ( 2.698038522220921055E-16, 0.7499999999999998890, 0.000000000000000000 ) ) ;
#303 = FACE_OUTER_BOUND ( 'NONE', #143, .T. ) ;
#304 = SPHERICAL_SURFACE ( 'NONE', #39, 0.06249999999999996531 ) ;
#305 = FACE_OUTER_BOUND ( 'NONE', #189, .T. ) ;
#306 = FACE_OUTER_BOUND ( 'NONE', #42, .T. ) ;
#307 = MECHANICAL_DESIGN_GEOMETRIC_PRESENTATION_REPRESENTATION (  '', ( #255 ), #348 ) ;
#308 = CIRCLE ( 'NONE', #51, 0.06249999999999996531 ) ;
#309 = DIRECTION ( 'NONE',  ( -1.000000000000000000, 0.000000000000000000, 0.000000000000000000 ) ) ;
#310 = ADVANCED_FACE ( 'NONE', ( #10 ), #300, .T. ) ;
#311 = DIRECTION ( 'NONE',  ( 0.000000000000000000, 0.000000000000000000, -1.000000000000000000 ) ) ;
#312 = DIRECTION ( 'NONE',  ( -1.191837212941282051E-16, 1.000000000000000000, -0.000000000000000000 ) ) ;
#313 = DIRECTION ( 'NONE',  ( -1.000000000000000000, 0.000000000000000000, 0.000000000000000000 ) ) ;
#314 =( NAMED_UNIT ( * ) SI_UNIT ( $, .STERADIAN. ) SOLID_ANGLE_UNIT ( ) );
#315 = DIRECTION ( 'NONE',  ( -1.000000000000000000, 0.000000000000000000, 0.000000000000000000 ) ) ;
#316 =( GEOMETRIC_REPRESENTATION_CONTEXT ( 3 ) GLOBAL_UNCERTAINTY_ASSIGNED_CONTEXT ( ( #371 ) ) GLOBAL_UNIT_ASSIGNED_CONTEXT ( ( #23, #288, #112 ) ) REPRESENTATION_CONTEXT ( 'NONE', 'WORKASPACE' ) );
#317 = DIRECTION ( 'NONE',  ( 1.224646799147353207E-16, -0.000000000000000000, 1.000000000000000000 ) ) ;
#318 = EDGE_CURVE ( 'NONE', #202, #179, #69, .T. ) ;
#319 =( NAMED_UNIT ( * ) PLANE_ANGLE_UNIT ( ) SI_UNIT ( $, .RADIAN. ) );
#320 =( NAMED_UNIT ( * ) PLANE_ANGLE_UNIT ( ) SI_UNIT ( $, .RADIAN. ) );
#321 = DIMENSIONAL_EXPONENTS ( 1.000000000000000000, 0.000000000000000000, 0.000000000000000000, 0.000000000000000000, 0.000000000000000000, 0.000000000000000000, 0.000000000000000000 ) ;
#322 = ORIENTED_EDGE ( 'NONE', *, *, #318, .T. ) ;
#323 = DIRECTION ( 'NONE',  ( -0.000000000000000000, -1.000000000000000000, -0.000000000000000000 ) ) ;
#324 =( NAMED_UNIT ( * ) SI_UNIT ( $, .STERADIAN. ) SOLID_ANGLE_UNIT ( ) );
#325 = PRESENTATION_STYLE_ASSIGNMENT (( #207 ) ) ;
#326 = SURFACE_STYLE_USAGE ( .BOTH. , #100 ) ;
#327 = ORIENTED_EDGE ( 'NONE', *, *, #318, .F. ) ;
#328 = ORIENTED_EDGE ( 'NONE', *, *, #239, .F. ) ;
#329 = DIRECTION ( 'NONE',  ( 0.000000000000000000, 0.000000000000000000, -1.000000000000000000 ) ) ;
#330 = DIRECTION ( 'NONE',  ( 1.000000000000000000, 0.000000000000000000, -1.224646799147353454E-16 ) ) ;
#331 = FILL_AREA_STYLE_COLOUR ( '', #344 ) ;
#332 = VECTOR ( 'NONE', #201, 39.37007874015748143 ) ;
#333 =( GEOMETRIC_REPRESENTATION_CONTEXT ( 3 ) GLOBAL_UNCERTAINTY_ASSIGNED_CONTEXT ( ( #68 ) ) GLOBAL_UNIT_ASSIGNED_CONTEXT ( ( #357, #242, #334 ) ) REPRESENTATION_CONTEXT ( 'NONE', 'WORKASPACE' ) );
#334 =( NAMED_UNIT ( * ) SI_UNIT ( $, .STERADIAN. ) SOLID_ANGLE_UNIT ( ) );
#335 = ADVANCED_FACE ( 'NONE', ( #74 ), #304, .T. ) ;
#336 = CARTESIAN_POINT ( 'NONE',  ( 2.698038522220921055E-16, 0.7500000000000001110, 0.000000000000000000 ) ) ;
#337 = EDGE_CURVE ( 'NONE', #179, #202, #4, .T. ) ;
#338 =( NAMED_UNIT ( * ) PLANE_ANGLE_UNIT ( ) SI_UNIT ( $, .RADIAN. ) );
#339 = CARTESIAN_POINT ( 'NONE',  ( -0.06249999999999997918, 0.06249999999999991673, 7.654042494670954463E-18 ) ) ;
#340 = DIRECTION ( 'NONE',  ( -1.000000000000000000, 0.000000000000000000, 0.000000000000000000 ) ) ;
#341 = CARTESIAN_POINT ( 'NONE',  ( 6.123233995736772199E-17, 2.500000000000000000, 0.000000000000000000 ) ) ;
#342 = DIRECTION ( 'NONE',  ( -1.191837212941282051E-16, 1.000000000000000000, -0.000000000000000000 ) ) ;
#343 = ORIENTED_EDGE ( 'NONE', *, *, #267, .F. ) ;
#344 = COLOUR_RGB ( '',1.000000000000000000, 0.000000000000000000, 0.000000000000000000 ) ;
#345 = EDGE_CURVE ( 'NONE', #86, #293, #274, .T. ) ;
#346 = ORIENTED_EDGE ( 'NONE', *, *, #269, .T. ) ;
#347 = DIRECTION ( 'NONE',  ( 0.000000000000000000, 0.000000000000000000, 1.000000000000000000 ) ) ;
#348 =( GEOMETRIC_REPRESENTATION_CONTEXT ( 3 ) GLOBAL_UNCERTAINTY_ASSIGNED_CONTEXT ( ( #122 ) ) GLOBAL_UNIT_ASSIGNED_CONTEXT ( ( #356, #319, #324 ) ) REPRESENTATION_CONTEXT ( 'NONE', 'WORKASPACE' ) );
#349 = ORIENTED_EDGE ( 'NONE', *, *, #267, .T. ) ;
#350 = DIMENSIONAL_EXPONENTS ( 1.000000000000000000, 0.000000000000000000, 0.000000000000000000, 0.000000000000000000, 0.000000000000000000, 0.000000000000000000, 0.000000000000000000 ) ;
#351 = ORIENTED_EDGE ( 'NONE', *, *, #87, .T. ) ;
#352 = DIMENSIONAL_EXPONENTS ( 1.000000000000000000, 0.000000000000000000, 0.000000000000000000, 0.000000000000000000, 0.000000000000000000, 0.000000000000000000, 0.000000000000000000 ) ;
#353 = STYLED_ITEM ( 'NONE', ( #31 ), #123 ) ;
#354 =( GEOMETRIC_REPRESENTATION_CONTEXT ( 3 ) GLOBAL_UNCERTAINTY_ASSIGNED_CONTEXT ( ( #58 ) ) GLOBAL_UNIT_ASSIGNED_CONTEXT ( ( #114, #338, #314 ) ) REPRESENTATION_CONTEXT ( 'NONE', 'WORKASPACE' ) );
#355 = DIMENSIONAL_EXPONENTS ( 1.000000000000000000, 0.000000000000000000, 0.000000000000000000, 0.000000000000000000, 0.000000000000000000, 0.000000000000000000, 0.000000000000000000 ) ;
#356 =( CONVERSION_BASED_UNIT ( 'INCH', #257 ) LENGTH_UNIT ( ) NAMED_UNIT ( #321 ) );
#357 =( CONVERSION_BASED_UNIT ( 'INCH', #7 ) LENGTH_UNIT ( ) NAMED_UNIT ( #177 ) );
#358 = PRESENTATION_STYLE_ASSIGNMENT (( #17 ) ) ;
#359 = STYLED_ITEM ( 'NONE', ( #325 ), #99 ) ;
#360 =( LENGTH_UNIT ( ) NAMED_UNIT ( * ) SI_UNIT ( $, .METRE. ) );
#361 = DIRECTION ( 'NONE',  ( -1.000000000000000000, 0.000000000000000000, 0.000000000000000000 ) ) ;
#362 = CARTESIAN_POINT ( 'NONE',  ( -0.06249999999999934081, 0.7499999999999998890, 0.000000000000000000 ) ) ;
#363 = CARTESIAN_POINT ( 'NONE',  ( -7.654042494670954463E-18, 0.06249999999999995143, 0.000000000000000000 ) ) ;
#364 = PRESENTATION_LAYER_ASSIGNMENT (  '', '', ( #359 ) ) ;
#365 = EDGE_LOOP ( 'NONE', ( #228, #173, #65, #190 ) ) ;
#366 = CARTESIAN_POINT ( 'NONE',  ( 0.06249999999999988204, 2.500000000000000000, 0.000000000000000000 ) ) ;
#367 = VERTEX_POINT ( 'NONE', #253 ) ;
#368 = ORIENTED_EDGE ( 'NONE', *, *, #337, .T. ) ;
#369 = DIRECTION ( 'NONE',  ( 0.000000000000000000, 0.000000000000000000, -1.000000000000000000 ) ) ;
#370 = CARTESIAN_POINT ( 'NONE',  ( -3.827021247335477232E-18, -1.707404996040164512E-17, 0.000000000000000000 ) ) ;
#371 = UNCERTAINTY_MEASURE_WITH_UNIT (LENGTH_MEASURE( 1.000000000000000082E-05 ), #23, 'distance_accuracy_value', 'NONE');
#372 = PRODUCT_DEFINITION ( 'UNKNOWN', '', #147, #232 ) ;
#373 =( NAMED_UNIT ( * ) PLANE_ANGLE_UNIT ( ) SI_UNIT ( $, .RADIAN. ) );
ENDSEC;
END-ISO-10303-21;
