ISO-10303-21;
HEADER;
FILE_DESCRIPTION (( 'STEP AP214' ),
    '1' );
FILE_NAME ('Micro_SFP-062-22.STEP',
    '2021-09-02T05:55:28',
    ( '' ),
    ( '' ),
    'SwSTEP 2.0',
    'SolidWorks 2020',
    '' );
FILE_SCHEMA (( 'AUTOMOTIVE_DESIGN' ));
ENDSEC;

DATA;
#1 = FACE_OUTER_BOUND ( 'NONE', #94, .T. ) ;
#2 = EDGE_CURVE ( 'NONE', #237, #170, #233, .T. ) ;
#3 = ORIENTED_EDGE ( 'NONE', *, *, #152, .T. ) ;
#4 = SURFACE_STYLE_USAGE ( .BOTH. , #206 ) ;
#5 = LINE ( 'NONE', #95, #86 ) ;
#6 = LENGTH_MEASURE_WITH_UNIT ( LENGTH_MEASURE( 0.02539999999999999897 ), #236 );
#7 = CIRCLE ( 'NONE', #127, 0.06249999999999997918 ) ;
#8 = ORIENTED_EDGE ( 'NONE', *, *, #247, .F. ) ;
#9 = CLOSED_SHELL ( 'NONE', ( #96, #293, #58, #92, #35, #212, #219, #255, #289, #238 ) ) ;
#10 = ADVANCED_BREP_SHAPE_REPRESENTATION ( 'Micro_SFP-062-22', ( #241, #114 ), #50 ) ;
#11 = ORIENTED_EDGE ( 'NONE', *, *, #141, .F. ) ;
#12 = CARTESIAN_POINT ( 'NONE',  ( 0.03121874999999999650, 3.823194226088142917E-18, 0.0000000000000000000 ) ) ;
#13 = CARTESIAN_POINT ( 'NONE',  ( -0.03121874999999999650, 0.0000000000000000000, 7.646388452176287375E-18 ) ) ;
#14 = MECHANICAL_DESIGN_GEOMETRIC_PRESENTATION_REPRESENTATION (  '', ( #99 ), #216 ) ;
#15 = DIMENSIONAL_EXPONENTS ( 1.000000000000000000, 0.0000000000000000000, 0.0000000000000000000, 0.0000000000000000000, 0.0000000000000000000, 0.0000000000000000000, 0.0000000000000000000 ) ;
#16 = AXIS2_PLACEMENT_3D ( 'NONE', #174, #175, #195 ) ;
#17 = CARTESIAN_POINT ( 'NONE',  ( -0.03121874999999997222, 5.738618360379549075E-18, 0.2500000000000000555 ) ) ;
#18 = CARTESIAN_POINT ( 'NONE',  ( 4.682062571497488738E-34, 0.0000000000000000000, 3.823194226088143687E-18 ) ) ;
#19 = CARTESIAN_POINT ( 'NONE',  ( -0.03121874999999997222, 3.823194226088143687E-18, 0.2500000000000000555 ) ) ;
#20 = COLOUR_RGB ( '',0.7921568627450980005, 0.8196078431372548767, 0.9333333333333333481 ) ;
#21 = SURFACE_SIDE_STYLE ('',( #91 ) ) ;
#22 = DIRECTION ( 'NONE',  ( -1.224646799147353454E-16, -0.0000000000000000000, -1.000000000000000000 ) ) ;
#23 = EDGE_CURVE ( 'NONE', #147, #57, #5, .T. ) ;
#24 = PRODUCT_DEFINITION_CONTEXT ( 'detailed design', #226, 'design' ) ;
#25 =( NAMED_UNIT ( * ) PLANE_ANGLE_UNIT ( ) SI_UNIT ( $, .RADIAN. ) );
#26 = CIRCLE ( 'NONE', #273, 0.03121874999999999997 ) ;
#27 = ORIENTED_EDGE ( 'NONE', *, *, #2, .F. ) ;
#28 = APPLICATION_PROTOCOL_DEFINITION ( 'draft international standard', 'automotive_design', 1998, #53 ) ;
#29 = PRODUCT ( 'Micro_SFP-062-22', 'Micro_SFP-062-22', '', ( #117 ) ) ;
#30 = EDGE_LOOP ( 'NONE', ( #260, #256, #79, #11 ) ) ;
#31 = DIRECTION ( 'NONE',  ( 0.1736481776669316079, 0.0000000000000000000, 0.9848077530122077983 ) ) ;
#32 = AXIS2_PLACEMENT_3D ( 'NONE', #182, #250, #251 ) ;
#33 = ORIENTED_EDGE ( 'NONE', *, *, #131, .F. ) ;
#34 = CIRCLE ( 'NONE', #205, 0.04750000000000063893 ) ;
#35 = ADVANCED_FACE ( 'NONE', ( #64 ), #83, .T. ) ;
#36 = FACE_OUTER_BOUND ( 'NONE', #59, .T. ) ;
#37 = UNCERTAINTY_MEASURE_WITH_UNIT (LENGTH_MEASURE( 1.000000000000000082E-05 ), #146, 'distance_accuracy_value', 'NONE');
#38 = CARTESIAN_POINT ( 'NONE',  ( 0.0000000000000000000, 0.0000000000000000000, 1.500000000000000222 ) ) ;
#39 = CARTESIAN_POINT ( 'NONE',  ( 0.0000000000000000000, 0.0000000000000000000, 0.0000000000000000000 ) ) ;
#40 = DIRECTION ( 'NONE',  ( 1.000000000000000000, 0.0000000000000000000, -0.0000000000000000000 ) ) ;
#41 = CYLINDRICAL_SURFACE ( 'NONE', #259, 0.03121874999999999650 ) ;
#42 = CARTESIAN_POINT ( 'NONE',  ( 0.0000000000000000000, 0.0000000000000000000, 0.0000000000000000000 ) ) ;
#43 = AXIS2_PLACEMENT_3D ( 'NONE', #246, #217, #196 ) ;
#44 = PLANE ( 'NONE',  #82 ) ;
#45 =( CONVERSION_BASED_UNIT ( 'INCH', #115 ) LENGTH_UNIT ( ) NAMED_UNIT ( #188 ) );
#46 =( NAMED_UNIT ( * ) PLANE_ANGLE_UNIT ( ) SI_UNIT ( $, .RADIAN. ) );
#47 = PRODUCT_RELATED_PRODUCT_CATEGORY ( 'part', '', ( #29 ) ) ;
#48 = SHAPE_DEFINITION_REPRESENTATION ( #221, #10 ) ;
#49 = ORIENTED_EDGE ( 'NONE', *, *, #141, .T. ) ;
#50 =( GEOMETRIC_REPRESENTATION_CONTEXT ( 3 ) GLOBAL_UNCERTAINTY_ASSIGNED_CONTEXT ( ( #37 ) ) GLOBAL_UNIT_ASSIGNED_CONTEXT ( ( #146, #144, #168 ) ) REPRESENTATION_CONTEXT ( 'NONE', 'WORKASPACE' ) );
#51 = VECTOR ( 'NONE', #208, 39.37007874015748143 ) ;
#52 = ORIENTED_EDGE ( 'NONE', *, *, #192, .F. ) ;
#53 = APPLICATION_CONTEXT ( 'automotive_design' ) ;
#54 = LENGTH_MEASURE_WITH_UNIT ( LENGTH_MEASURE( 0.02539999999999999897 ), #140 );
#55 = ORIENTED_EDGE ( 'NONE', *, *, #230, .F. ) ;
#56 = DIRECTION ( 'NONE',  ( 0.0000000000000000000, 0.0000000000000000000, 1.000000000000000000 ) ) ;
#57 = VERTEX_POINT ( 'NONE', #106 ) ;
#58 = ADVANCED_FACE ( 'NONE', ( #102 ), #177, .T. ) ;
#59 = EDGE_LOOP ( 'NONE', ( #101, #55, #74, #187 ) ) ;
#60 = CARTESIAN_POINT ( 'NONE',  ( -0.06249999999999993061, 0.0000000000000000000, 0.4274047844199151958 ) ) ;
#61 = CARTESIAN_POINT ( 'NONE',  ( 5.234199011801138154E-17, 0.0000000000000000000, 0.4274047844199151958 ) ) ;
#62 = DIRECTION ( 'NONE',  ( -1.000000000000000000, 0.0000000000000000000, 0.0000000000000000000 ) ) ;
#63 = DIRECTION ( 'NONE',  ( 0.0000000000000000000, 0.0000000000000000000, 1.000000000000000000 ) ) ;
#64 = FACE_OUTER_BOUND ( 'NONE', #30, .T. ) ;
#65 = DIRECTION ( 'NONE',  ( -1.224646799147353454E-16, -0.0000000000000000000, -1.000000000000000000 ) ) ;
#66 =( GEOMETRIC_REPRESENTATION_CONTEXT ( 3 ) GLOBAL_UNCERTAINTY_ASSIGNED_CONTEXT ( ( #267 ) ) GLOBAL_UNIT_ASSIGNED_CONTEXT ( ( #45, #46, #201 ) ) REPRESENTATION_CONTEXT ( 'NONE', 'WORKASPACE' ) );
#67 = FACE_OUTER_BOUND ( 'NONE', #124, .T. ) ;
#68 = DIRECTION ( 'NONE',  ( 0.0000000000000000000, 0.0000000000000000000, -1.000000000000000000 ) ) ;
#69 = CARTESIAN_POINT ( 'NONE',  ( -0.03121874999999999650, 0.0000000000000000000, 3.823194226088143687E-18 ) ) ;
#70 = AXIS2_PLACEMENT_3D ( 'NONE', #42, #249, #180 ) ;
#71 = CIRCLE ( 'NONE', #264, 0.04750000000000063893 ) ;
#72 = CARTESIAN_POINT ( 'NONE',  ( 0.0000000000000000000, 0.0000000000000000000, 1.485000000000000764 ) ) ;
#73 = ORIENTED_EDGE ( 'NONE', *, *, #23, .F. ) ;
#74 = ORIENTED_EDGE ( 'NONE', *, *, #2, .T. ) ;
#75 = AXIS2_PLACEMENT_3D ( 'NONE', #295, #268, #265 ) ;
#76 = VERTEX_POINT ( 'NONE', #17 ) ;
#77 = VERTEX_POINT ( 'NONE', #291 ) ;
#78 = EDGE_CURVE ( 'NONE', #185, #57, #288, .T. ) ;
#79 = ORIENTED_EDGE ( 'NONE', *, *, #192, .T. ) ;
#80 = PRODUCT_DEFINITION_FORMATION_WITH_SPECIFIED_SOURCE ( 'ANY', '', #29, .NOT_KNOWN. ) ;
#81 = DIRECTION ( 'NONE',  ( 1.000000000000000000, 0.0000000000000000000, 0.0000000000000000000 ) ) ;
#82 = AXIS2_PLACEMENT_3D ( 'NONE', #252, #136, #112 ) ;
#83 = CYLINDRICAL_SURFACE ( 'NONE', #16, 0.06249999999999997918 ) ;
#84 = CARTESIAN_POINT ( 'NONE',  ( 0.03121874999999999650, 3.823194226088142917E-18, -3.823194226088143687E-18 ) ) ;
#85 = CARTESIAN_POINT ( 'NONE',  ( 3.061616997868384251E-17, 0.0000000000000000000, 0.2500000000000000555 ) ) ;
#86 = VECTOR ( 'NONE', #31, 39.37007874015748143 ) ;
#87 = DIRECTION ( 'NONE',  ( -1.000000000000000000, 0.0000000000000000000, 0.0000000000000000000 ) ) ;
#88 =( LENGTH_UNIT ( ) NAMED_UNIT ( * ) SI_UNIT ( $, .METRE. ) );
#89 = DIRECTION ( 'NONE',  ( 0.0000000000000000000, 0.0000000000000000000, 1.000000000000000000 ) ) ;
#90 = DIRECTION ( 'NONE',  ( 1.000000000000000000, 0.0000000000000000000, 0.0000000000000000000 ) ) ;
#91 = SURFACE_STYLE_FILL_AREA ( #225 ) ;
#92 = ADVANCED_FACE ( 'NONE', ( #197 ), #132, .T. ) ;
#93 = CYLINDRICAL_SURFACE ( 'NONE', #70, 0.03121874999999999650 ) ;
#94 = EDGE_LOOP ( 'NONE', ( #149, #122, #262, #258 ) ) ;
#95 = CARTESIAN_POINT ( 'NONE',  ( 0.03121875000000003120, 0.0000000000000000000, 0.2500000000000000555 ) ) ;
#96 = ADVANCED_FACE ( 'NONE', ( #215 ), #41, .T. ) ;
#97 = ORIENTED_EDGE ( 'NONE', *, *, #78, .F. ) ;
#98 = AXIS2_PLACEMENT_3D ( 'NONE', #158, #202, #137 ) ;
#99 = STYLED_ITEM ( 'NONE', ( #257 ), #10 ) ;
#100 = EDGE_LOOP ( 'NONE', ( #33, #142, #283, #49 ) ) ;
#101 = ORIENTED_EDGE ( 'NONE', *, *, #133, .F. ) ;
#102 = FACE_OUTER_BOUND ( 'NONE', #189, .T. ) ;
#103 = DIRECTION ( 'NONE',  ( -1.000000000000000000, 0.0000000000000000000, 1.224646799147353454E-16 ) ) ;
#104 = AXIS2_PLACEMENT_3D ( 'NONE', #18, #220, #270 ) ;
#105 = DIRECTION ( 'NONE',  ( -0.0000000000000000000, -0.0000000000000000000, -1.000000000000000000 ) ) ;
#106 = CARTESIAN_POINT ( 'NONE',  ( 0.06250000000000004163, 7.654042494670960626E-18, 0.4274047844199151958 ) ) ;
#107 = CARTESIAN_POINT ( 'NONE',  ( 0.03121875000000003120, 0.0000000000000000000, 0.2500000000000000555 ) ) ;
#108 = EDGE_CURVE ( 'NONE', #118, #145, #253, .T. ) ;
#109 = PRESENTATION_LAYER_ASSIGNMENT (  '', '', ( #113 ) ) ;
#110 = CARTESIAN_POINT ( 'NONE',  ( -0.04750000000000063893, 0.0000000000000000000, 1.500000000000000222 ) ) ;
#111 = DIRECTION ( 'NONE',  ( -1.000000000000000000, 0.0000000000000000000, 1.224646799147353454E-16 ) ) ;
#112 = DIRECTION ( 'NONE',  ( 1.000000000000000000, 0.0000000000000000000, -0.0000000000000000000 ) ) ;
#113 = STYLED_ITEM ( 'NONE', ( #275 ), #241 ) ;
#114 = AXIS2_PLACEMENT_3D ( 'NONE', #184, #56, #165 ) ;
#115 = LENGTH_MEASURE_WITH_UNIT ( LENGTH_MEASURE( 0.02539999999999999897 ), #88 );
#116 = FACE_OUTER_BOUND ( 'NONE', #100, .T. ) ;
#117 = PRODUCT_CONTEXT ( 'NONE', #53, 'mechanical' ) ;
#118 = VERTEX_POINT ( 'NONE', #13 ) ;
#119 = ORIENTED_EDGE ( 'NONE', *, *, #230, .T. ) ;
#120 = ORIENTED_EDGE ( 'NONE', *, *, #181, .F. ) ;
#121 = FILL_AREA_STYLE_COLOUR ( '', #20 ) ;
#122 = ORIENTED_EDGE ( 'NONE', *, *, #163, .T. ) ;
#123 = AXIS2_PLACEMENT_3D ( 'NONE', #61, #287, #81 ) ;
#124 = EDGE_LOOP ( 'NONE', ( #120, #171, #166, #73 ) ) ;
#125 = CARTESIAN_POINT ( 'NONE',  ( 0.0000000000000000000, 0.0000000000000000000, 1.500000000000000222 ) ) ;
#126 = DIRECTION ( 'NONE',  ( 0.7071067811865454633, 8.659560562354908206E-17, -0.7071067811865495711 ) ) ;
#127 = AXIS2_PLACEMENT_3D ( 'NONE', #72, #68, #159 ) ;
#128 = CARTESIAN_POINT ( 'NONE',  ( 0.06249999999999997918, 7.654042494670954463E-18, 1.485000000000000764 ) ) ;
#129 = AXIS2_PLACEMENT_3D ( 'NONE', #231, #65, #111 ) ;
#130 = DIRECTION ( 'NONE',  ( 0.0000000000000000000, 0.0000000000000000000, 1.000000000000000000 ) ) ;
#131 = EDGE_CURVE ( 'NONE', #76, #185, #155, .T. ) ;
#132 = CYLINDRICAL_SURFACE ( 'NONE', #294, 0.06249999999999997918 ) ;
#133 = EDGE_CURVE ( 'NONE', #77, #190, #214, .T. ) ;
#134 = MECHANICAL_DESIGN_GEOMETRIC_PRESENTATION_REPRESENTATION (  '', ( #113 ), #66 ) ;
#135 = DIRECTION ( 'NONE',  ( 0.0000000000000000000, 0.0000000000000000000, -1.000000000000000000 ) ) ;
#136 = DIRECTION ( 'NONE',  ( 0.0000000000000000000, 0.0000000000000000000, 1.000000000000000000 ) ) ;
#137 = DIRECTION ( 'NONE',  ( 1.000000000000000000, 0.0000000000000000000, 0.0000000000000000000 ) ) ;
#138 = PRESENTATION_LAYER_ASSIGNMENT (  '', '', ( #99 ) ) ;
#139 = DIRECTION ( 'NONE',  ( 1.000000000000000000, 0.0000000000000000000, 0.0000000000000000000 ) ) ;
#140 =( LENGTH_UNIT ( ) NAMED_UNIT ( * ) SI_UNIT ( $, .METRE. ) );
#141 = EDGE_CURVE ( 'NONE', #57, #185, #222, .T. ) ;
#142 = ORIENTED_EDGE ( 'NONE', *, *, #163, .F. ) ;
#143 = VECTOR ( 'NONE', #218, 39.37007874015748143 ) ;
#144 =( NAMED_UNIT ( * ) PLANE_ANGLE_UNIT ( ) SI_UNIT ( $, .RADIAN. ) );
#145 = VERTEX_POINT ( 'NONE', #12 ) ;
#146 =( CONVERSION_BASED_UNIT ( 'INCH', #54 ) LENGTH_UNIT ( ) NAMED_UNIT ( #15 ) );
#147 = VERTEX_POINT ( 'NONE', #107 ) ;
#148 = ORIENTED_EDGE ( 'NONE', *, *, #277, .T. ) ;
#149 = ORIENTED_EDGE ( 'NONE', *, *, #152, .F. ) ;
#150 = FACE_OUTER_BOUND ( 'NONE', #213, .T. ) ;
#151 = DIRECTION ( 'NONE',  ( -1.224646799147353454E-16, -0.0000000000000000000, -1.000000000000000000 ) ) ;
#152 = EDGE_CURVE ( 'NONE', #147, #145, #290, .T. ) ;
#153 = VECTOR ( 'NONE', #160, 39.37007874015748143 ) ;
#154 = CIRCLE ( 'NONE', #210, 0.03121874999999999997 ) ;
#155 = LINE ( 'NONE', #19, #183 ) ;
#156 = LINE ( 'NONE', #157, #143 ) ;
#157 = CARTESIAN_POINT ( 'NONE',  ( -0.06249999999999997918, 0.0000000000000000000, 1.500000000000000222 ) ) ;
#158 = CARTESIAN_POINT ( 'NONE',  ( 0.0000000000000000000, 0.0000000000000000000, 1.485000000000000764 ) ) ;
#159 = DIRECTION ( 'NONE',  ( 1.000000000000000000, 0.0000000000000000000, 0.0000000000000000000 ) ) ;
#160 = DIRECTION ( 'NONE',  ( -0.0000000000000000000, -0.0000000000000000000, -1.000000000000000000 ) ) ;
#161 = CARTESIAN_POINT ( 'NONE',  ( 0.0000000000000000000, 0.0000000000000000000, 1.500000000000000222 ) ) ;
#162 = CONICAL_SURFACE ( 'NONE', #276, 0.04750000000000063893, 0.7853981633974453924 ) ;
#163 = EDGE_CURVE ( 'NONE', #147, #76, #154, .T. ) ;
#164 = EDGE_LOOP ( 'NONE', ( #263, #281 ) ) ;
#165 = DIRECTION ( 'NONE',  ( 1.000000000000000000, 0.0000000000000000000, 0.0000000000000000000 ) ) ;
#166 = ORIENTED_EDGE ( 'NONE', *, *, #78, .T. ) ;
#167 = VECTOR ( 'NONE', #22, 39.37007874015748143 ) ;
#168 =( NAMED_UNIT ( * ) SI_UNIT ( $, .STERADIAN. ) SOLID_ANGLE_UNIT ( ) );
#169 = ORIENTED_EDGE ( 'NONE', *, *, #172, .T. ) ;
#170 = VERTEX_POINT ( 'NONE', #179 ) ;
#171 = ORIENTED_EDGE ( 'NONE', *, *, #131, .T. ) ;
#172 = EDGE_CURVE ( 'NONE', #77, #237, #34, .T. ) ;
#173 = CARTESIAN_POINT ( 'NONE',  ( 3.061616997868384251E-17, 0.0000000000000000000, 0.2500000000000000555 ) ) ;
#174 = CARTESIAN_POINT ( 'NONE',  ( 0.0000000000000000000, 0.0000000000000000000, 1.500000000000000222 ) ) ;
#175 = DIRECTION ( 'NONE',  ( -0.0000000000000000000, -0.0000000000000000000, -1.000000000000000000 ) ) ;
#176 = DIMENSIONAL_EXPONENTS ( 1.000000000000000000, 0.0000000000000000000, 0.0000000000000000000, 0.0000000000000000000, 0.0000000000000000000, 0.0000000000000000000, 0.0000000000000000000 ) ;
#177 = CONICAL_SURFACE ( 'NONE', #43, 0.04750000000000063893, 0.7853981633974453924 ) ;
#178 = DIRECTION ( 'NONE',  ( -1.000000000000000000, 0.0000000000000000000, 0.0000000000000000000 ) ) ;
#179 = CARTESIAN_POINT ( 'NONE',  ( -0.06249999999999997918, 0.0000000000000000000, 1.485000000000000764 ) ) ;
#180 = DIRECTION ( 'NONE',  ( -1.000000000000000000, 0.0000000000000000000, 1.224646799147353454E-16 ) ) ;
#181 = EDGE_CURVE ( 'NONE', #76, #147, #26, .T. ) ;
#182 = CARTESIAN_POINT ( 'NONE',  ( 3.061616997868384251E-17, 0.0000000000000000000, 0.2500000000000000555 ) ) ;
#183 = VECTOR ( 'NONE', #193, 39.37007874015748143 ) ;
#184 = CARTESIAN_POINT ( 'NONE',  ( 0.0000000000000000000, 0.0000000000000000000, 0.0000000000000000000 ) ) ;
#185 = VERTEX_POINT ( 'NONE', #60 ) ;
#186 = APPLICATION_PROTOCOL_DEFINITION ( 'draft international standard', 'automotive_design', 1998, #226 ) ;
#187 = ORIENTED_EDGE ( 'NONE', *, *, #261, .F. ) ;
#188 = DIMENSIONAL_EXPONENTS ( 1.000000000000000000, 0.0000000000000000000, 0.0000000000000000000, 0.0000000000000000000, 0.0000000000000000000, 0.0000000000000000000, 0.0000000000000000000 ) ;
#189 = EDGE_LOOP ( 'NONE', ( #209, #204, #235, #27 ) ) ;
#190 = VERTEX_POINT ( 'NONE', #128 ) ;
#191 = UNCERTAINTY_MEASURE_WITH_UNIT (LENGTH_MEASURE( 1.000000000000000082E-05 ), #285, 'distance_accuracy_value', 'NONE');
#192 = EDGE_CURVE ( 'NONE', #170, #185, #156, .T. ) ;
#193 = DIRECTION ( 'NONE',  ( -0.1736481776669313859, 2.126576849575785473E-17, 0.9848077530122077983 ) ) ;
#194 = CIRCLE ( 'NONE', #129, 0.03121874999999999650 ) ;
#195 = DIRECTION ( 'NONE',  ( -1.000000000000000000, 0.0000000000000000000, 0.0000000000000000000 ) ) ;
#196 = DIRECTION ( 'NONE',  ( -1.000000000000000000, 0.0000000000000000000, 0.0000000000000000000 ) ) ;
#197 = FACE_OUTER_BOUND ( 'NONE', #239, .T. ) ;
#198 = AXIS2_PLACEMENT_3D ( 'NONE', #38, #130, #40 ) ;
#199 = DIRECTION ( 'NONE',  ( -1.224646799147353454E-16, -0.0000000000000000000, -1.000000000000000000 ) ) ;
#200 = FILL_AREA_STYLE_COLOUR ( '', #240 ) ;
#201 =( NAMED_UNIT ( * ) SI_UNIT ( $, .STERADIAN. ) SOLID_ANGLE_UNIT ( ) );
#202 = DIRECTION ( 'NONE',  ( 0.0000000000000000000, 0.0000000000000000000, -1.000000000000000000 ) ) ;
#203 = LINE ( 'NONE', #296, #153 ) ;
#204 = ORIENTED_EDGE ( 'NONE', *, *, #133, .T. ) ;
#205 = AXIS2_PLACEMENT_3D ( 'NONE', #272, #63, #245 ) ;
#206 = SURFACE_SIDE_STYLE ('',( #211 ) ) ;
#207 = CARTESIAN_POINT ( 'NONE',  ( -0.04750000000000063893, 0.0000000000000000000, 1.500000000000000222 ) ) ;
#208 = DIRECTION ( 'NONE',  ( -0.7071067811865454633, 0.0000000000000000000, -0.7071067811865495711 ) ) ;
#209 = ORIENTED_EDGE ( 'NONE', *, *, #172, .F. ) ;
#210 = AXIS2_PLACEMENT_3D ( 'NONE', #85, #199, #87 ) ;
#211 = SURFACE_STYLE_FILL_AREA ( #254 ) ;
#212 = ADVANCED_FACE ( 'NONE', ( #150 ), #243, .T. ) ;
#213 = EDGE_LOOP ( 'NONE', ( #119, #169 ) ) ;
#214 = LINE ( 'NONE', #292, #234 ) ;
#215 = FACE_OUTER_BOUND ( 'NONE', #279, .T. ) ;
#216 =( GEOMETRIC_REPRESENTATION_CONTEXT ( 3 ) GLOBAL_UNCERTAINTY_ASSIGNED_CONTEXT ( ( #191 ) ) GLOBAL_UNIT_ASSIGNED_CONTEXT ( ( #285, #25, #232 ) ) REPRESENTATION_CONTEXT ( 'NONE', 'WORKASPACE' ) );
#217 = DIRECTION ( 'NONE',  ( 0.0000000000000000000, 0.0000000000000000000, -1.000000000000000000 ) ) ;
#218 = DIRECTION ( 'NONE',  ( -0.0000000000000000000, -0.0000000000000000000, -1.000000000000000000 ) ) ;
#219 = ADVANCED_FACE ( 'NONE', ( #36 ), #162, .T. ) ;
#220 = DIRECTION ( 'NONE',  ( -1.224646799147353454E-16, -0.0000000000000000000, -1.000000000000000000 ) ) ;
#221 = PRODUCT_DEFINITION_SHAPE ( 'NONE', 'NONE',  #284 ) ;
#222 = CIRCLE ( 'NONE', #123, 0.06249999999999997918 ) ;
#223 = FACE_OUTER_BOUND ( 'NONE', #164, .T. ) ;
#224 = EDGE_CURVE ( 'NONE', #145, #118, #194, .T. ) ;
#225 = FILL_AREA_STYLE ('',( #200 ) ) ;
#226 = APPLICATION_CONTEXT ( 'automotive_design' ) ;
#227 = SURFACE_STYLE_USAGE ( .BOTH. , #21 ) ;
#228 = CONICAL_SURFACE ( 'NONE', #274, 0.03121874999999999997, 0.1745329251994341135 ) ;
#229 = DIRECTION ( 'NONE',  ( -1.000000000000000000, 0.0000000000000000000, 0.0000000000000000000 ) ) ;
#230 = EDGE_CURVE ( 'NONE', #237, #77, #71, .T. ) ;
#231 = CARTESIAN_POINT ( 'NONE',  ( 4.682062571497488738E-34, 0.0000000000000000000, 3.823194226088143687E-18 ) ) ;
#232 =( NAMED_UNIT ( * ) SI_UNIT ( $, .STERADIAN. ) SOLID_ANGLE_UNIT ( ) );
#233 = LINE ( 'NONE', #207, #51 ) ;
#234 = VECTOR ( 'NONE', #126, 39.37007874015748143 ) ;
#235 = ORIENTED_EDGE ( 'NONE', *, *, #271, .F. ) ;
#236 =( LENGTH_UNIT ( ) NAMED_UNIT ( * ) SI_UNIT ( $, .METRE. ) );
#237 = VERTEX_POINT ( 'NONE', #110 ) ;
#238 = ADVANCED_FACE ( 'NONE', ( #223 ), #44, .F. ) ;
#239 = EDGE_LOOP ( 'NONE', ( #242, #148, #97, #52 ) ) ;
#240 = COLOUR_RGB ( '',0.7921568627450980005, 0.8196078431372548767, 0.9333333333333333481 ) ;
#241 = MANIFOLD_SOLID_BREP ( 'Cut-Revolve1', #9 ) ;
#242 = ORIENTED_EDGE ( 'NONE', *, *, #271, .T. ) ;
#243 = PLANE ( 'NONE',  #198 ) ;
#244 = DIRECTION ( 'NONE',  ( -1.224646799147353454E-16, -0.0000000000000000000, -1.000000000000000000 ) ) ;
#245 = DIRECTION ( 'NONE',  ( 1.000000000000000000, 0.0000000000000000000, 0.0000000000000000000 ) ) ;
#246 = CARTESIAN_POINT ( 'NONE',  ( 0.0000000000000000000, 0.0000000000000000000, 1.500000000000000222 ) ) ;
#247 = EDGE_CURVE ( 'NONE', #76, #118, #248, .T. ) ;
#248 = LINE ( 'NONE', #69, #167 ) ;
#249 = DIRECTION ( 'NONE',  ( -1.224646799147353454E-16, -0.0000000000000000000, -1.000000000000000000 ) ) ;
#250 = DIRECTION ( 'NONE',  ( 1.224646799147353454E-16, 0.0000000000000000000, 1.000000000000000000 ) ) ;
#251 = DIRECTION ( 'NONE',  ( 1.000000000000000000, 0.0000000000000000000, 0.0000000000000000000 ) ) ;
#252 = CARTESIAN_POINT ( 'NONE',  ( 0.0000000000000000000, 0.0000000000000000000, 0.0000000000000000000 ) ) ;
#253 = CIRCLE ( 'NONE', #104, 0.03121874999999999650 ) ;
#254 = FILL_AREA_STYLE ('',( #121 ) ) ;
#255 = ADVANCED_FACE ( 'NONE', ( #116 ), #228, .T. ) ;
#256 = ORIENTED_EDGE ( 'NONE', *, *, #261, .T. ) ;
#257 = PRESENTATION_STYLE_ASSIGNMENT (( #4 ) ) ;
#258 = ORIENTED_EDGE ( 'NONE', *, *, #224, .F. ) ;
#259 = AXIS2_PLACEMENT_3D ( 'NONE', #39, #266, #103 ) ;
#260 = ORIENTED_EDGE ( 'NONE', *, *, #277, .F. ) ;
#261 = EDGE_CURVE ( 'NONE', #190, #170, #269, .T. ) ;
#262 = ORIENTED_EDGE ( 'NONE', *, *, #247, .T. ) ;
#263 = ORIENTED_EDGE ( 'NONE', *, *, #108, .T. ) ;
#264 = AXIS2_PLACEMENT_3D ( 'NONE', #297, #89, #90 ) ;
#265 = DIRECTION ( 'NONE',  ( 1.000000000000000000, 0.0000000000000000000, 0.0000000000000000000 ) ) ;
#266 = DIRECTION ( 'NONE',  ( -1.224646799147353454E-16, -0.0000000000000000000, -1.000000000000000000 ) ) ;
#267 = UNCERTAINTY_MEASURE_WITH_UNIT (LENGTH_MEASURE( 1.000000000000000082E-05 ), #45, 'distance_accuracy_value', 'NONE');
#268 = DIRECTION ( 'NONE',  ( -1.224646799147353454E-16, -0.0000000000000000000, -1.000000000000000000 ) ) ;
#269 = CIRCLE ( 'NONE', #98, 0.06249999999999997918 ) ;
#270 = DIRECTION ( 'NONE',  ( -1.000000000000000000, 0.0000000000000000000, 1.224646799147353454E-16 ) ) ;
#271 = EDGE_CURVE ( 'NONE', #170, #190, #7, .T. ) ;
#272 = CARTESIAN_POINT ( 'NONE',  ( 0.0000000000000000000, 0.0000000000000000000, 1.500000000000000222 ) ) ;
#273 = AXIS2_PLACEMENT_3D ( 'NONE', #173, #244, #62 ) ;
#274 = AXIS2_PLACEMENT_3D ( 'NONE', #299, #298, #139 ) ;
#275 = PRESENTATION_STYLE_ASSIGNMENT (( #227 ) ) ;
#276 = AXIS2_PLACEMENT_3D ( 'NONE', #161, #135, #229 ) ;
#277 = EDGE_CURVE ( 'NONE', #190, #57, #203, .T. ) ;
#278 = ORIENTED_EDGE ( 'NONE', *, *, #181, .T. ) ;
#279 = EDGE_LOOP ( 'NONE', ( #278, #3, #286, #8 ) ) ;
#280 = CONICAL_SURFACE ( 'NONE', #32, 0.03121874999999999997, 0.1745329251994341135 ) ;
#281 = ORIENTED_EDGE ( 'NONE', *, *, #224, .T. ) ;
#282 = VECTOR ( 'NONE', #151, 39.37007874015748143 ) ;
#283 = ORIENTED_EDGE ( 'NONE', *, *, #23, .T. ) ;
#284 = PRODUCT_DEFINITION ( 'UNKNOWN', '', #80, #24 ) ;
#285 =( CONVERSION_BASED_UNIT ( 'INCH', #6 ) LENGTH_UNIT ( ) NAMED_UNIT ( #176 ) );
#286 = ORIENTED_EDGE ( 'NONE', *, *, #108, .F. ) ;
#287 = DIRECTION ( 'NONE',  ( -1.224646799147353454E-16, -0.0000000000000000000, -1.000000000000000000 ) ) ;
#288 = CIRCLE ( 'NONE', #75, 0.06249999999999997918 ) ;
#289 = ADVANCED_FACE ( 'NONE', ( #1 ), #93, .T. ) ;
#290 = LINE ( 'NONE', #84, #282 ) ;
#291 = CARTESIAN_POINT ( 'NONE',  ( 0.04750000000000063893, 6.735557395310480881E-18, 1.500000000000000222 ) ) ;
#292 = CARTESIAN_POINT ( 'NONE',  ( 0.04750000000000063893, 5.817072295950005757E-18, 1.500000000000000222 ) ) ;
#293 = ADVANCED_FACE ( 'NONE', ( #67 ), #280, .T. ) ;
#294 = AXIS2_PLACEMENT_3D ( 'NONE', #125, #105, #178 ) ;
#295 = CARTESIAN_POINT ( 'NONE',  ( 5.234199011801138154E-17, 0.0000000000000000000, 0.4274047844199151958 ) ) ;
#296 = CARTESIAN_POINT ( 'NONE',  ( 0.06249999999999997918, 7.654042494670954463E-18, 1.500000000000000222 ) ) ;
#297 = CARTESIAN_POINT ( 'NONE',  ( 0.0000000000000000000, 0.0000000000000000000, 1.500000000000000222 ) ) ;
#298 = DIRECTION ( 'NONE',  ( 1.224646799147353454E-16, 0.0000000000000000000, 1.000000000000000000 ) ) ;
#299 = CARTESIAN_POINT ( 'NONE',  ( 3.061616997868384251E-17, 0.0000000000000000000, 0.2500000000000000555 ) ) ;
ENDSEC;
END-ISO-10303-21;
