ISO-10303-21;
HEADER;
FILE_DESCRIPTION (( 'STEP AP214' ),
    '1' );
FILE_NAME ('59714.STEP',
    '2023-07-24T15:54:16',
    ( '' ),
    ( '' ),
    'SwSTEP 2.0',
    'SolidWorks 2023',
    '' );
FILE_SCHEMA (( 'AUTOMOTIVE_DESIGN' ));
ENDSEC;

DATA;
#1 = ORIENTED_EDGE ( 'NONE', *, *, #15, .F. ) ;
#2 = COLOUR_RGB ( '',1.000000000000000000, 0.000000000000000000, 0.000000000000000000 ) ;
#3 = EDGE_CURVE ( 'NONE', #6, #185, #88, .T. ) ;
#4 = MANIFOLD_SOLID_BREP ( 'Revolve - Cutting Edge', #114 ) ;
#5 = FACE_OUTER_BOUND ( 'NONE', #254, .T. ) ;
#6 = VERTEX_POINT ( 'NONE', #282 ) ;
#7 = COLOUR_RGB ( '',1.000000000000000000, 0.000000000000000000, 0.000000000000000000 ) ;
#8 = FILL_AREA_STYLE ('',( #260 ) ) ;
#9 = DIRECTION ( 'NONE',  ( -0.000000000000000000, -1.000000000000000000, -0.000000000000000000 ) ) ;
#10 = FILL_AREA_STYLE ('',( #33 ) ) ;
#11 = DIRECTION ( 'NONE',  ( -2.637700798163528719E-17, 1.000000000000000000, -0.000000000000000000 ) ) ;
#12 = ORIENTED_EDGE ( 'NONE', *, *, #165, .F. ) ;
#13 = CARTESIAN_POINT ( 'NONE',  ( -8.000000000000003553, 89.00000000000000000, 0.000000000000000000 ) ) ;
#14 = DIRECTION ( 'NONE',  ( 0.000000000000000000, 1.000000000000000000, 0.000000000000000000 ) ) ;
#15 = EDGE_CURVE ( 'NONE', #206, #141, #225, .T. ) ;
#16 = SHAPE_DEFINITION_REPRESENTATION ( #183, #269 ) ;
#17 = AXIS2_PLACEMENT_3D ( 'NONE', #56, #121, #212 ) ;
#18 = CYLINDRICAL_SURFACE ( 'NONE', #58, 8.000000000000000000 ) ;
#19 = CARTESIAN_POINT ( 'NONE',  ( 0.000000000000000000, 24.00000000000000000, 0.000000000000000000 ) ) ;
#20 = FACE_OUTER_BOUND ( 'NONE', #196, .T. ) ;
#21 = AXIS2_PLACEMENT_3D ( 'NONE', #43, #83, #192 ) ;
#22 = VERTEX_POINT ( 'NONE', #50 ) ;
#23 = EDGE_CURVE ( 'NONE', #141, #206, #231, .T. ) ;
#24 = ORIENTED_EDGE ( 'NONE', *, *, #71, .T. ) ;
#25 = CARTESIAN_POINT ( 'NONE',  ( 0.000000000000000000, 0.000000000000000000, 0.000000000000000000 ) ) ;
#26 = STYLED_ITEM ( 'NONE', ( #95 ), #4 ) ;
#27 = ORIENTED_EDGE ( 'NONE', *, *, #3, .T. ) ;
#28 = ADVANCED_FACE ( 'NONE', ( #116 ), #224, .T. ) ;
#29 =( LENGTH_UNIT ( ) NAMED_UNIT ( * ) SI_UNIT ( .MILLI., .METRE. ) );
#30 = AXIS2_PLACEMENT_3D ( 'NONE', #59, #57, #61 ) ;
#31 = DIRECTION ( 'NONE',  ( 2.637700798163528719E-17, -1.000000000000000000, 0.000000000000000000 ) ) ;
#32 = DIRECTION ( 'NONE',  ( 0.000000000000000000, 0.000000000000000000, -1.000000000000000000 ) ) ;
#33 = FILL_AREA_STYLE_COLOUR ( '', #7 ) ;
#34 =( NAMED_UNIT ( * ) PLANE_ANGLE_UNIT ( ) SI_UNIT ( $, .RADIAN. ) );
#35 = FILL_AREA_STYLE ('',( #230 ) ) ;
#36 = AXIS2_PLACEMENT_3D ( 'NONE', #182, #31, #203 ) ;
#37 = DIRECTION ( 'NONE',  ( -0.000000000000000000, -1.000000000000000000, -0.000000000000000000 ) ) ;
#38 =( NAMED_UNIT ( * ) SI_UNIT ( $, .STERADIAN. ) SOLID_ANGLE_UNIT ( ) );
#39 = SURFACE_STYLE_FILL_AREA ( #109 ) ;
#40 = EDGE_CURVE ( 'NONE', #22, #275, #265, .T. ) ;
#41 = FACE_OUTER_BOUND ( 'NONE', #173, .T. ) ;
#42 =( GEOMETRIC_REPRESENTATION_CONTEXT ( 3 ) GLOBAL_UNCERTAINTY_ASSIGNED_CONTEXT ( ( #162 ) ) GLOBAL_UNIT_ASSIGNED_CONTEXT ( ( #235, #161, #158 ) ) REPRESENTATION_CONTEXT ( 'NONE', 'WORKASPACE' ) );
#43 = CARTESIAN_POINT ( 'NONE',  ( 0.000000000000000000, 23.99999999999999289, 0.000000000000000000 ) ) ;
#44 = LINE ( 'NONE', #65, #48 ) ;
#45 = DIRECTION ( 'NONE',  ( -2.637700798163528719E-17, 1.000000000000000000, -0.000000000000000000 ) ) ;
#46 =( NAMED_UNIT ( * ) SI_UNIT ( $, .STERADIAN. ) SOLID_ANGLE_UNIT ( ) );
#47 = CARTESIAN_POINT ( 'NONE',  ( 0.000000000000000000, 23.99999999999999289, 0.000000000000000000 ) ) ;
#48 = VECTOR ( 'NONE', #195, 1000.000000000000000 ) ;
#49 = ORIENTED_EDGE ( 'NONE', *, *, #23, .T. ) ;
#50 = CARTESIAN_POINT ( 'NONE',  ( -8.000000000000000000, 23.99999999999999289, 0.000000000000000000 ) ) ;
#51 = ADVANCED_FACE ( 'NONE', ( #286 ), #268, .T. ) ;
#52 = PLANE ( 'NONE',  #85 ) ;
#53 = CARTESIAN_POINT ( 'NONE',  ( 0.000000000000000000, 24.00000000000000000, 0.000000000000000000 ) ) ;
#54 = CARTESIAN_POINT ( 'NONE',  ( 0.000000000000000000, 0.000000000000000000, -8.000000000000000000 ) ) ;
#55 = AXIS2_PLACEMENT_3D ( 'NONE', #68, #11, #100 ) ;
#56 = CARTESIAN_POINT ( 'NONE',  ( -1.714505518806293849E-15, 89.00000000000000000, 0.000000000000000000 ) ) ;
#57 = DIRECTION ( 'NONE',  ( -0.000000000000000000, -1.000000000000000000, -0.000000000000000000 ) ) ;
#58 = AXIS2_PLACEMENT_3D ( 'NONE', #144, #253, #187 ) ;
#59 = CARTESIAN_POINT ( 'NONE',  ( 0.000000000000000000, 24.00000000000000000, 0.000000000000000000 ) ) ;
#60 = STYLED_ITEM ( 'NONE', ( #255 ), #237 ) ;
#61 = DIRECTION ( 'NONE',  ( 0.000000000000000000, 0.000000000000000000, -1.000000000000000000 ) ) ;
#62 = DIRECTION ( 'NONE',  ( 0.000000000000000000, 0.000000000000000000, -1.000000000000000000 ) ) ;
#63 =( NAMED_UNIT ( * ) PLANE_ANGLE_UNIT ( ) SI_UNIT ( $, .RADIAN. ) );
#64 = MECHANICAL_DESIGN_GEOMETRIC_PRESENTATION_REPRESENTATION (  '', ( #118 ), #66 ) ;
#65 = CARTESIAN_POINT ( 'NONE',  ( 0.000000000000000000, 0.000000000000000000, -8.000000000000000000 ) ) ;
#66 =( GEOMETRIC_REPRESENTATION_CONTEXT ( 3 ) GLOBAL_UNCERTAINTY_ASSIGNED_CONTEXT ( ( #188 ) ) GLOBAL_UNIT_ASSIGNED_CONTEXT ( ( #139, #34, #278 ) ) REPRESENTATION_CONTEXT ( 'NONE', 'WORKASPACE' ) );
#67 = ORIENTED_EDGE ( 'NONE', *, *, #75, .F. ) ;
#68 = CARTESIAN_POINT ( 'NONE',  ( -1.714505518806293849E-15, 89.00000000000000000, 0.000000000000000000 ) ) ;
#69 = FACE_OUTER_BOUND ( 'NONE', #256, .T. ) ;
#70 = ORIENTED_EDGE ( 'NONE', *, *, #205, .F. ) ;
#71 = EDGE_CURVE ( 'NONE', #22, #141, #238, .T. ) ;
#72 = VECTOR ( 'NONE', #262, 1000.000000000000000 ) ;
#73 = VECTOR ( 'NONE', #45, 1000.000000000000000 ) ;
#74 = SURFACE_SIDE_STYLE ('',( #281 ) ) ;
#75 = EDGE_CURVE ( 'NONE', #185, #6, #78, .T. ) ;
#76 = FILL_AREA_STYLE ('',( #208 ) ) ;
#77 = SURFACE_STYLE_FILL_AREA ( #35 ) ;
#78 = CIRCLE ( 'NONE', #30, 8.000000000000000000 ) ;
#79 = FACE_OUTER_BOUND ( 'NONE', #247, .T. ) ;
#80 = APPLICATION_PROTOCOL_DEFINITION ( 'draft international standard', 'automotive_design', 1998, #129 ) ;
#81 =( GEOMETRIC_REPRESENTATION_CONTEXT ( 3 ) GLOBAL_UNCERTAINTY_ASSIGNED_CONTEXT ( ( #261 ) ) GLOBAL_UNIT_ASSIGNED_CONTEXT ( ( #257, #211, #90 ) ) REPRESENTATION_CONTEXT ( 'NONE', 'WORKASPACE' ) );
#82 = UNCERTAINTY_MEASURE_WITH_UNIT (LENGTH_MEASURE( 1.000000000000000082E-05 ), #252, 'distance_accuracy_value', 'NONE');
#83 = DIRECTION ( 'NONE',  ( -2.637700798163528719E-17, 1.000000000000000000, -0.000000000000000000 ) ) ;
#84 = CARTESIAN_POINT ( 'NONE',  ( 0.000000000000000000, 0.000000000000000000, 0.000000000000000000 ) ) ;
#85 = AXIS2_PLACEMENT_3D ( 'NONE', #115, #164, #279 ) ;
#86 =( LENGTH_UNIT ( ) NAMED_UNIT ( * ) SI_UNIT ( .MILLI., .METRE. ) );
#87 = ORIENTED_EDGE ( 'NONE', *, *, #15, .T. ) ;
#88 = CIRCLE ( 'NONE', #157, 8.000000000000000000 ) ;
#89 = APPLICATION_PROTOCOL_DEFINITION ( 'draft international standard', 'automotive_design', 1998, #201 ) ;
#90 =( NAMED_UNIT ( * ) SI_UNIT ( $, .STERADIAN. ) SOLID_ANGLE_UNIT ( ) );
#91 = ORIENTED_EDGE ( 'NONE', *, *, #23, .F. ) ;
#92 =( LENGTH_UNIT ( ) NAMED_UNIT ( * ) SI_UNIT ( .MILLI., .METRE. ) );
#93 = CLOSED_SHELL ( 'NONE', ( #123, #176, #239, #136 ) ) ;
#94 = CARTESIAN_POINT ( 'NONE',  ( 9.797174393178825657E-16, 24.00000000000000000, 8.000000000000000000 ) ) ;
#95 = PRESENTATION_STYLE_ASSIGNMENT (( #163 ) ) ;
#96 = DIRECTION ( 'NONE',  ( 0.000000000000000000, 0.000000000000000000, -1.000000000000000000 ) ) ;
#97 = SURFACE_STYLE_FILL_AREA ( #10 ) ;
#98 = MECHANICAL_DESIGN_GEOMETRIC_PRESENTATION_REPRESENTATION (  '', ( #168 ), #214 ) ;
#99 = CARTESIAN_POINT ( 'NONE',  ( 9.797174393178825657E-16, 0.000000000000000000, 8.000000000000000000 ) ) ;
#100 = DIRECTION ( 'NONE',  ( -1.000000000000000000, 0.000000000000000000, 0.000000000000000000 ) ) ;
#101 = SURFACE_STYLE_USAGE ( .BOTH. , #228 ) ;
#102 = ORIENTED_EDGE ( 'NONE', *, *, #264, .T. ) ;
#103 = LINE ( 'NONE', #99, #251 ) ;
#104 = FILL_AREA_STYLE_COLOUR ( '', #2 ) ;
#105 = PRESENTATION_LAYER_ASSIGNMENT (  '', '', ( #181 ) ) ;
#106 = SURFACE_STYLE_USAGE ( .BOTH. , #191 ) ;
#107 = EDGE_CURVE ( 'NONE', #210, #156, #149, .T. ) ;
#108 = FILL_AREA_STYLE_COLOUR ( '', #171 ) ;
#109 = FILL_AREA_STYLE ('',( #108 ) ) ;
#110 = DIRECTION ( 'NONE',  ( 0.000000000000000000, 0.000000000000000000, 1.000000000000000000 ) ) ;
#111 = MECHANICAL_DESIGN_GEOMETRIC_PRESENTATION_REPRESENTATION (  '', ( #26 ), #127 ) ;
#112 = EDGE_LOOP ( 'NONE', ( #202, #242 ) ) ;
#113 = CARTESIAN_POINT ( 'NONE',  ( 0.000000000000000000, 0.000000000000000000, 0.000000000000000000 ) ) ;
#114 = CLOSED_SHELL ( 'NONE', ( #237, #28, #132, #51 ) ) ;
#115 = CARTESIAN_POINT ( 'NONE',  ( 2.782986200253006795E-33, 24.00000000000000000, 0.000000000000000000 ) ) ;
#116 = FACE_OUTER_BOUND ( 'NONE', #152, .T. ) ;
#117 = CARTESIAN_POINT ( 'NONE',  ( 0.000000000000000000, 0.000000000000000000, 0.000000000000000000 ) ) ;
#118 = STYLED_ITEM ( 'NONE', ( #119 ), #197 ) ;
#119 = PRESENTATION_STYLE_ASSIGNMENT (( #101 ) ) ;
#120 = UNCERTAINTY_MEASURE_WITH_UNIT (LENGTH_MEASURE( 1.000000000000000082E-05 ), #29, 'distance_accuracy_value', 'NONE');
#121 = DIRECTION ( 'NONE',  ( -2.637700798163528719E-17, 1.000000000000000000, -0.000000000000000000 ) ) ;
#122 = SURFACE_SIDE_STYLE ('',( #39 ) ) ;
#123 = ADVANCED_FACE ( 'NONE', ( #20 ), #234, .T. ) ;
#124 = MECHANICAL_DESIGN_GEOMETRIC_PRESENTATION_REPRESENTATION (  '', ( #138 ), #285 ) ;
#125 = CIRCLE ( 'NONE', #178, 8.000000000000000000 ) ;
#126 = DIRECTION ( 'NONE',  ( 0.000000000000000000, -0.000000000000000000, 1.000000000000000000 ) ) ;
#127 =( GEOMETRIC_REPRESENTATION_CONTEXT ( 3 ) GLOBAL_UNCERTAINTY_ASSIGNED_CONTEXT ( ( #82 ) ) GLOBAL_UNIT_ASSIGNED_CONTEXT ( ( #252, #226, #159 ) ) REPRESENTATION_CONTEXT ( 'NONE', 'WORKASPACE' ) );
#128 = PRESENTATION_LAYER_ASSIGNMENT (  '', '', ( #60 ) ) ;
#129 = APPLICATION_CONTEXT ( 'automotive_design' ) ;
#130 = DIRECTION ( 'NONE',  ( -1.000000000000000000, 0.000000000000000000, 0.000000000000000000 ) ) ;
#131 = ORIENTED_EDGE ( 'NONE', *, *, #246, .F. ) ;
#132 = ADVANCED_FACE ( 'NONE', ( #41 ), #18, .T. ) ;
#133 = DIRECTION ( 'NONE',  ( -2.637700798163528719E-17, 1.000000000000000000, -0.000000000000000000 ) ) ;
#134 = ORIENTED_EDGE ( 'NONE', *, *, #75, .T. ) ;
#135 = CARTESIAN_POINT ( 'NONE',  ( -1.714505518806293849E-15, 89.00000000000000000, 0.000000000000000000 ) ) ;
#136 = ADVANCED_FACE ( 'NONE', ( #79 ), #184, .F. ) ;
#137 = ORIENTED_EDGE ( 'NONE', *, *, #246, .T. ) ;
#138 = STYLED_ITEM ( 'NONE', ( #287 ), #51 ) ;
#139 =( LENGTH_UNIT ( ) NAMED_UNIT ( * ) SI_UNIT ( .MILLI., .METRE. ) );
#140 = DIRECTION ( 'NONE',  ( -2.637700798163528719E-17, 1.000000000000000000, -0.000000000000000000 ) ) ;
#141 = VERTEX_POINT ( 'NONE', #13 ) ;
#142 = CARTESIAN_POINT ( 'NONE',  ( 9.797174393178825657E-16, 0.000000000000000000, 8.000000000000000000 ) ) ;
#143 = SURFACE_SIDE_STYLE ('',( #97 ) ) ;
#144 = CARTESIAN_POINT ( 'NONE',  ( 0.000000000000000000, 0.000000000000000000, 0.000000000000000000 ) ) ;
#145 = UNCERTAINTY_MEASURE_WITH_UNIT (LENGTH_MEASURE( 1.000000000000000082E-05 ), #92, 'distance_accuracy_value', 'NONE');
#146 = CARTESIAN_POINT ( 'NONE',  ( 0.000000000000000000, 0.000000000000000000, 0.000000000000000000 ) ) ;
#147 = MECHANICAL_DESIGN_GEOMETRIC_PRESENTATION_REPRESENTATION (  '', ( #60 ), #81 ) ;
#148 = DIRECTION ( 'NONE',  ( 0.000000000000000000, 0.000000000000000000, -1.000000000000000000 ) ) ;
#149 = CIRCLE ( 'NONE', #190, 8.000000000000000000 ) ;
#150 = ORIENTED_EDGE ( 'NONE', *, *, #107, .T. ) ;
#151 = LINE ( 'NONE', #223, #73 ) ;
#152 = EDGE_LOOP ( 'NONE', ( #284, #67 ) ) ;
#153 = DIRECTION ( 'NONE',  ( 1.000000000000000000, 0.000000000000000000, 0.000000000000000000 ) ) ;
#154 = COLOUR_RGB ( '',0.7921568627450980005, 0.8196078431372548767, 0.9333333333333333481 ) ;
#155 = SURFACE_SIDE_STYLE ('',( #77 ) ) ;
#156 = VERTEX_POINT ( 'NONE', #142 ) ;
#157 = AXIS2_PLACEMENT_3D ( 'NONE', #53, #207, #32 ) ;
#158 =( NAMED_UNIT ( * ) SI_UNIT ( $, .STERADIAN. ) SOLID_ANGLE_UNIT ( ) );
#159 =( NAMED_UNIT ( * ) SI_UNIT ( $, .STERADIAN. ) SOLID_ANGLE_UNIT ( ) );
#160 = SURFACE_STYLE_USAGE ( .BOTH. , #74 ) ;
#161 =( NAMED_UNIT ( * ) PLANE_ANGLE_UNIT ( ) SI_UNIT ( $, .RADIAN. ) );
#162 = UNCERTAINTY_MEASURE_WITH_UNIT (LENGTH_MEASURE( 1.000000000000000082E-05 ), #235, 'distance_accuracy_value', 'NONE');
#163 = SURFACE_STYLE_USAGE ( .BOTH. , #155 ) ;
#164 = DIRECTION ( 'NONE',  ( -2.637700798163528719E-17, 1.000000000000000000, 0.000000000000000000 ) ) ;
#165 = EDGE_CURVE ( 'NONE', #156, #210, #222, .T. ) ;
#166 = CARTESIAN_POINT ( 'NONE',  ( -8.000000000000001776, 89.00000000000000000, 0.000000000000000000 ) ) ;
#167 =( NAMED_UNIT ( * ) SI_UNIT ( $, .STERADIAN. ) SOLID_ANGLE_UNIT ( ) );
#168 = STYLED_ITEM ( 'NONE', ( #280 ), #28 ) ;
#169 = PRODUCT_DEFINITION_FORMATION_WITH_SPECIFIED_SOURCE ( 'ANY', '', #216, .NOT_KNOWN. ) ;
#170 = EDGE_LOOP ( 'NONE', ( #150, #220 ) ) ;
#171 = COLOUR_RGB ( '',1.000000000000000000, 0.000000000000000000, 0.000000000000000000 ) ;
#172 = DIRECTION ( 'NONE',  ( -0.000000000000000000, -1.000000000000000000, -0.000000000000000000 ) ) ;
#173 = EDGE_LOOP ( 'NONE', ( #70, #134, #272, #12 ) ) ;
#174 = CARTESIAN_POINT ( 'NONE',  ( -1.714505518806293849E-15, 89.00000000000000000, 0.000000000000000000 ) ) ;
#175 = ORIENTED_EDGE ( 'NONE', *, *, #71, .F. ) ;
#176 = ADVANCED_FACE ( 'NONE', ( #179 ), #52, .F. ) ;
#177 = PRESENTATION_LAYER_ASSIGNMENT (  '', '', ( #138 ) ) ;
#178 = AXIS2_PLACEMENT_3D ( 'NONE', #47, #243, #244 ) ;
#179 = FACE_OUTER_BOUND ( 'NONE', #112, .T. ) ;
#180 = SURFACE_STYLE_USAGE ( .BOTH. , #143 ) ;
#181 = STYLED_ITEM ( 'NONE', ( #263 ), #132 ) ;
#182 = CARTESIAN_POINT ( 'NONE',  ( 8.000000000000000000, 89.00000000000000000, 0.000000000000000000 ) ) ;
#183 = PRODUCT_DEFINITION_SHAPE ( 'NONE', 'NONE',  #186 ) ;
#184 = PLANE ( 'NONE',  #36 ) ;
#185 = VERTEX_POINT ( 'NONE', #94 ) ;
#186 = PRODUCT_DEFINITION ( 'UNKNOWN', '', #169, #227 ) ;
#187 = DIRECTION ( 'NONE',  ( 0.000000000000000000, 0.000000000000000000, -1.000000000000000000 ) ) ;
#188 = UNCERTAINTY_MEASURE_WITH_UNIT (LENGTH_MEASURE( 1.000000000000000082E-05 ), #139, 'distance_accuracy_value', 'NONE');
#189 = FILL_AREA_STYLE ('',( #104 ) ) ;
#190 = AXIS2_PLACEMENT_3D ( 'NONE', #146, #217, #148 ) ;
#191 = SURFACE_SIDE_STYLE ('',( #213 ) ) ;
#192 = DIRECTION ( 'NONE',  ( -1.000000000000000000, 0.000000000000000000, 0.000000000000000000 ) ) ;
#193 = SURFACE_STYLE_USAGE ( .BOTH. , #122 ) ;
#194 = COLOUR_RGB ( '',1.000000000000000000, 0.000000000000000000, 0.000000000000000000 ) ;
#195 = DIRECTION ( 'NONE',  ( -0.000000000000000000, -1.000000000000000000, -0.000000000000000000 ) ) ;
#196 = EDGE_LOOP ( 'NONE', ( #248, #137, #91, #175 ) ) ;
#197 = MANIFOLD_SOLID_BREP ( 'Revolve - Tool Body (Straight Shanked)', #93 ) ;
#198 = ORIENTED_EDGE ( 'NONE', *, *, #205, .T. ) ;
#199 = AXIS2_PLACEMENT_3D ( 'NONE', #84, #259, #215 ) ;
#200 =( NAMED_UNIT ( * ) PLANE_ANGLE_UNIT ( ) SI_UNIT ( $, .RADIAN. ) );
#201 = APPLICATION_CONTEXT ( 'automotive_design' ) ;
#202 = ORIENTED_EDGE ( 'NONE', *, *, #40, .F. ) ;
#203 = DIRECTION ( 'NONE',  ( 1.000000000000000000, 2.637700798163528719E-17, 0.000000000000000000 ) ) ;
#204 = PRODUCT_CONTEXT ( 'NONE', #201, 'mechanical' ) ;
#205 = EDGE_CURVE ( 'NONE', #185, #156, #103, .T. ) ;
#206 = VERTEX_POINT ( 'NONE', #283 ) ;
#207 = DIRECTION ( 'NONE',  ( -0.000000000000000000, -1.000000000000000000, -0.000000000000000000 ) ) ;
#208 = FILL_AREA_STYLE_COLOUR ( '', #194 ) ;
#209 = UNCERTAINTY_MEASURE_WITH_UNIT (LENGTH_MEASURE( 1.000000000000000082E-05 ), #86, 'distance_accuracy_value', 'NONE');
#210 = VERTEX_POINT ( 'NONE', #54 ) ;
#211 =( NAMED_UNIT ( * ) PLANE_ANGLE_UNIT ( ) SI_UNIT ( $, .RADIAN. ) );
#212 = DIRECTION ( 'NONE',  ( -1.000000000000000000, 0.000000000000000000, 0.000000000000000000 ) ) ;
#213 = SURFACE_STYLE_FILL_AREA ( #189 ) ;
#214 =( GEOMETRIC_REPRESENTATION_CONTEXT ( 3 ) GLOBAL_UNCERTAINTY_ASSIGNED_CONTEXT ( ( #120 ) ) GLOBAL_UNIT_ASSIGNED_CONTEXT ( ( #29, #200, #38 ) ) REPRESENTATION_CONTEXT ( 'NONE', 'WORKASPACE' ) );
#215 = DIRECTION ( 'NONE',  ( 0.000000000000000000, 0.000000000000000000, -1.000000000000000000 ) ) ;
#216 = PRODUCT ( '59714', '59714', '', ( #204 ) ) ;
#217 = DIRECTION ( 'NONE',  ( -0.000000000000000000, -1.000000000000000000, -0.000000000000000000 ) ) ;
#218 =( GEOMETRIC_REPRESENTATION_CONTEXT ( 3 ) GLOBAL_UNCERTAINTY_ASSIGNED_CONTEXT ( ( #145 ) ) GLOBAL_UNIT_ASSIGNED_CONTEXT ( ( #92, #63, #46 ) ) REPRESENTATION_CONTEXT ( 'NONE', 'WORKASPACE' ) );
#219 = PRODUCT_RELATED_PRODUCT_CATEGORY ( 'part', '', ( #216 ) ) ;
#220 = ORIENTED_EDGE ( 'NONE', *, *, #165, .T. ) ;
#221 = AXIS2_PLACEMENT_3D ( 'NONE', #135, #140, #229 ) ;
#222 = CIRCLE ( 'NONE', #236, 8.000000000000000000 ) ;
#223 = CARTESIAN_POINT ( 'NONE',  ( 7.999999999999998224, 89.00000000000000000, 9.797174393178825657E-16 ) ) ;
#224 = PLANE ( 'NONE',  #250 ) ;
#225 = CIRCLE ( 'NONE', #55, 8.000000000000001776 ) ;
#226 =( NAMED_UNIT ( * ) PLANE_ANGLE_UNIT ( ) SI_UNIT ( $, .RADIAN. ) );
#227 = PRODUCT_DEFINITION_CONTEXT ( 'detailed design', #129, 'design' ) ;
#228 = SURFACE_SIDE_STYLE ('',( #232 ) ) ;
#229 = DIRECTION ( 'NONE',  ( -1.000000000000000000, 0.000000000000000000, 0.000000000000000000 ) ) ;
#230 = FILL_AREA_STYLE_COLOUR ( '', #154 ) ;
#231 = CIRCLE ( 'NONE', #221, 8.000000000000001776 ) ;
#232 = SURFACE_STYLE_FILL_AREA ( #8 ) ;
#233 =( NAMED_UNIT ( * ) PLANE_ANGLE_UNIT ( ) SI_UNIT ( $, .RADIAN. ) );
#234 = CYLINDRICAL_SURFACE ( 'NONE', #17, 8.000000000000000000 ) ;
#235 =( LENGTH_UNIT ( ) NAMED_UNIT ( * ) SI_UNIT ( .MILLI., .METRE. ) );
#236 = AXIS2_PLACEMENT_3D ( 'NONE', #117, #9, #96 ) ;
#237 = ADVANCED_FACE ( 'NONE', ( #69 ), #249, .T. ) ;
#238 = LINE ( 'NONE', #166, #72 ) ;
#239 = ADVANCED_FACE ( 'NONE', ( #5 ), #240, .T. ) ;
#240 = CYLINDRICAL_SURFACE ( 'NONE', #267, 8.000000000000000000 ) ;
#241 = AXIS2_PLACEMENT_3D ( 'NONE', #25, #110, #153 ) ;
#242 = ORIENTED_EDGE ( 'NONE', *, *, #264, .F. ) ;
#243 = DIRECTION ( 'NONE',  ( -2.637700798163528719E-17, 1.000000000000000000, -0.000000000000000000 ) ) ;
#244 = DIRECTION ( 'NONE',  ( -1.000000000000000000, 0.000000000000000000, 0.000000000000000000 ) ) ;
#245 = COLOUR_RGB ( '',0.7921568627450980005, 0.8196078431372548767, 0.9333333333333333481 ) ;
#246 = EDGE_CURVE ( 'NONE', #275, #206, #151, .T. ) ;
#247 = EDGE_LOOP ( 'NONE', ( #49, #87 ) ) ;
#248 = ORIENTED_EDGE ( 'NONE', *, *, #40, .T. ) ;
#249 = CYLINDRICAL_SURFACE ( 'NONE', #266, 8.000000000000000000 ) ;
#250 = AXIS2_PLACEMENT_3D ( 'NONE', #19, #14, #126 ) ;
#251 = VECTOR ( 'NONE', #37, 1000.000000000000000 ) ;
#252 =( LENGTH_UNIT ( ) NAMED_UNIT ( * ) SI_UNIT ( .MILLI., .METRE. ) );
#253 = DIRECTION ( 'NONE',  ( -0.000000000000000000, -1.000000000000000000, -0.000000000000000000 ) ) ;
#254 = EDGE_LOOP ( 'NONE', ( #131, #102, #24, #1 ) ) ;
#255 = PRESENTATION_STYLE_ASSIGNMENT (( #160 ) ) ;
#256 = EDGE_LOOP ( 'NONE', ( #27, #198, #277, #270 ) ) ;
#257 =( LENGTH_UNIT ( ) NAMED_UNIT ( * ) SI_UNIT ( .MILLI., .METRE. ) );
#258 = PRESENTATION_LAYER_ASSIGNMENT (  '', '', ( #26 ) ) ;
#259 = DIRECTION ( 'NONE',  ( 0.000000000000000000, -1.000000000000000000, -0.000000000000000000 ) ) ;
#260 = FILL_AREA_STYLE_COLOUR ( '', #245 ) ;
#261 = UNCERTAINTY_MEASURE_WITH_UNIT (LENGTH_MEASURE( 1.000000000000000082E-05 ), #257, 'distance_accuracy_value', 'NONE');
#262 = DIRECTION ( 'NONE',  ( -2.637700798163528719E-17, 1.000000000000000000, -0.000000000000000000 ) ) ;
#263 = PRESENTATION_STYLE_ASSIGNMENT (( #106 ) ) ;
#264 = EDGE_CURVE ( 'NONE', #275, #22, #125, .T. ) ;
#265 = CIRCLE ( 'NONE', #21, 8.000000000000000000 ) ;
#266 = AXIS2_PLACEMENT_3D ( 'NONE', #113, #172, #62 ) ;
#267 = AXIS2_PLACEMENT_3D ( 'NONE', #174, #133, #130 ) ;
#268 = PLANE ( 'NONE',  #199 ) ;
#269 = ADVANCED_BREP_SHAPE_REPRESENTATION ( '59714', ( #4, #197, #241 ), #218 ) ;
#270 = ORIENTED_EDGE ( 'NONE', *, *, #276, .F. ) ;
#271 = MECHANICAL_DESIGN_GEOMETRIC_PRESENTATION_REPRESENTATION (  '', ( #181 ), #42 ) ;
#272 = ORIENTED_EDGE ( 'NONE', *, *, #276, .T. ) ;
#273 = CARTESIAN_POINT ( 'NONE',  ( 8.000000000000000000, 23.99999999999999289, 9.797174393178825657E-16 ) ) ;
#274 = PRESENTATION_LAYER_ASSIGNMENT (  '', '', ( #168 ) ) ;
#275 = VERTEX_POINT ( 'NONE', #273 ) ;
#276 = EDGE_CURVE ( 'NONE', #6, #210, #44, .T. ) ;
#277 = ORIENTED_EDGE ( 'NONE', *, *, #107, .F. ) ;
#278 =( NAMED_UNIT ( * ) SI_UNIT ( $, .STERADIAN. ) SOLID_ANGLE_UNIT ( ) );
#279 = DIRECTION ( 'NONE',  ( -1.000000000000000000, -2.637700798163528719E-17, 0.000000000000000000 ) ) ;
#280 = PRESENTATION_STYLE_ASSIGNMENT (( #180 ) ) ;
#281 = SURFACE_STYLE_FILL_AREA ( #76 ) ;
#282 = CARTESIAN_POINT ( 'NONE',  ( 0.000000000000000000, 24.00000000000000000, -8.000000000000000000 ) ) ;
#283 = CARTESIAN_POINT ( 'NONE',  ( 8.000000000000000000, 89.00000000000000000, 9.797174393178825657E-16 ) ) ;
#284 = ORIENTED_EDGE ( 'NONE', *, *, #3, .F. ) ;
#285 =( GEOMETRIC_REPRESENTATION_CONTEXT ( 3 ) GLOBAL_UNCERTAINTY_ASSIGNED_CONTEXT ( ( #209 ) ) GLOBAL_UNIT_ASSIGNED_CONTEXT ( ( #86, #233, #167 ) ) REPRESENTATION_CONTEXT ( 'NONE', 'WORKASPACE' ) );
#286 = FACE_OUTER_BOUND ( 'NONE', #170, .T. ) ;
#287 = PRESENTATION_STYLE_ASSIGNMENT (( #193 ) ) ;
#288 = PRESENTATION_LAYER_ASSIGNMENT (  '', '', ( #118 ) ) ;
ENDSEC;
END-ISO-10303-21;
