ISO-10303-21;
HEADER;
FILE_DESCRIPTION (( 'STEP AP214' ),
    '1' );
FILE_NAME ('Micro_BEM-156-02X.STEP',
    '2021-09-03T13:03:01',
    ( '' ),
    ( '' ),
    'SwSTEP 2.0',
    'SolidWorks 2020',
    '' );
FILE_SCHEMA (( 'AUTOMOTIVE_DESIGN' ));
ENDSEC;

DATA;
#1 = LENGTH_MEASURE_WITH_UNIT ( LENGTH_MEASURE( 0.02539999999999999897 ), #130 );
#2 =( CONVERSION_BASED_UNIT ( 'INCH', #1 ) LENGTH_UNIT ( ) NAMED_UNIT ( #279 ) );
#3 = VERTEX_POINT ( 'NONE', #86 ) ;
#4 = AXIS2_PLACEMENT_3D ( 'NONE', #31, #233, #131 ) ;
#5 = ADVANCED_FACE ( 'NONE', ( #284 ), #303, .T. ) ;
#6 = LINE ( 'NONE', #275, #247 ) ;
#7 = DIRECTION ( 'NONE',  ( -1.000000000000000000, 0.0000000000000000000, 1.224646799147353207E-16 ) ) ;
#8 = CLOSED_SHELL ( 'NONE', ( #5, #96, #202, #176, #152, #117, #26, #276, #311, #104, #219 ) ) ;
#9 = CARTESIAN_POINT ( 'NONE',  ( -0.07874999999999980627, 0.0000000000000000000, 2.000000000000000000 ) ) ;
#10 = ORIENTED_EDGE ( 'NONE', *, *, #171, .F. ) ;
#11 = AXIS2_PLACEMENT_3D ( 'NONE', #68, #118, #241 ) ;
#12 = PRODUCT_DEFINITION_FORMATION_WITH_SPECIFIED_SOURCE ( 'ANY', '', #228, .NOT_KNOWN. ) ;
#13 = EDGE_LOOP ( 'NONE', ( #22, #254, #192, #148 ) ) ;
#14 = CARTESIAN_POINT ( 'NONE',  ( 0.09375000000000009714, 1.148106374200644787E-17, 0.6521984875871288390 ) ) ;
#15 = SPHERICAL_SURFACE ( 'NONE', #227, 0.07802190000000000514 ) ;
#16 =( GEOMETRIC_REPRESENTATION_CONTEXT ( 3 ) GLOBAL_UNCERTAINTY_ASSIGNED_CONTEXT ( ( #325 ) ) GLOBAL_UNIT_ASSIGNED_CONTEXT ( ( #323, #21, #296 ) ) REPRESENTATION_CONTEXT ( 'NONE', 'WORKASPACE' ) );
#17 = DIRECTION ( 'NONE',  ( 1.000000000000000000, 0.0000000000000000000, 0.0000000000000000000 ) ) ;
#18 = APPLICATION_PROTOCOL_DEFINITION ( 'draft international standard', 'automotive_design', 1998, #100 ) ;
#19 = AXIS2_PLACEMENT_3D ( 'NONE', #286, #310, #111 ) ;
#20 = DIRECTION ( 'NONE',  ( 1.000000000000000000, 0.0000000000000000000, 0.0000000000000000000 ) ) ;
#21 =( NAMED_UNIT ( * ) PLANE_ANGLE_UNIT ( ) SI_UNIT ( $, .RADIAN. ) );
#22 = ORIENTED_EDGE ( 'NONE', *, *, #125, .F. ) ;
#23 = APPLICATION_PROTOCOL_DEFINITION ( 'draft international standard', 'automotive_design', 1998, #203 ) ;
#24 = AXIS2_PLACEMENT_3D ( 'NONE', #133, #89, #283 ) ;
#25 = AXIS2_PLACEMENT_3D ( 'NONE', #27, #58, #155 ) ;
#26 = ADVANCED_FACE ( 'NONE', ( #63 ), #109, .T. ) ;
#27 = CARTESIAN_POINT ( 'NONE',  ( 6.894761479199598081E-17, 0.0000000000000000000, 0.5629999999999999449 ) ) ;
#28 = VERTEX_POINT ( 'NONE', #135 ) ;
#29 = SURFACE_STYLE_USAGE ( .BOTH. , #261 ) ;
#30 = ORIENTED_EDGE ( 'NONE', *, *, #206, .T. ) ;
#31 = CARTESIAN_POINT ( 'NONE',  ( 0.0000000000000000000, 0.0000000000000000000, 0.0000000000000000000 ) ) ;
#32 = VERTEX_POINT ( 'NONE', #278 ) ;
#33 = CYLINDRICAL_SURFACE ( 'NONE', #4, 0.07802190000000000514 ) ;
#34 = AXIS2_PLACEMENT_3D ( 'NONE', #306, #55, #256 ) ;
#35 = DIRECTION ( 'NONE',  ( -1.000000000000000000, 0.0000000000000000000, 0.0000000000000000000 ) ) ;
#36 =( CONVERSION_BASED_UNIT ( 'INCH', #301 ) LENGTH_UNIT ( ) NAMED_UNIT ( #236 ) );
#37 = DIRECTION ( 'NONE',  ( -1.224646799147353207E-16, -0.0000000000000000000, -1.000000000000000000 ) ) ;
#38 = ORIENTED_EDGE ( 'NONE', *, *, #42, .T. ) ;
#39 = EDGE_LOOP ( 'NONE', ( #293, #61, #167, #128 ) ) ;
#40 = PRODUCT_CONTEXT ( 'NONE', #203, 'mechanical' ) ;
#41 = FACE_OUTER_BOUND ( 'NONE', #39, .T. ) ;
#42 = EDGE_CURVE ( 'NONE', #320, #307, #129, .T. ) ;
#43 = CARTESIAN_POINT ( 'NONE',  ( 0.0000000000000000000, 0.0000000000000000000, 1.984999999999999654 ) ) ;
#44 = DIRECTION ( 'NONE',  ( 0.0000000000000000000, -1.000000000000000000, 0.0000000000000000000 ) ) ;
#45 = DIRECTION ( 'NONE',  ( 0.0000000000000000000, 0.0000000000000000000, -1.000000000000000000 ) ) ;
#46 = ORIENTED_EDGE ( 'NONE', *, *, #157, .F. ) ;
#47 = PRODUCT_DEFINITION ( 'UNKNOWN', '', #12, #248 ) ;
#48 = ADVANCED_BREP_SHAPE_REPRESENTATION ( 'Micro_BEM-156-02X', ( #298, #207 ), #221 ) ;
#49 = CIRCLE ( 'NONE', #113, 0.07802190000000000514 ) ;
#50 = FACE_OUTER_BOUND ( 'NONE', #198, .T. ) ;
#51 = EDGE_CURVE ( 'NONE', #74, #268, #174, .T. ) ;
#52 = FILL_AREA_STYLE ('',( #76 ) ) ;
#53 = CARTESIAN_POINT ( 'NONE',  ( 0.0000000000000000000, 0.0000000000000000000, 2.000000000000000000 ) ) ;
#54 = DIRECTION ( 'NONE',  ( 0.0000000000000000000, 0.0000000000000000000, -1.000000000000000000 ) ) ;
#55 = DIRECTION ( 'NONE',  ( 1.224646799147353207E-16, 0.0000000000000000000, 1.000000000000000000 ) ) ;
#56 = DIRECTION ( 'NONE',  ( -0.0000000000000000000, -0.0000000000000000000, -1.000000000000000000 ) ) ;
#57 = AXIS2_PLACEMENT_3D ( 'NONE', #43, #45, #17 ) ;
#58 = DIRECTION ( 'NONE',  ( -1.224646799147353207E-16, -0.0000000000000000000, -1.000000000000000000 ) ) ;
#59 = FACE_OUTER_BOUND ( 'NONE', #84, .T. ) ;
#60 = EDGE_LOOP ( 'NONE', ( #95, #98, #277, #264 ) ) ;
#61 = ORIENTED_EDGE ( 'NONE', *, *, #238, .T. ) ;
#62 = EDGE_CURVE ( 'NONE', #3, #190, #287, .T. ) ;
#63 = FACE_OUTER_BOUND ( 'NONE', #70, .T. ) ;
#64 = LINE ( 'NONE', #300, #232 ) ;
#65 =( GEOMETRIC_REPRESENTATION_CONTEXT ( 3 ) GLOBAL_UNCERTAINTY_ASSIGNED_CONTEXT ( ( #285 ) ) GLOBAL_UNIT_ASSIGNED_CONTEXT ( ( #36, #103, #151 ) ) REPRESENTATION_CONTEXT ( 'NONE', 'WORKASPACE' ) );
#66 = ORIENTED_EDGE ( 'NONE', *, *, #141, .F. ) ;
#67 = DIRECTION ( 'NONE',  ( -1.224646799147353207E-16, -0.0000000000000000000, -1.000000000000000000 ) ) ;
#68 = CARTESIAN_POINT ( 'NONE',  ( 6.894761479199598081E-17, 0.0000000000000000000, 0.5629999999999999449 ) ) ;
#69 = CARTESIAN_POINT ( 'NONE',  ( -0.09375000000000001388, 0.0000000000000000000, 1.984999999999999654 ) ) ;
#70 = EDGE_LOOP ( 'NONE', ( #38, #319 ) ) ;
#71 = PRESENTATION_STYLE_ASSIGNMENT (( #170 ) ) ;
#72 = AXIS2_PLACEMENT_3D ( 'NONE', #191, #37, #7 ) ;
#73 = STYLED_ITEM ( 'NONE', ( #71 ), #48 ) ;
#74 = VERTEX_POINT ( 'NONE', #162 ) ;
#75 = DIRECTION ( 'NONE',  ( 0.0000000000000000000, 0.0000000000000000000, -1.000000000000000000 ) ) ;
#76 = FILL_AREA_STYLE_COLOUR ( '', #175 ) ;
#77 = ORIENTED_EDGE ( 'NONE', *, *, #245, .F. ) ;
#78 = LINE ( 'NONE', #126, #274 ) ;
#79 = EDGE_CURVE ( 'NONE', #307, #320, #146, .T. ) ;
#80 = ORIENTED_EDGE ( 'NONE', *, *, #183, .T. ) ;
#81 = CARTESIAN_POINT ( 'NONE',  ( 0.0000000000000000000, 0.0000000000000000000, 2.000000000000000000 ) ) ;
#82 =( NAMED_UNIT ( * ) PLANE_ANGLE_UNIT ( ) SI_UNIT ( $, .RADIAN. ) );
#83 = PRODUCT_RELATED_PRODUCT_CATEGORY ( 'part', '', ( #228 ) ) ;
#84 = EDGE_LOOP ( 'NONE', ( #291, #305, #30, #237 ) ) ;
#85 = CIRCLE ( 'NONE', #124, 0.09375000000000001388 ) ;
#86 = CARTESIAN_POINT ( 'NONE',  ( 0.09375000000000001388, 1.148106374200643863E-17, 1.984999999999999654 ) ) ;
#87 = EDGE_LOOP ( 'NONE', ( #308, #208, #10, #222 ) ) ;
#88 = AXIS2_PLACEMENT_3D ( 'NONE', #156, #115, #137 ) ;
#89 = DIRECTION ( 'NONE',  ( 0.0000000000000000000, 0.0000000000000000000, 1.000000000000000000 ) ) ;
#90 = CARTESIAN_POINT ( 'NONE',  ( 9.554927009839488851E-18, 0.0000000000000000000, 0.07802190000000000514 ) ) ;
#91 = PRESENTATION_LAYER_ASSIGNMENT (  '', '', ( #195 ) ) ;
#92 = DIRECTION ( 'NONE',  ( -1.000000000000000000, 0.0000000000000000000, 2.188366338220633428E-16 ) ) ;
#93 = DIRECTION ( 'NONE',  ( 1.000000000000000000, 0.0000000000000000000, 0.0000000000000000000 ) ) ;
#94 = CARTESIAN_POINT ( 'NONE',  ( -0.07802189999999993575, 9.554927009839488851E-18, 0.5629999999999999449 ) ) ;
#95 = ORIENTED_EDGE ( 'NONE', *, *, #183, .F. ) ;
#96 = ADVANCED_FACE ( 'NONE', ( #41 ), #33, .T. ) ;
#97 = CONICAL_SURFACE ( 'NONE', #34, 0.07802190000000000514, 0.1745329251994338082 ) ;
#98 = ORIENTED_EDGE ( 'NONE', *, *, #42, .F. ) ;
#99 = ORIENTED_EDGE ( 'NONE', *, *, #216, .F. ) ;
#100 = APPLICATION_CONTEXT ( 'automotive_design' ) ;
#101 = VERTEX_POINT ( 'NONE', #161 ) ;
#102 = AXIS2_PLACEMENT_3D ( 'NONE', #235, #185, #188 ) ;
#103 =( NAMED_UNIT ( * ) PLANE_ANGLE_UNIT ( ) SI_UNIT ( $, .RADIAN. ) );
#104 = ADVANCED_FACE ( 'NONE', ( #59 ), #262, .T. ) ;
#105 = FACE_OUTER_BOUND ( 'NONE', #212, .T. ) ;
#106 = AXIS2_PLACEMENT_3D ( 'NONE', #53, #75, #258 ) ;
#107 = SURFACE_STYLE_FILL_AREA ( #52 ) ;
#108 = CYLINDRICAL_SURFACE ( 'NONE', #187, 0.09375000000000001388 ) ;
#109 = PLANE ( 'NONE',  #88 ) ;
#110 = EDGE_CURVE ( 'NONE', #320, #190, #154, .T. ) ;
#111 = DIRECTION ( 'NONE',  ( 1.000000000000000000, 0.0000000000000000000, 0.0000000000000000000 ) ) ;
#112 = ORIENTED_EDGE ( 'NONE', *, *, #125, .T. ) ;
#113 = AXIS2_PLACEMENT_3D ( 'NONE', #312, #164, #289 ) ;
#114 = AXIS2_PLACEMENT_3D ( 'NONE', #244, #242, #92 ) ;
#115 = DIRECTION ( 'NONE',  ( 0.0000000000000000000, 0.0000000000000000000, 1.000000000000000000 ) ) ;
#116 = DIRECTION ( 'NONE',  ( -1.224646799147353207E-16, -0.0000000000000000000, -1.000000000000000000 ) ) ;
#117 = ADVANCED_FACE ( 'NONE', ( #105 ), #108, .T. ) ;
#118 = DIRECTION ( 'NONE',  ( 1.224646799147353207E-16, 0.0000000000000000000, 1.000000000000000000 ) ) ;
#119 = COLOUR_RGB ( '',0.7921568627450980005, 0.8196078431372548767, 0.9333333333333333481 ) ;
#120 = CARTESIAN_POINT ( 'NONE',  ( 7.987127902323220081E-17, 0.0000000000000000000, 0.6521984875871288390 ) ) ;
#121 = FILL_AREA_STYLE_COLOUR ( '', #119 ) ;
#122 = DIRECTION ( 'NONE',  ( 1.000000000000000000, 0.0000000000000000000, 0.0000000000000000000 ) ) ;
#123 = SURFACE_SIDE_STYLE ('',( #149 ) ) ;
#124 = AXIS2_PLACEMENT_3D ( 'NONE', #120, #67, #224 ) ;
#125 = EDGE_CURVE ( 'NONE', #268, #28, #134, .T. ) ;
#126 = CARTESIAN_POINT ( 'NONE',  ( -0.09375000000000001388, 0.0000000000000000000, 2.000000000000000000 ) ) ;
#127 = EDGE_LOOP ( 'NONE', ( #313, #80, #178, #215 ) ) ;
#128 = ORIENTED_EDGE ( 'NONE', *, *, #206, .F. ) ;
#129 = CIRCLE ( 'NONE', #165, 0.07874999999999980627 ) ;
#130 =( LENGTH_UNIT ( ) NAMED_UNIT ( * ) SI_UNIT ( $, .METRE. ) );
#131 = DIRECTION ( 'NONE',  ( -1.000000000000000000, 0.0000000000000000000, 1.224646799147353207E-16 ) ) ;
#132 = PRESENTATION_STYLE_ASSIGNMENT (( #29 ) ) ;
#133 = CARTESIAN_POINT ( 'NONE',  ( 0.0000000000000000000, 0.0000000000000000000, 2.000000000000000000 ) ) ;
#134 = LINE ( 'NONE', #94, #231 ) ;
#135 = CARTESIAN_POINT ( 'NONE',  ( -0.09374999999999991673, 0.0000000000000000000, 0.6521984875871288390 ) ) ;
#136 = SHAPE_DEFINITION_REPRESENTATION ( #321, #48 ) ;
#137 = DIRECTION ( 'NONE',  ( 1.000000000000000000, 0.0000000000000000000, -0.0000000000000000000 ) ) ;
#138 = ORIENTED_EDGE ( 'NONE', *, *, #272, .F. ) ;
#139 = PRESENTATION_LAYER_ASSIGNMENT (  '', '', ( #73 ) ) ;
#140 = DIRECTION ( 'NONE',  ( -1.000000000000000000, 0.0000000000000000000, 0.0000000000000000000 ) ) ;
#141 = EDGE_CURVE ( 'NONE', #179, #32, #257, .T. ) ;
#142 = DIMENSIONAL_EXPONENTS ( 1.000000000000000000, 0.0000000000000000000, 0.0000000000000000000, 0.0000000000000000000, 0.0000000000000000000, 0.0000000000000000000, 0.0000000000000000000 ) ;
#143 = CARTESIAN_POINT ( 'NONE',  ( 0.07802190000000001902, 9.554927009839488851E-18, 0.07802189999999999126 ) ) ;
#144 = DIRECTION ( 'NONE',  ( -1.000000000000000000, 0.0000000000000000000, 0.0000000000000000000 ) ) ;
#145 = EDGE_CURVE ( 'NONE', #190, #3, #294, .T. ) ;
#146 = CIRCLE ( 'NONE', #24, 0.07874999999999980627 ) ;
#147 = LINE ( 'NONE', #322, #271 ) ;
#148 = ORIENTED_EDGE ( 'NONE', *, *, #223, .T. ) ;
#149 = SURFACE_STYLE_FILL_AREA ( #226 ) ;
#150 = CONICAL_SURFACE ( 'NONE', #11, 0.07802190000000000514, 0.1745329251994338082 ) ;
#151 =( NAMED_UNIT ( * ) SI_UNIT ( $, .STERADIAN. ) SOLID_ANGLE_UNIT ( ) );
#152 = ADVANCED_FACE ( 'NONE', ( #193 ), #225, .T. ) ;
#153 = FACE_OUTER_BOUND ( 'NONE', #13, .T. ) ;
#154 = LINE ( 'NONE', #9, #194 ) ;
#155 = DIRECTION ( 'NONE',  ( -1.000000000000000000, 0.0000000000000000000, 0.0000000000000000000 ) ) ;
#156 = CARTESIAN_POINT ( 'NONE',  ( 0.0000000000000000000, 0.0000000000000000000, 2.000000000000000000 ) ) ;
#157 = EDGE_CURVE ( 'NONE', #32, #179, #49, .T. ) ;
#158 = CARTESIAN_POINT ( 'NONE',  ( 0.07802190000000007453, 0.0000000000000000000, 0.5629999999999999449 ) ) ;
#159 = DIRECTION ( 'NONE',  ( 1.000000000000000000, 0.0000000000000000000, 0.0000000000000000000 ) ) ;
#160 = CARTESIAN_POINT ( 'NONE',  ( 9.554927009839488851E-18, 0.0000000000000000000, 0.07802190000000000514 ) ) ;
#161 = CARTESIAN_POINT ( 'NONE',  ( 1.433239051475923482E-17, 0.0000000000000000000, 0.0000000000000000000 ) ) ;
#162 = CARTESIAN_POINT ( 'NONE',  ( 0.07802190000000007453, 0.0000000000000000000, 0.5629999999999999449 ) ) ;
#163 = UNCERTAINTY_MEASURE_WITH_UNIT (LENGTH_MEASURE( 1.000000000000000082E-05 ), #2, 'distance_accuracy_value', 'NONE');
#164 = DIRECTION ( 'NONE',  ( 1.224646799147353207E-16, 0.0000000000000000000, 1.000000000000000000 ) ) ;
#165 = AXIS2_PLACEMENT_3D ( 'NONE', #81, #214, #281 ) ;
#166 = MECHANICAL_DESIGN_GEOMETRIC_PRESENTATION_REPRESENTATION (  '', ( #195 ), #65 ) ;
#167 = ORIENTED_EDGE ( 'NONE', *, *, #141, .T. ) ;
#168 = DIRECTION ( 'NONE',  ( 0.0000000000000000000, 0.0000000000000000000, -1.000000000000000000 ) ) ;
#169 = DIRECTION ( 'NONE',  ( 0.0000000000000000000, 1.000000000000000000, 0.0000000000000000000 ) ) ;
#170 = SURFACE_STYLE_USAGE ( .BOTH. , #123 ) ;
#171 = EDGE_CURVE ( 'NONE', #28, #182, #85, .T. ) ;
#172 = LINE ( 'NONE', #270, #180 ) ;
#173 = EDGE_LOOP ( 'NONE', ( #260, #112, #217, #77 ) ) ;
#174 = CIRCLE ( 'NONE', #102, 0.07802190000000000514 ) ;
#175 = COLOUR_RGB ( '',0.7921568627450980005, 0.8196078431372548767, 0.9333333333333333481 ) ;
#176 = ADVANCED_FACE ( 'NONE', ( #267 ), #324, .T. ) ;
#177 = FACE_OUTER_BOUND ( 'NONE', #60, .T. ) ;
#178 = ORIENTED_EDGE ( 'NONE', *, *, #145, .F. ) ;
#179 = VERTEX_POINT ( 'NONE', #143 ) ;
#180 = VECTOR ( 'NONE', #116, 39.37007874015748143 ) ;
#181 = DIRECTION ( 'NONE',  ( -0.0000000000000000000, -0.0000000000000000000, -1.000000000000000000 ) ) ;
#182 = VERTEX_POINT ( 'NONE', #14 ) ;
#183 = EDGE_CURVE ( 'NONE', #307, #3, #147, .T. ) ;
#184 = CARTESIAN_POINT ( 'NONE',  ( -0.07874999999999980627, 0.0000000000000000000, 2.000000000000000000 ) ) ;
#185 = DIRECTION ( 'NONE',  ( -1.224646799147353207E-16, -0.0000000000000000000, -1.000000000000000000 ) ) ;
#186 = DIRECTION ( 'NONE',  ( 1.224646799147353207E-16, 1.000000000000000000, -0.0000000000000000000 ) ) ;
#187 = AXIS2_PLACEMENT_3D ( 'NONE', #210, #56, #35 ) ;
#188 = DIRECTION ( 'NONE',  ( -1.000000000000000000, 0.0000000000000000000, 0.0000000000000000000 ) ) ;
#189 = CARTESIAN_POINT ( 'NONE',  ( 0.0000000000000000000, 0.0000000000000000000, 0.0000000000000000000 ) ) ;
#190 = VERTEX_POINT ( 'NONE', #69 ) ;
#191 = CARTESIAN_POINT ( 'NONE',  ( 0.0000000000000000000, 0.0000000000000000000, 0.0000000000000000000 ) ) ;
#192 = ORIENTED_EDGE ( 'NONE', *, *, #245, .T. ) ;
#193 = FACE_OUTER_BOUND ( 'NONE', #87, .T. ) ;
#194 = VECTOR ( 'NONE', #230, 39.37007874015748143 ) ;
#195 = STYLED_ITEM ( 'NONE', ( #132 ), #298 ) ;
#196 = ORIENTED_EDGE ( 'NONE', *, *, #223, .F. ) ;
#197 = DIRECTION ( 'NONE',  ( -0.0000000000000000000, -0.0000000000000000000, -1.000000000000000000 ) ) ;
#198 = EDGE_LOOP ( 'NONE', ( #299, #211, #46 ) ) ;
#199 = CIRCLE ( 'NONE', #314, 0.07802190000000000514 ) ;
#200 = CONICAL_SURFACE ( 'NONE', #106, 0.07874999999999980627, 0.7853981633974466137 ) ;
#201 = LENGTH_MEASURE_WITH_UNIT ( LENGTH_MEASURE( 0.02539999999999999897 ), #213 );
#202 = ADVANCED_FACE ( 'NONE', ( #290 ), #150, .T. ) ;
#203 = APPLICATION_CONTEXT ( 'automotive_design' ) ;
#204 = CARTESIAN_POINT ( 'NONE',  ( 0.07874999999999980627, 1.056257864264590573E-17, 2.000000000000000000 ) ) ;
#205 = ORIENTED_EDGE ( 'NONE', *, *, #62, .T. ) ;
#206 = EDGE_CURVE ( 'NONE', #268, #32, #172, .T. ) ;
#207 = AXIS2_PLACEMENT_3D ( 'NONE', #189, #246, #93 ) ;
#208 = ORIENTED_EDGE ( 'NONE', *, *, #272, .T. ) ;
#209 =( LENGTH_UNIT ( ) NAMED_UNIT ( * ) SI_UNIT ( $, .METRE. ) );
#210 = CARTESIAN_POINT ( 'NONE',  ( 0.0000000000000000000, 0.0000000000000000000, 2.000000000000000000 ) ) ;
#211 = ORIENTED_EDGE ( 'NONE', *, *, #216, .T. ) ;
#212 = EDGE_LOOP ( 'NONE', ( #138, #205, #252, #196 ) ) ;
#213 =( LENGTH_UNIT ( ) NAMED_UNIT ( * ) SI_UNIT ( $, .METRE. ) );
#214 = DIRECTION ( 'NONE',  ( 0.0000000000000000000, 0.0000000000000000000, 1.000000000000000000 ) ) ;
#215 = ORIENTED_EDGE ( 'NONE', *, *, #110, .F. ) ;
#216 = EDGE_CURVE ( 'NONE', #101, #179, #199, .T. ) ;
#217 = ORIENTED_EDGE ( 'NONE', *, *, #171, .T. ) ;
#218 = DIRECTION ( 'NONE',  ( 0.0000000000000000000, 0.0000000000000000000, -1.000000000000000000 ) ) ;
#219 = ADVANCED_FACE ( 'NONE', ( #50 ), #15, .T. ) ;
#220 = CARTESIAN_POINT ( 'NONE',  ( 9.554927009839488851E-18, 0.0000000000000000000, 0.07802190000000000514 ) ) ;
#221 =( GEOMETRIC_REPRESENTATION_CONTEXT ( 3 ) GLOBAL_UNCERTAINTY_ASSIGNED_CONTEXT ( ( #163 ) ) GLOBAL_UNIT_ASSIGNED_CONTEXT ( ( #2, #82, #302 ) ) REPRESENTATION_CONTEXT ( 'NONE', 'WORKASPACE' ) );
#222 = ORIENTED_EDGE ( 'NONE', *, *, #318, .F. ) ;
#223 = EDGE_CURVE ( 'NONE', #182, #28, #265, .T. ) ;
#224 = DIRECTION ( 'NONE',  ( 1.000000000000000000, 0.0000000000000000000, 0.0000000000000000000 ) ) ;
#225 = CYLINDRICAL_SURFACE ( 'NONE', #229, 0.09375000000000001388 ) ;
#226 = FILL_AREA_STYLE ('',( #121 ) ) ;
#227 = AXIS2_PLACEMENT_3D ( 'NONE', #220, #169, #20 ) ;
#228 = PRODUCT ( 'Micro_BEM-156-02X', 'Micro_BEM-156-02X', '', ( #40 ) ) ;
#229 = AXIS2_PLACEMENT_3D ( 'NONE', #317, #197, #144 ) ;
#230 = DIRECTION ( 'NONE',  ( -0.7071067811865463515, 0.0000000000000000000, -0.7071067811865486830 ) ) ;
#231 = VECTOR ( 'NONE', #243, 39.37007874015747433 ) ;
#232 = VECTOR ( 'NONE', #282, 39.37007874015748143 ) ;
#233 = DIRECTION ( 'NONE',  ( -1.224646799147353207E-16, -0.0000000000000000000, -1.000000000000000000 ) ) ;
#234 = DIRECTION ( 'NONE',  ( -1.000000000000000000, 1.224646799147353207E-16, 0.0000000000000000000 ) ) ;
#235 = CARTESIAN_POINT ( 'NONE',  ( 6.894761479199598081E-17, 0.0000000000000000000, 0.5629999999999999449 ) ) ;
#236 = DIMENSIONAL_EXPONENTS ( 1.000000000000000000, 0.0000000000000000000, 0.0000000000000000000, 0.0000000000000000000, 0.0000000000000000000, 0.0000000000000000000, 0.0000000000000000000 ) ;
#237 = ORIENTED_EDGE ( 'NONE', *, *, #157, .T. ) ;
#238 = EDGE_CURVE ( 'NONE', #74, #179, #64, .T. ) ;
#239 = CIRCLE ( 'NONE', #288, 0.07802190000000000514 ) ;
#240 = EDGE_LOOP ( 'NONE', ( #99, #309, #66 ) ) ;
#241 = DIRECTION ( 'NONE',  ( 1.000000000000000000, 0.0000000000000000000, 0.0000000000000000000 ) ) ;
#242 = DIRECTION ( 'NONE',  ( 1.224646799147353207E-16, 0.0000000000000000000, 1.000000000000000000 ) ) ;
#243 = DIRECTION ( 'NONE',  ( -0.1736481776669311083, 2.126576849575782084E-17, 0.9848077530122080203 ) ) ;
#244 = CARTESIAN_POINT ( 'NONE',  ( 9.554927009839488851E-18, 0.0000000000000000000, 0.07802190000000000514 ) ) ;
#245 = EDGE_CURVE ( 'NONE', #74, #182, #304, .T. ) ;
#246 = DIRECTION ( 'NONE',  ( 0.0000000000000000000, 0.0000000000000000000, 1.000000000000000000 ) ) ;
#247 = VECTOR ( 'NONE', #253, 39.37007874015748143 ) ;
#248 = PRODUCT_DEFINITION_CONTEXT ( 'detailed design', #100, 'design' ) ;
#249 = AXIS2_PLACEMENT_3D ( 'NONE', #292, #168, #140 ) ;
#250 = AXIS2_PLACEMENT_3D ( 'NONE', #263, #54, #159 ) ;
#251 = DIRECTION ( 'NONE',  ( 0.1736481776669313026, 0.0000000000000000000, 0.9848077530122077983 ) ) ;
#252 = ORIENTED_EDGE ( 'NONE', *, *, #318, .T. ) ;
#253 = DIRECTION ( 'NONE',  ( -0.0000000000000000000, -0.0000000000000000000, -1.000000000000000000 ) ) ;
#254 = ORIENTED_EDGE ( 'NONE', *, *, #51, .F. ) ;
#255 = EDGE_CURVE ( 'NONE', #268, #74, #315, .T. ) ;
#256 = DIRECTION ( 'NONE',  ( 1.000000000000000000, 0.0000000000000000000, 0.0000000000000000000 ) ) ;
#257 = CIRCLE ( 'NONE', #114, 0.07802190000000000514 ) ;
#258 = DIRECTION ( 'NONE',  ( -1.000000000000000000, 0.0000000000000000000, 0.0000000000000000000 ) ) ;
#259 = MECHANICAL_DESIGN_GEOMETRIC_PRESENTATION_REPRESENTATION (  '', ( #73 ), #16 ) ;
#260 = ORIENTED_EDGE ( 'NONE', *, *, #255, .F. ) ;
#261 = SURFACE_SIDE_STYLE ('',( #107 ) ) ;
#262 = CYLINDRICAL_SURFACE ( 'NONE', #72, 0.07802190000000000514 ) ;
#263 = CARTESIAN_POINT ( 'NONE',  ( 0.0000000000000000000, 0.0000000000000000000, 1.984999999999999654 ) ) ;
#264 = ORIENTED_EDGE ( 'NONE', *, *, #62, .F. ) ;
#265 = CIRCLE ( 'NONE', #295, 0.09375000000000001388 ) ;
#266 = DIRECTION ( 'NONE',  ( 0.7071067811865463515, 8.659560562354916834E-17, -0.7071067811865486830 ) ) ;
#267 = FACE_OUTER_BOUND ( 'NONE', #127, .T. ) ;
#268 = VERTEX_POINT ( 'NONE', #280 ) ;
#269 = DIRECTION ( 'NONE',  ( -1.224646799147353207E-16, -0.0000000000000000000, -1.000000000000000000 ) ) ;
#270 = CARTESIAN_POINT ( 'NONE',  ( -0.07802190000000000514, 0.0000000000000000000, 9.554927009839488851E-18 ) ) ;
#271 = VECTOR ( 'NONE', #266, 39.37007874015748143 ) ;
#272 = EDGE_CURVE ( 'NONE', #3, #182, #6, .T. ) ;
#273 = VECTOR ( 'NONE', #251, 39.37007874015748143 ) ;
#274 = VECTOR ( 'NONE', #181, 39.37007874015748143 ) ;
#275 = CARTESIAN_POINT ( 'NONE',  ( 0.09375000000000001388, 1.148106374200643863E-17, 2.000000000000000000 ) ) ;
#276 = ADVANCED_FACE ( 'NONE', ( #177 ), #200, .T. ) ;
#277 = ORIENTED_EDGE ( 'NONE', *, *, #110, .T. ) ;
#278 = CARTESIAN_POINT ( 'NONE',  ( -0.07802189999999999126, 0.0000000000000000000, 0.07802190000000001902 ) ) ;
#279 = DIMENSIONAL_EXPONENTS ( 1.000000000000000000, 0.0000000000000000000, 0.0000000000000000000, 0.0000000000000000000, 0.0000000000000000000, 0.0000000000000000000, 0.0000000000000000000 ) ;
#280 = CARTESIAN_POINT ( 'NONE',  ( -0.07802189999999993575, 1.051799537592296220E-17, 0.5629999999999999449 ) ) ;
#281 = DIRECTION ( 'NONE',  ( 1.000000000000000000, 0.0000000000000000000, 0.0000000000000000000 ) ) ;
#282 = DIRECTION ( 'NONE',  ( -1.224646799147353207E-16, -0.0000000000000000000, -1.000000000000000000 ) ) ;
#283 = DIRECTION ( 'NONE',  ( 1.000000000000000000, 0.0000000000000000000, 0.0000000000000000000 ) ) ;
#284 = FACE_OUTER_BOUND ( 'NONE', #240, .T. ) ;
#285 = UNCERTAINTY_MEASURE_WITH_UNIT (LENGTH_MEASURE( 1.000000000000000082E-05 ), #36, 'distance_accuracy_value', 'NONE');
#286 = CARTESIAN_POINT ( 'NONE',  ( 9.554927009839488851E-18, 0.0000000000000000000, 0.07802190000000000514 ) ) ;
#287 = CIRCLE ( 'NONE', #250, 0.09375000000000001388 ) ;
#288 = AXIS2_PLACEMENT_3D ( 'NONE', #160, #186, #234 ) ;
#289 = DIRECTION ( 'NONE',  ( -1.000000000000000000, 0.0000000000000000000, 2.188366338220633428E-16 ) ) ;
#290 = FACE_OUTER_BOUND ( 'NONE', #173, .T. ) ;
#291 = ORIENTED_EDGE ( 'NONE', *, *, #238, .F. ) ;
#292 = CARTESIAN_POINT ( 'NONE',  ( 0.0000000000000000000, 0.0000000000000000000, 2.000000000000000000 ) ) ;
#293 = ORIENTED_EDGE ( 'NONE', *, *, #255, .T. ) ;
#294 = CIRCLE ( 'NONE', #57, 0.09375000000000001388 ) ;
#295 = AXIS2_PLACEMENT_3D ( 'NONE', #316, #269, #122 ) ;
#296 =( NAMED_UNIT ( * ) SI_UNIT ( $, .STERADIAN. ) SOLID_ANGLE_UNIT ( ) );
#297 = EDGE_CURVE ( 'NONE', #101, #32, #239, .T. ) ;
#298 = MANIFOLD_SOLID_BREP ( 'Fillet1', #8 ) ;
#299 = ORIENTED_EDGE ( 'NONE', *, *, #297, .F. ) ;
#300 = CARTESIAN_POINT ( 'NONE',  ( 0.07802190000000000514, 9.554927009839488851E-18, -9.554927009839488851E-18 ) ) ;
#301 = LENGTH_MEASURE_WITH_UNIT ( LENGTH_MEASURE( 0.02539999999999999897 ), #209 );
#302 =( NAMED_UNIT ( * ) SI_UNIT ( $, .STERADIAN. ) SOLID_ANGLE_UNIT ( ) );
#303 = SPHERICAL_SURFACE ( 'NONE', #19, 0.07802190000000000514 ) ;
#304 = LINE ( 'NONE', #158, #273 ) ;
#305 = ORIENTED_EDGE ( 'NONE', *, *, #51, .T. ) ;
#306 = CARTESIAN_POINT ( 'NONE',  ( 6.894761479199598081E-17, 0.0000000000000000000, 0.5629999999999999449 ) ) ;
#307 = VERTEX_POINT ( 'NONE', #204 ) ;
#308 = ORIENTED_EDGE ( 'NONE', *, *, #145, .T. ) ;
#309 = ORIENTED_EDGE ( 'NONE', *, *, #297, .T. ) ;
#310 = DIRECTION ( 'NONE',  ( 0.0000000000000000000, 1.000000000000000000, 0.0000000000000000000 ) ) ;
#311 = ADVANCED_FACE ( 'NONE', ( #153 ), #97, .T. ) ;
#312 = CARTESIAN_POINT ( 'NONE',  ( 9.554927009839488851E-18, 0.0000000000000000000, 0.07802190000000000514 ) ) ;
#313 = ORIENTED_EDGE ( 'NONE', *, *, #79, .F. ) ;
#314 = AXIS2_PLACEMENT_3D ( 'NONE', #90, #44, #218 ) ;
#315 = CIRCLE ( 'NONE', #25, 0.07802190000000000514 ) ;
#316 = CARTESIAN_POINT ( 'NONE',  ( 7.987127902323220081E-17, 0.0000000000000000000, 0.6521984875871288390 ) ) ;
#317 = CARTESIAN_POINT ( 'NONE',  ( 0.0000000000000000000, 0.0000000000000000000, 2.000000000000000000 ) ) ;
#318 = EDGE_CURVE ( 'NONE', #190, #28, #78, .T. ) ;
#319 = ORIENTED_EDGE ( 'NONE', *, *, #79, .T. ) ;
#320 = VERTEX_POINT ( 'NONE', #184 ) ;
#321 = PRODUCT_DEFINITION_SHAPE ( 'NONE', 'NONE',  #47 ) ;
#322 = CARTESIAN_POINT ( 'NONE',  ( 0.07874999999999980627, 9.644093543285380530E-18, 2.000000000000000000 ) ) ;
#323 =( CONVERSION_BASED_UNIT ( 'INCH', #201 ) LENGTH_UNIT ( ) NAMED_UNIT ( #142 ) );
#324 = CONICAL_SURFACE ( 'NONE', #249, 0.07874999999999980627, 0.7853981633974466137 ) ;
#325 = UNCERTAINTY_MEASURE_WITH_UNIT (LENGTH_MEASURE( 1.000000000000000082E-05 ), #323, 'distance_accuracy_value', 'NONE');
ENDSEC;
END-ISO-10303-21;
