ISO-10303-21;
HEADER;
FILE_DESCRIPTION (( 'STEP AP214' ),
    '1' );
FILE_NAME ('Micro_AECM-0305-4X.STEP',
    '2021-09-03T16:57:13',
    ( '' ),
    ( '' ),
    'SwSTEP 2.0',
    'SolidWorks 2020',
    '' );
FILE_SCHEMA (( 'AUTOMOTIVE_DESIGN' ));
ENDSEC;

DATA;
#1 = PRODUCT_DEFINITION_SHAPE ( 'NONE', 'NONE',  #155 ) ;
#2 = DIRECTION ( 'NONE',  ( -1.224646799147353207E-16, -0.0000000000000000000, -1.000000000000000000 ) ) ;
#3 = CARTESIAN_POINT ( 'NONE',  ( 0.0000000000000000000, 0.0000000000000000000, 0.0000000000000000000 ) ) ;
#4 = DIRECTION ( 'NONE',  ( -0.0000000000000000000, -0.0000000000000000000, -1.000000000000000000 ) ) ;
#5 = EDGE_CURVE ( 'NONE', #104, #295, #216, .T. ) ;
#6 = UNCERTAINTY_MEASURE_WITH_UNIT (LENGTH_MEASURE( 1.000000000000000082E-05 ), #203, 'distance_accuracy_value', 'NONE');
#7 = VECTOR ( 'NONE', #89, 39.37007874015748143 ) ;
#8 = STYLED_ITEM ( 'NONE', ( #309 ), #222 ) ;
#9 = DIRECTION ( 'NONE',  ( 0.1736481776669314137, 0.0000000000000000000, 0.9848077530122077983 ) ) ;
#10 = DIRECTION ( 'NONE',  ( 0.0000000000000000000, 0.0000000000000000000, 1.000000000000000000 ) ) ;
#11 = DIMENSIONAL_EXPONENTS ( 1.000000000000000000, 0.0000000000000000000, 0.0000000000000000000, 0.0000000000000000000, 0.0000000000000000000, 0.0000000000000000000, 0.0000000000000000000 ) ;
#12 = UNCERTAINTY_MEASURE_WITH_UNIT (LENGTH_MEASURE( 1.000000000000000082E-05 ), #240, 'distance_accuracy_value', 'NONE');
#13 = ORIENTED_EDGE ( 'NONE', *, *, #198, .T. ) ;
#14 = DIRECTION ( 'NONE',  ( 0.0000000000000000000, 0.0000000000000000000, 1.000000000000000000 ) ) ;
#15 = CARTESIAN_POINT ( 'NONE',  ( 0.1181100000000000066, 1.446430334472939084E-17, 2.244094000000000033 ) ) ;
#16 = AXIS2_PLACEMENT_3D ( 'NONE', #230, #308, #17 ) ;
#17 = DIRECTION ( 'NONE',  ( -1.000000000000000000, 0.0000000000000000000, 1.224646799147353207E-16 ) ) ;
#18 = EDGE_CURVE ( 'NONE', #185, #88, #310, .T. ) ;
#19 = CARTESIAN_POINT ( 'NONE',  ( 0.1031100000000002570, 1.262733314600838667E-17, 2.244094000000000033 ) ) ;
#20 = ORIENTED_EDGE ( 'NONE', *, *, #62, .F. ) ;
#21 = ADVANCED_FACE ( 'NONE', ( #332 ), #200, .T. ) ;
#22 = ORIENTED_EDGE ( 'NONE', *, *, #288, .F. ) ;
#23 = AXIS2_PLACEMENT_3D ( 'NONE', #67, #95, #232 ) ;
#24 = FACE_OUTER_BOUND ( 'NONE', #287, .T. ) ;
#25 = ORIENTED_EDGE ( 'NONE', *, *, #345, .T. ) ;
#26 = EDGE_CURVE ( 'NONE', #213, #290, #285, .T. ) ;
#27 = DIRECTION ( 'NONE',  ( 1.000000000000000000, 0.0000000000000000000, -0.0000000000000000000 ) ) ;
#28 = ORIENTED_EDGE ( 'NONE', *, *, #18, .F. ) ;
#29 = ORIENTED_EDGE ( 'NONE', *, *, #296, .T. ) ;
#30 = AXIS2_PLACEMENT_3D ( 'NONE', #147, #69, #236 ) ;
#31 = ORIENTED_EDGE ( 'NONE', *, *, #288, .T. ) ;
#32 = EDGE_CURVE ( 'NONE', #88, #262, #199, .T. ) ;
#33 = DIRECTION ( 'NONE',  ( -1.224646799147353207E-16, -0.0000000000000000000, -1.000000000000000000 ) ) ;
#34 = AXIS2_PLACEMENT_3D ( 'NONE', #248, #101, #297 ) ;
#35 =( GEOMETRIC_REPRESENTATION_CONTEXT ( 3 ) GLOBAL_UNCERTAINTY_ASSIGNED_CONTEXT ( ( #339 ) ) GLOBAL_UNIT_ASSIGNED_CONTEXT ( ( #64, #302, #38 ) ) REPRESENTATION_CONTEXT ( 'NONE', 'WORKASPACE' ) );
#36 =( LENGTH_UNIT ( ) NAMED_UNIT ( * ) SI_UNIT ( $, .METRE. ) );
#37 = DIRECTION ( 'NONE',  ( -1.000000000000000000, 0.0000000000000000000, 0.0000000000000000000 ) ) ;
#38 =( NAMED_UNIT ( * ) SI_UNIT ( $, .STERADIAN. ) SOLID_ANGLE_UNIT ( ) );
#39 =( GEOMETRIC_REPRESENTATION_CONTEXT ( 3 ) GLOBAL_UNCERTAINTY_ASSIGNED_CONTEXT ( ( #6 ) ) GLOBAL_UNIT_ASSIGNED_CONTEXT ( ( #203, #46, #180 ) ) REPRESENTATION_CONTEXT ( 'NONE', 'WORKASPACE' ) );
#40 = ADVANCED_FACE ( 'NONE', ( #282 ), #110, .T. ) ;
#41 = CARTESIAN_POINT ( 'NONE',  ( 0.0000000000000000000, 0.0000000000000000000, 2.244094000000000033 ) ) ;
#42 = DIRECTION ( 'NONE',  ( -1.224646799147353207E-16, -0.0000000000000000000, -1.000000000000000000 ) ) ;
#43 = APPLICATION_CONTEXT ( 'automotive_design' ) ;
#44 = CARTESIAN_POINT ( 'NONE',  ( 0.1181100000000000899, 1.446430334472940009E-17, 0.6502134654053794982 ) ) ;
#45 = AXIS2_PLACEMENT_3D ( 'NONE', #289, #313, #260 ) ;
#46 =( NAMED_UNIT ( * ) PLANE_ANGLE_UNIT ( ) SI_UNIT ( $, .RADIAN. ) );
#47 = DIRECTION ( 'NONE',  ( 1.224646799147353207E-16, 1.000000000000000000, -0.0000000000000000000 ) ) ;
#48 = DIRECTION ( 'NONE',  ( -1.000000000000000000, 0.0000000000000000000, 0.0000000000000000000 ) ) ;
#49 = EDGE_LOOP ( 'NONE', ( #106, #97, #76, #54 ) ) ;
#50 = DIRECTION ( 'NONE',  ( 1.000000000000000000, 0.0000000000000000000, 0.0000000000000000000 ) ) ;
#51 = ORIENTED_EDGE ( 'NONE', *, *, #107, .T. ) ;
#52 = VECTOR ( 'NONE', #173, 39.37007874015748854 ) ;
#53 = CARTESIAN_POINT ( 'NONE',  ( -0.1181099999999999234, 0.0000000000000000000, 0.6502134654053794982 ) ) ;
#54 = ORIENTED_EDGE ( 'NONE', *, *, #191, .F. ) ;
#55 = EDGE_LOOP ( 'NONE', ( #124, #265, #234, #179 ) ) ;
#56 = EDGE_LOOP ( 'NONE', ( #29, #321 ) ) ;
#57 = AXIS2_PLACEMENT_3D ( 'NONE', #346, #2, #192 ) ;
#58 = FILL_AREA_STYLE_COLOUR ( '', #127 ) ;
#59 = LENGTH_MEASURE_WITH_UNIT ( LENGTH_MEASURE( 0.02539999999999999897 ), #36 );
#60 = DIRECTION ( 'NONE',  ( 0.0000000000000000000, 0.0000000000000000000, -1.000000000000000000 ) ) ;
#61 = CIRCLE ( 'NONE', #57, 0.1181100000000000066 ) ;
#62 = EDGE_CURVE ( 'NONE', #295, #104, #105, .T. ) ;
#63 = VECTOR ( 'NONE', #340, 39.37007874015748854 ) ;
#64 =( CONVERSION_BASED_UNIT ( 'INCH', #197 ) LENGTH_UNIT ( ) NAMED_UNIT ( #11 ) );
#65 = FACE_OUTER_BOUND ( 'NONE', #188, .T. ) ;
#66 =( LENGTH_UNIT ( ) NAMED_UNIT ( * ) SI_UNIT ( $, .METRE. ) );
#67 = CARTESIAN_POINT ( 'NONE',  ( 3.857159805062494824E-17, 0.0000000000000000000, 0.3149609999999999910 ) ) ;
#68 = EDGE_CURVE ( 'NONE', #338, #133, #77, .T. ) ;
#69 = DIRECTION ( 'NONE',  ( 0.0000000000000000000, 0.0000000000000000000, 1.000000000000000000 ) ) ;
#70 = CIRCLE ( 'NONE', #291, 0.1181100000000000066 ) ;
#71 = ADVANCED_FACE ( 'NONE', ( #65 ), #182, .T. ) ;
#72 = CARTESIAN_POINT ( 'NONE',  ( 0.0000000000000000000, 0.0000000000000000000, 2.244094000000000033 ) ) ;
#73 = CARTESIAN_POINT ( 'NONE',  ( 2.410717224121565012E-18, 0.0000000000000000000, 0.01968500000000000458 ) ) ;
#74 = ORIENTED_EDGE ( 'NONE', *, *, #195, .F. ) ;
#75 = FACE_OUTER_BOUND ( 'NONE', #227, .T. ) ;
#76 = ORIENTED_EDGE ( 'NONE', *, *, #26, .T. ) ;
#77 = CIRCLE ( 'NONE', #23, 0.05899594499999999409 ) ;
#78 = EDGE_LOOP ( 'NONE', ( #271, #239, #318, #320 ) ) ;
#79 = ORIENTED_EDGE ( 'NONE', *, *, #68, .T. ) ;
#80 = EDGE_CURVE ( 'NONE', #290, #262, #264, .T. ) ;
#81 = CARTESIAN_POINT ( 'NONE',  ( 0.1031100000000002570, 1.354581824536888722E-17, 2.244094000000000033 ) ) ;
#82 = CIRCLE ( 'NONE', #300, 0.1181100000000000066 ) ;
#83 = MECHANICAL_DESIGN_GEOMETRIC_PRESENTATION_REPRESENTATION (  '', ( #8 ), #39 ) ;
#84 = DIRECTION ( 'NONE',  ( 0.0000000000000000000, 0.0000000000000000000, -1.000000000000000000 ) ) ;
#85 = DIRECTION ( 'NONE',  ( 1.000000000000000000, 0.0000000000000000000, 0.0000000000000000000 ) ) ;
#86 = PRESENTATION_LAYER_ASSIGNMENT (  '', '', ( #8 ) ) ;
#87 = LINE ( 'NONE', #250, #225 ) ;
#88 = VERTEX_POINT ( 'NONE', #44 ) ;
#89 = DIRECTION ( 'NONE',  ( -0.0000000000000000000, -0.0000000000000000000, -1.000000000000000000 ) ) ;
#90 = AXIS2_PLACEMENT_3D ( 'NONE', #249, #322, #60 ) ;
#91 = SURFACE_SIDE_STYLE ('',( #148 ) ) ;
#92 = DIRECTION ( 'NONE',  ( -1.000000000000000000, 0.0000000000000000000, 0.0000000000000000000 ) ) ;
#93 = DIRECTION ( 'NONE',  ( 0.0000000000000000000, 0.0000000000000000000, 1.000000000000000000 ) ) ;
#94 = PRODUCT_CONTEXT ( 'NONE', #223, 'mechanical' ) ;
#95 = DIRECTION ( 'NONE',  ( -1.224646799147353207E-16, -0.0000000000000000000, -1.000000000000000000 ) ) ;
#96 = CIRCLE ( 'NONE', #229, 0.05899594499999999409 ) ;
#97 = ORIENTED_EDGE ( 'NONE', *, *, #296, .F. ) ;
#98 = CARTESIAN_POINT ( 'NONE',  ( -0.1031100000000002570, 0.0000000000000000000, 2.244094000000000033 ) ) ;
#99 = ORIENTED_EDGE ( 'NONE', *, *, #18, .T. ) ;
#100 = EDGE_CURVE ( 'NONE', #210, #295, #212, .T. ) ;
#101 = DIRECTION ( 'NONE',  ( 1.224646799147353207E-16, 0.0000000000000000000, 1.000000000000000000 ) ) ;
#102 = ORIENTED_EDGE ( 'NONE', *, *, #5, .F. ) ;
#103 = SHAPE_DEFINITION_REPRESENTATION ( #1, #222 ) ;
#104 = VERTEX_POINT ( 'NONE', #280 ) ;
#105 = CIRCLE ( 'NONE', #166, 0.05899594499999998715 ) ;
#106 = ORIENTED_EDGE ( 'NONE', *, *, #107, .F. ) ;
#107 = EDGE_CURVE ( 'NONE', #146, #185, #178, .T. ) ;
#108 = FACE_OUTER_BOUND ( 'NONE', #55, .T. ) ;
#109 = CARTESIAN_POINT ( 'NONE',  ( 0.0000000000000000000, 0.0000000000000000000, 2.244094000000000033 ) ) ;
#110 = CONICAL_SURFACE ( 'NONE', #205, 0.1031100000000002570, 0.7853981633974318477 ) ;
#111 = COLOUR_RGB ( '',0.7921568627450980005, 0.8196078431372548767, 0.9333333333333333481 ) ;
#112 = DIRECTION ( 'NONE',  ( 1.000000000000000000, 0.0000000000000000000, 0.0000000000000000000 ) ) ;
#113 = DIRECTION ( 'NONE',  ( 1.000000000000000000, 0.0000000000000000000, 0.0000000000000000000 ) ) ;
#114 = DIRECTION ( 'NONE',  ( 1.000000000000000000, 0.0000000000000000000, 0.0000000000000000000 ) ) ;
#115 = EDGE_CURVE ( 'NONE', #133, #262, #204, .T. ) ;
#116 = FILL_AREA_STYLE ('',( #169 ) ) ;
#117 = DIMENSIONAL_EXPONENTS ( 1.000000000000000000, 0.0000000000000000000, 0.0000000000000000000, 0.0000000000000000000, 0.0000000000000000000, 0.0000000000000000000, 0.0000000000000000000 ) ;
#118 = EDGE_LOOP ( 'NONE', ( #159, #51, #74, #186 ) ) ;
#119 = PLANE ( 'NONE',  #247 ) ;
#120 = CYLINDRICAL_SURFACE ( 'NONE', #121, 0.1181100000000000066 ) ;
#121 = AXIS2_PLACEMENT_3D ( 'NONE', #125, #343, #92 ) ;
#122 = DIRECTION ( 'NONE',  ( -0.0000000000000000000, -0.0000000000000000000, -1.000000000000000000 ) ) ;
#123 = DIRECTION ( 'NONE',  ( -0.0000000000000000000, -0.0000000000000000000, -1.000000000000000000 ) ) ;
#124 = ORIENTED_EDGE ( 'NONE', *, *, #259, .F. ) ;
#125 = CARTESIAN_POINT ( 'NONE',  ( 0.0000000000000000000, 0.0000000000000000000, 2.244094000000000033 ) ) ;
#126 = ADVANCED_FACE ( 'NONE', ( #24 ), #335, .T. ) ;
#127 = COLOUR_RGB ( '',0.7921568627450980005, 0.8196078431372548767, 0.9333333333333333481 ) ;
#128 = ORIENTED_EDGE ( 'NONE', *, *, #5, .T. ) ;
#129 = DIRECTION ( 'NONE',  ( 0.0000000000000000000, 0.0000000000000000000, -1.000000000000000000 ) ) ;
#130 = ORIENTED_EDGE ( 'NONE', *, *, #80, .F. ) ;
#131 = DIRECTION ( 'NONE',  ( 0.0000000000000000000, 0.0000000000000000000, -1.000000000000000000 ) ) ;
#132 = ORIENTED_EDGE ( 'NONE', *, *, #198, .F. ) ;
#133 = VERTEX_POINT ( 'NONE', #286 ) ;
#134 = VECTOR ( 'NONE', #33, 39.37007874015748143 ) ;
#135 = ADVANCED_FACE ( 'NONE', ( #261 ), #242, .T. ) ;
#136 = EDGE_LOOP ( 'NONE', ( #348, #99, #253, #130 ) ) ;
#137 = PRODUCT ( 'Micro_AECM-0305-4X', 'Micro_AECM-0305-4X', '', ( #94 ) ) ;
#138 = ADVANCED_FACE ( 'NONE', ( #337 ), #120, .T. ) ;
#139 = CARTESIAN_POINT ( 'NONE',  ( 0.1181100000000000066, 1.446430334472939084E-17, 2.229093999999999465 ) ) ;
#140 = ADVANCED_FACE ( 'NONE', ( #176 ), #235, .T. ) ;
#141 = AXIS2_PLACEMENT_3D ( 'NONE', #109, #245, #267 ) ;
#142 = CARTESIAN_POINT ( 'NONE',  ( 0.05899594500000004266, 0.0000000000000000000, 0.3149609999999999910 ) ) ;
#143 = DIRECTION ( 'NONE',  ( 1.000000000000000000, 0.0000000000000000000, 0.0000000000000000000 ) ) ;
#144 = CIRCLE ( 'NONE', #217, 0.1031100000000002570 ) ;
#145 = DIRECTION ( 'NONE',  ( 1.000000000000000000, 0.0000000000000000000, 0.0000000000000000000 ) ) ;
#146 = VERTEX_POINT ( 'NONE', #81 ) ;
#147 = CARTESIAN_POINT ( 'NONE',  ( 2.410717224121564627E-18, 0.0000000000000000000, 0.01968500000000000111 ) ) ;
#148 = SURFACE_STYLE_FILL_AREA ( #116 ) ;
#149 = DIRECTION ( 'NONE',  ( -1.000000000000000000, 1.224646799147352961E-16, 0.0000000000000000000 ) ) ;
#150 =( GEOMETRIC_REPRESENTATION_CONTEXT ( 3 ) GLOBAL_UNCERTAINTY_ASSIGNED_CONTEXT ( ( #12 ) ) GLOBAL_UNIT_ASSIGNED_CONTEXT ( ( #240, #164, #327 ) ) REPRESENTATION_CONTEXT ( 'NONE', 'WORKASPACE' ) );
#151 = DIRECTION ( 'NONE',  ( 1.000000000000000000, 0.0000000000000000000, 0.0000000000000000000 ) ) ;
#152 = DIRECTION ( 'NONE',  ( -1.000000000000000000, 0.0000000000000000000, 1.224646799147353207E-16 ) ) ;
#153 = CARTESIAN_POINT ( 'NONE',  ( -0.03931094499999998604, 4.814202296570762750E-18, 0.01968500000000000111 ) ) ;
#154 = DIRECTION ( 'NONE',  ( -1.224646799147353207E-16, -0.0000000000000000000, -1.000000000000000000 ) ) ;
#155 = PRODUCT_DEFINITION ( 'UNKNOWN', '', #307, #325 ) ;
#156 = VECTOR ( 'NONE', #255, 39.37007874015747433 ) ;
#157 = ORIENTED_EDGE ( 'NONE', *, *, #233, .F. ) ;
#158 = FACE_OUTER_BOUND ( 'NONE', #316, .T. ) ;
#159 = ORIENTED_EDGE ( 'NONE', *, *, #279, .F. ) ;
#160 = ORIENTED_EDGE ( 'NONE', *, *, #100, .T. ) ;
#161 = ORIENTED_EDGE ( 'NONE', *, *, #80, .T. ) ;
#162 = PRESENTATION_LAYER_ASSIGNMENT (  '', '', ( #175 ) ) ;
#163 = FILL_AREA_STYLE ('',( #58 ) ) ;
#164 =( NAMED_UNIT ( * ) PLANE_ANGLE_UNIT ( ) SI_UNIT ( $, .RADIAN. ) );
#165 = SURFACE_STYLE_FILL_AREA ( #163 ) ;
#166 = AXIS2_PLACEMENT_3D ( 'NONE', #73, #93, #50 ) ;
#167 = CARTESIAN_POINT ( 'NONE',  ( 2.410717224121564627E-18, 0.0000000000000000000, 0.0000000000000000000 ) ) ;
#168 = EDGE_CURVE ( 'NONE', #183, #104, #284, .T. ) ;
#169 = FILL_AREA_STYLE_COLOUR ( '', #111 ) ;
#170 = AXIS2_PLACEMENT_3D ( 'NONE', #226, #10, #336 ) ;
#171 = CARTESIAN_POINT ( 'NONE',  ( -0.05899594499999998715, 0.0000000000000000000, 0.01968500000000000458 ) ) ;
#172 = DIRECTION ( 'NONE',  ( -1.000000000000000000, 0.0000000000000000000, 0.0000000000000000000 ) ) ;
#173 = DIRECTION ( 'NONE',  ( -0.7071067811865358044, 0.0000000000000000000, -0.7071067811865590080 ) ) ;
#174 = CARTESIAN_POINT ( 'NONE',  ( -0.1181100000000000066, 0.0000000000000000000, 2.229093999999999465 ) ) ;
#175 = STYLED_ITEM ( 'NONE', ( #193 ), #221 ) ;
#176 = FACE_OUTER_BOUND ( 'NONE', #78, .T. ) ;
#177 = VECTOR ( 'NONE', #9, 39.37007874015748143 ) ;
#178 = LINE ( 'NONE', #19, #63 ) ;
#179 = ORIENTED_EDGE ( 'NONE', *, *, #304, .F. ) ;
#180 =( NAMED_UNIT ( * ) SI_UNIT ( $, .STERADIAN. ) SOLID_ANGLE_UNIT ( ) );
#181 = ADVANCED_FACE ( 'NONE', ( #75 ), #273, .F. ) ;
#182 = CYLINDRICAL_SURFACE ( 'NONE', #16, 0.05899594499999998715 ) ;
#183 = VERTEX_POINT ( 'NONE', #219 ) ;
#184 = CARTESIAN_POINT ( 'NONE',  ( 0.0000000000000000000, 0.0000000000000000000, 2.229093999999999465 ) ) ;
#185 = VERTEX_POINT ( 'NONE', #139 ) ;
#186 = ORIENTED_EDGE ( 'NONE', *, *, #26, .F. ) ;
#187 = CARTESIAN_POINT ( 'NONE',  ( 0.0000000000000000000, 0.0000000000000000000, 0.0000000000000000000 ) ) ;
#188 = EDGE_LOOP ( 'NONE', ( #132, #79, #25, #268 ) ) ;
#189 = AXIS2_PLACEMENT_3D ( 'NONE', #41, #122, #172 ) ;
#190 = DIRECTION ( 'NONE',  ( 0.0000000000000000000, 0.0000000000000000000, 1.000000000000000000 ) ) ;
#191 = EDGE_CURVE ( 'NONE', #185, #290, #70, .T. ) ;
#192 = DIRECTION ( 'NONE',  ( 1.000000000000000000, 0.0000000000000000000, 0.0000000000000000000 ) ) ;
#193 = PRESENTATION_STYLE_ASSIGNMENT (( #299 ) ) ;
#194 = TOROIDAL_SURFACE ( 'NONE', #170, 0.03931094499999998604, 0.01968500000000000111 ) ;
#195 = EDGE_CURVE ( 'NONE', #290, #185, #82, .T. ) ;
#196 = LINE ( 'NONE', #331, #177 ) ;
#197 = LENGTH_MEASURE_WITH_UNIT ( LENGTH_MEASURE( 0.02539999999999999897 ), #303 );
#198 = EDGE_CURVE ( 'NONE', #338, #104, #238, .T. ) ;
#199 = CIRCLE ( 'NONE', #45, 0.1181100000000000066 ) ;
#200 = CYLINDRICAL_SURFACE ( 'NONE', #270, 0.05899594499999998715 ) ;
#201 = APPLICATION_PROTOCOL_DEFINITION ( 'draft international standard', 'automotive_design', 1998, #223 ) ;
#202 = DIRECTION ( 'NONE',  ( 1.000000000000000000, 0.0000000000000000000, 0.0000000000000000000 ) ) ;
#203 =( CONVERSION_BASED_UNIT ( 'INCH', #281 ) LENGTH_UNIT ( ) NAMED_UNIT ( #254 ) );
#204 = LINE ( 'NONE', #206, #156 ) ;
#205 = AXIS2_PLACEMENT_3D ( 'NONE', #72, #129, #48 ) ;
#206 = CARTESIAN_POINT ( 'NONE',  ( -0.05899594499999995245, 7.224919520692329689E-18, 0.3149609999999999910 ) ) ;
#207 = ADVANCED_FACE ( 'NONE', ( #220 ), #312, .T. ) ;
#208 = CARTESIAN_POINT ( 'NONE',  ( 3.857159805062494824E-17, 0.0000000000000000000, 0.3149609999999999910 ) ) ;
#209 = EDGE_LOOP ( 'NONE', ( #157, #160, #102, #293 ) ) ;
#210 = VERTEX_POINT ( 'NONE', #275 ) ;
#211 = CLOSED_SHELL ( 'NONE', ( #135, #21, #244, #40, #138, #126, #314, #207, #140, #71, #181, #272 ) ) ;
#212 = CIRCLE ( 'NONE', #306, 0.01968500000000000458 ) ;
#213 = VERTEX_POINT ( 'NONE', #301 ) ;
#214 = ORIENTED_EDGE ( 'NONE', *, *, #32, .F. ) ;
#215 = CARTESIAN_POINT ( 'NONE',  ( 2.410717224121564627E-18, 0.0000000000000000000, 0.0000000000000000000 ) ) ;
#216 = CIRCLE ( 'NONE', #328, 0.05899594499999998715 ) ;
#217 = AXIS2_PLACEMENT_3D ( 'NONE', #283, #14, #114 ) ;
#218 = EDGE_CURVE ( 'NONE', #262, #88, #61, .T. ) ;
#219 = CARTESIAN_POINT ( 'NONE',  ( 0.03931094499999998604, 0.0000000000000000000, 0.0000000000000000000 ) ) ;
#220 = FACE_OUTER_BOUND ( 'NONE', #49, .T. ) ;
#221 = MANIFOLD_SOLID_BREP ( 'Fillet1', #211 ) ;
#222 = ADVANCED_BREP_SHAPE_REPRESENTATION ( 'Micro_AECM-0305-4X', ( #221, #350 ), #35 ) ;
#223 = APPLICATION_CONTEXT ( 'automotive_design' ) ;
#224 = CARTESIAN_POINT ( 'NONE',  ( 0.0000000000000000000, 0.0000000000000000000, 2.244094000000000033 ) ) ;
#225 = VECTOR ( 'NONE', #42, 39.37007874015748143 ) ;
#226 = CARTESIAN_POINT ( 'NONE',  ( 2.410717224121564627E-18, 0.0000000000000000000, 0.01968500000000000111 ) ) ;
#227 = EDGE_LOOP ( 'NONE', ( #31, #351 ) ) ;
#228 = SURFACE_STYLE_USAGE ( .BOTH. , #91 ) ;
#229 = AXIS2_PLACEMENT_3D ( 'NONE', #276, #292, #37 ) ;
#230 = CARTESIAN_POINT ( 'NONE',  ( 0.0000000000000000000, 0.0000000000000000000, 0.0000000000000000000 ) ) ;
#231 = ORIENTED_EDGE ( 'NONE', *, *, #100, .F. ) ;
#232 = DIRECTION ( 'NONE',  ( -1.000000000000000000, 0.0000000000000000000, 0.0000000000000000000 ) ) ;
#233 = EDGE_CURVE ( 'NONE', #210, #183, #349, .T. ) ;
#234 = ORIENTED_EDGE ( 'NONE', *, *, #218, .T. ) ;
#235 = CONICAL_SURFACE ( 'NONE', #246, 0.05899594499999999409, 0.1745329251994339192 ) ;
#236 = DIRECTION ( 'NONE',  ( 1.000000000000000000, 0.0000000000000000000, 0.0000000000000000000 ) ) ;
#237 = EDGE_LOOP ( 'NONE', ( #344, #13, #128, #305 ) ) ;
#238 = LINE ( 'NONE', #317, #134 ) ;
#239 = ORIENTED_EDGE ( 'NONE', *, *, #68, .F. ) ;
#240 =( CONVERSION_BASED_UNIT ( 'INCH', #59 ) LENGTH_UNIT ( ) NAMED_UNIT ( #117 ) );
#241 = CARTESIAN_POINT ( 'NONE',  ( 2.410717224121565012E-18, 0.0000000000000000000, 0.01968500000000000458 ) ) ;
#242 = TOROIDAL_SURFACE ( 'NONE', #30, 0.03931094499999998604, 0.01968500000000000111 ) ;
#243 = ORIENTED_EDGE ( 'NONE', *, *, #168, .T. ) ;
#244 = ADVANCED_FACE ( 'NONE', ( #108 ), #342, .T. ) ;
#245 = DIRECTION ( 'NONE',  ( 0.0000000000000000000, 0.0000000000000000000, -1.000000000000000000 ) ) ;
#246 = AXIS2_PLACEMENT_3D ( 'NONE', #208, #315, #202 ) ;
#247 = AXIS2_PLACEMENT_3D ( 'NONE', #256, #278, #330 ) ;
#248 = CARTESIAN_POINT ( 'NONE',  ( 3.857159805062494824E-17, 0.0000000000000000000, 0.3149609999999999910 ) ) ;
#249 = CARTESIAN_POINT ( 'NONE',  ( 0.03931094499999998604, 0.0000000000000000000, 0.01968500000000000111 ) ) ;
#250 = CARTESIAN_POINT ( 'NONE',  ( -0.05899594499999998715, 0.0000000000000000000, 7.224919520692328148E-18 ) ) ;
#251 = DIRECTION ( 'NONE',  ( 0.0000000000000000000, 0.0000000000000000000, 1.000000000000000000 ) ) ;
#252 = FACE_OUTER_BOUND ( 'NONE', #56, .T. ) ;
#253 = ORIENTED_EDGE ( 'NONE', *, *, #218, .F. ) ;
#254 = DIMENSIONAL_EXPONENTS ( 1.000000000000000000, 0.0000000000000000000, 0.0000000000000000000, 0.0000000000000000000, 0.0000000000000000000, 0.0000000000000000000, 0.0000000000000000000 ) ;
#255 = DIRECTION ( 'NONE',  ( -0.1736481776669312194, 2.126576849575783625E-17, 0.9848077530122080203 ) ) ;
#256 = CARTESIAN_POINT ( 'NONE',  ( 0.0000000000000000000, 0.0000000000000000000, 2.244094000000000033 ) ) ;
#257 = CARTESIAN_POINT ( 'NONE',  ( 0.0000000000000000000, 0.0000000000000000000, 0.0000000000000000000 ) ) ;
#258 = APPLICATION_PROTOCOL_DEFINITION ( 'draft international standard', 'automotive_design', 1998, #43 ) ;
#259 = EDGE_CURVE ( 'NONE', #133, #338, #96, .T. ) ;
#260 = DIRECTION ( 'NONE',  ( 1.000000000000000000, 0.0000000000000000000, 0.0000000000000000000 ) ) ;
#261 = FACE_OUTER_BOUND ( 'NONE', #209, .T. ) ;
#262 = VERTEX_POINT ( 'NONE', #53 ) ;
#263 = AXIS2_PLACEMENT_3D ( 'NONE', #167, #334, #143 ) ;
#264 = LINE ( 'NONE', #311, #7 ) ;
#265 = ORIENTED_EDGE ( 'NONE', *, *, #115, .T. ) ;
#266 = DIRECTION ( 'NONE',  ( 0.0000000000000000000, 0.0000000000000000000, 1.000000000000000000 ) ) ;
#267 = DIRECTION ( 'NONE',  ( -1.000000000000000000, 0.0000000000000000000, 0.0000000000000000000 ) ) ;
#268 = ORIENTED_EDGE ( 'NONE', *, *, #62, .T. ) ;
#269 = DIRECTION ( 'NONE',  ( 1.000000000000000000, 0.0000000000000000000, 0.0000000000000000000 ) ) ;
#270 = AXIS2_PLACEMENT_3D ( 'NONE', #257, #154, #152 ) ;
#271 = ORIENTED_EDGE ( 'NONE', *, *, #115, .F. ) ;
#272 = ADVANCED_FACE ( 'NONE', ( #158 ), #194, .T. ) ;
#273 = PLANE ( 'NONE',  #277 ) ;
#274 = CIRCLE ( 'NONE', #263, 0.03931094499999998604 ) ;
#275 = CARTESIAN_POINT ( 'NONE',  ( -0.03931094499999998604, 6.019560908631545064E-18, 0.0000000000000000000 ) ) ;
#276 = CARTESIAN_POINT ( 'NONE',  ( 3.857159805062494824E-17, 0.0000000000000000000, 0.3149609999999999910 ) ) ;
#277 = AXIS2_PLACEMENT_3D ( 'NONE', #3, #190, #27 ) ;
#278 = DIRECTION ( 'NONE',  ( 0.0000000000000000000, 0.0000000000000000000, 1.000000000000000000 ) ) ;
#279 = EDGE_CURVE ( 'NONE', #146, #213, #144, .T. ) ;
#280 = CARTESIAN_POINT ( 'NONE',  ( 0.05899594499999998715, 7.224919520692328148E-18, 0.01968500000000000458 ) ) ;
#281 = LENGTH_MEASURE_WITH_UNIT ( LENGTH_MEASURE( 0.02539999999999999897 ), #66 );
#282 = FACE_OUTER_BOUND ( 'NONE', #118, .T. ) ;
#283 = CARTESIAN_POINT ( 'NONE',  ( 0.0000000000000000000, 0.0000000000000000000, 2.244094000000000033 ) ) ;
#284 = CIRCLE ( 'NONE', #90, 0.01968500000000000111 ) ;
#285 = LINE ( 'NONE', #98, #52 ) ;
#286 = CARTESIAN_POINT ( 'NONE',  ( -0.05899594499999995245, 1.084461143271085950E-17, 0.3149609999999999910 ) ) ;
#287 = EDGE_LOOP ( 'NONE', ( #28, #347, #161, #214 ) ) ;
#288 = EDGE_CURVE ( 'NONE', #183, #210, #274, .T. ) ;
#289 = CARTESIAN_POINT ( 'NONE',  ( 7.962818391712061992E-17, 0.0000000000000000000, 0.6502134654053794982 ) ) ;
#290 = VERTEX_POINT ( 'NONE', #174 ) ;
#291 = AXIS2_PLACEMENT_3D ( 'NONE', #184, #131, #112 ) ;
#292 = DIRECTION ( 'NONE',  ( -1.224646799147353207E-16, -0.0000000000000000000, -1.000000000000000000 ) ) ;
#293 = ORIENTED_EDGE ( 'NONE', *, *, #168, .F. ) ;
#294 = DIRECTION ( 'NONE',  ( 0.0000000000000000000, 0.0000000000000000000, 1.000000000000000000 ) ) ;
#295 = VERTEX_POINT ( 'NONE', #171 ) ;
#296 = EDGE_CURVE ( 'NONE', #213, #146, #319, .T. ) ;
#297 = DIRECTION ( 'NONE',  ( 1.000000000000000000, 0.0000000000000000000, 0.0000000000000000000 ) ) ;
#298 = PRODUCT_RELATED_PRODUCT_CATEGORY ( 'part', '', ( #137 ) ) ;
#299 = SURFACE_STYLE_USAGE ( .BOTH. , #324 ) ;
#300 = AXIS2_PLACEMENT_3D ( 'NONE', #326, #84, #85 ) ;
#301 = CARTESIAN_POINT ( 'NONE',  ( -0.1031100000000002570, 0.0000000000000000000, 2.244094000000000033 ) ) ;
#302 =( NAMED_UNIT ( * ) PLANE_ANGLE_UNIT ( ) SI_UNIT ( $, .RADIAN. ) );
#303 =( LENGTH_UNIT ( ) NAMED_UNIT ( * ) SI_UNIT ( $, .METRE. ) );
#304 = EDGE_CURVE ( 'NONE', #338, #88, #196, .T. ) ;
#305 = ORIENTED_EDGE ( 'NONE', *, *, #345, .F. ) ;
#306 = AXIS2_PLACEMENT_3D ( 'NONE', #153, #47, #149 ) ;
#307 = PRODUCT_DEFINITION_FORMATION_WITH_SPECIFIED_SOURCE ( 'ANY', '', #137, .NOT_KNOWN. ) ;
#308 = DIRECTION ( 'NONE',  ( -1.224646799147353207E-16, -0.0000000000000000000, -1.000000000000000000 ) ) ;
#309 = PRESENTATION_STYLE_ASSIGNMENT (( #228 ) ) ;
#310 = LINE ( 'NONE', #15, #341 ) ;
#311 = CARTESIAN_POINT ( 'NONE',  ( -0.1181100000000000066, 0.0000000000000000000, 2.244094000000000033 ) ) ;
#312 = CONICAL_SURFACE ( 'NONE', #141, 0.1031100000000002570, 0.7853981633974318477 ) ;
#313 = DIRECTION ( 'NONE',  ( -1.224646799147353207E-16, -0.0000000000000000000, -1.000000000000000000 ) ) ;
#314 = ADVANCED_FACE ( 'NONE', ( #252 ), #119, .T. ) ;
#315 = DIRECTION ( 'NONE',  ( 1.224646799147353207E-16, 0.0000000000000000000, 1.000000000000000000 ) ) ;
#316 = EDGE_LOOP ( 'NONE', ( #231, #22, #243, #20 ) ) ;
#317 = CARTESIAN_POINT ( 'NONE',  ( 0.05899594499999998715, 7.224919520692328148E-18, -7.224919520692328148E-18 ) ) ;
#318 = ORIENTED_EDGE ( 'NONE', *, *, #304, .T. ) ;
#319 = CIRCLE ( 'NONE', #329, 0.1031100000000002570 ) ;
#320 = ORIENTED_EDGE ( 'NONE', *, *, #32, .T. ) ;
#321 = ORIENTED_EDGE ( 'NONE', *, *, #279, .T. ) ;
#322 = DIRECTION ( 'NONE',  ( 0.0000000000000000000, -1.000000000000000000, 0.0000000000000000000 ) ) ;
#323 = AXIS2_PLACEMENT_3D ( 'NONE', #215, #4, #113 ) ;
#324 = SURFACE_SIDE_STYLE ('',( #165 ) ) ;
#325 = PRODUCT_DEFINITION_CONTEXT ( 'detailed design', #43, 'design' ) ;
#326 = CARTESIAN_POINT ( 'NONE',  ( 0.0000000000000000000, 0.0000000000000000000, 2.229093999999999465 ) ) ;
#327 =( NAMED_UNIT ( * ) SI_UNIT ( $, .STERADIAN. ) SOLID_ANGLE_UNIT ( ) );
#328 = AXIS2_PLACEMENT_3D ( 'NONE', #241, #294, #269 ) ;
#329 = AXIS2_PLACEMENT_3D ( 'NONE', #224, #251, #145 ) ;
#330 = DIRECTION ( 'NONE',  ( 1.000000000000000000, 0.0000000000000000000, -0.0000000000000000000 ) ) ;
#331 = CARTESIAN_POINT ( 'NONE',  ( 0.05899594500000004266, 0.0000000000000000000, 0.3149609999999999910 ) ) ;
#332 = FACE_OUTER_BOUND ( 'NONE', #237, .T. ) ;
#333 = MECHANICAL_DESIGN_GEOMETRIC_PRESENTATION_REPRESENTATION (  '', ( #175 ), #150 ) ;
#334 = DIRECTION ( 'NONE',  ( -0.0000000000000000000, -0.0000000000000000000, -1.000000000000000000 ) ) ;
#335 = CYLINDRICAL_SURFACE ( 'NONE', #189, 0.1181100000000000066 ) ;
#336 = DIRECTION ( 'NONE',  ( 1.000000000000000000, 0.0000000000000000000, 0.0000000000000000000 ) ) ;
#337 = FACE_OUTER_BOUND ( 'NONE', #136, .T. ) ;
#338 = VERTEX_POINT ( 'NONE', #142 ) ;
#339 = UNCERTAINTY_MEASURE_WITH_UNIT (LENGTH_MEASURE( 1.000000000000000082E-05 ), #64, 'distance_accuracy_value', 'NONE');
#340 = DIRECTION ( 'NONE',  ( 0.7071067811865358044, 8.659560562354788645E-17, -0.7071067811865590080 ) ) ;
#341 = VECTOR ( 'NONE', #123, 39.37007874015748143 ) ;
#342 = CONICAL_SURFACE ( 'NONE', #34, 0.05899594499999999409, 0.1745329251994339192 ) ;
#343 = DIRECTION ( 'NONE',  ( -0.0000000000000000000, -0.0000000000000000000, -1.000000000000000000 ) ) ;
#344 = ORIENTED_EDGE ( 'NONE', *, *, #259, .T. ) ;
#345 = EDGE_CURVE ( 'NONE', #133, #295, #87, .T. ) ;
#346 = CARTESIAN_POINT ( 'NONE',  ( 7.962818391712061992E-17, 0.0000000000000000000, 0.6502134654053794982 ) ) ;
#347 = ORIENTED_EDGE ( 'NONE', *, *, #191, .T. ) ;
#348 = ORIENTED_EDGE ( 'NONE', *, *, #195, .T. ) ;
#349 = CIRCLE ( 'NONE', #323, 0.03931094499999998604 ) ;
#350 = AXIS2_PLACEMENT_3D ( 'NONE', #187, #266, #151 ) ;
#351 = ORIENTED_EDGE ( 'NONE', *, *, #233, .T. ) ;
ENDSEC;
END-ISO-10303-21;
