ISO-10303-21;
HEADER;
FILE_DESCRIPTION (( 'STEP AP214' ),
    '1' );
FILE_NAME ('05292.STEP',
    '2023-06-22T16:00:49',
    ( '' ),
    ( '' ),
    'SwSTEP 2.0',
    'SolidWorks 2023',
    '' );
FILE_SCHEMA (( 'AUTOMOTIVE_DESIGN' ));
ENDSEC;

DATA;
#1 = SURFACE_STYLE_FILL_AREA ( #186 ) ;
#2 = EDGE_LOOP ( 'NONE', ( #220, #203, #132, #182 ) ) ;
#3 = APPLICATION_CONTEXT ( 'automotive_design' ) ;
#4 = CARTESIAN_POINT ( 'NONE',  ( 0.000000000000000000, 0.5000000000000001110, 0.000000000000000000 ) ) ;
#5 = DIRECTION ( 'NONE',  ( 1.632862398863137774E-16, 1.000000000000000000, -0.000000000000000000 ) ) ;
#6 = COLOUR_RGB ( '',1.000000000000000000, 0.000000000000000000, 0.000000000000000000 ) ;
#7 = APPLICATION_PROTOCOL_DEFINITION ( 'draft international standard', 'automotive_design', 1998, #3 ) ;
#8 = EDGE_LOOP ( 'NONE', ( #63, #205, #103, #267 ) ) ;
#9 = PLANE ( 'NONE',  #121 ) ;
#10 = ORIENTED_EDGE ( 'NONE', *, *, #286, .T. ) ;
#11 = SURFACE_SIDE_STYLE ('',( #14 ) ) ;
#12 =( GEOMETRIC_REPRESENTATION_CONTEXT ( 3 ) GLOBAL_UNCERTAINTY_ASSIGNED_CONTEXT ( ( #55 ) ) GLOBAL_UNIT_ASSIGNED_CONTEXT ( ( #263, #265, #245 ) ) REPRESENTATION_CONTEXT ( 'NONE', 'WORKASPACE' ) );
#13 = ORIENTED_EDGE ( 'NONE', *, *, #299, .T. ) ;
#14 = SURFACE_STYLE_FILL_AREA ( #91 ) ;
#15 = FILL_AREA_STYLE_COLOUR ( '', #218 ) ;
#16 = CARTESIAN_POINT ( 'NONE',  ( 2.449293598294706414E-16, 2.000000000000000000, 0.000000000000000000 ) ) ;
#17 = ADVANCED_FACE ( 'NONE', ( #227 ), #110, .F. ) ;
#18 = DIRECTION ( 'NONE',  ( 0.000000000000000000, -0.000000000000000000, 1.000000000000000000 ) ) ;
#19 = CLOSED_SHELL ( 'NONE', ( #85, #142, #193, #17 ) ) ;
#20 = STYLED_ITEM ( 'NONE', ( #155 ), #188 ) ;
#21 = FACE_OUTER_BOUND ( 'NONE', #88, .T. ) ;
#22 = SURFACE_STYLE_FILL_AREA ( #45 ) ;
#23 = CARTESIAN_POINT ( 'NONE',  ( 2.449293598294706414E-16, 2.000000000000000000, 0.000000000000000000 ) ) ;
#24 = EDGE_CURVE ( 'NONE', #112, #40, #169, .T. ) ;
#25 = UNCERTAINTY_MEASURE_WITH_UNIT (LENGTH_MEASURE( 1.000000000000000082E-05 ), #289, 'distance_accuracy_value', 'NONE');
#26 = COLOUR_RGB ( '',0.7921568627450980005, 0.8196078431372548767, 0.9333333333333333481 ) ;
#27 = FILL_AREA_STYLE_COLOUR ( '', #261 ) ;
#28 = AXIS2_PLACEMENT_3D ( 'NONE', #57, #199, #82 ) ;
#29 = EDGE_CURVE ( 'NONE', #228, #271, #221, .T. ) ;
#30 = PRODUCT_DEFINITION_SHAPE ( 'NONE', 'NONE',  #208 ) ;
#31 = SURFACE_STYLE_USAGE ( .BOTH. , #172 ) ;
#32 = FILL_AREA_STYLE ('',( #148 ) ) ;
#33 = DIRECTION ( 'NONE',  ( -1.000000000000000000, 0.000000000000000000, 0.000000000000000000 ) ) ;
#34 = AXIS2_PLACEMENT_3D ( 'NONE', #123, #78, #33 ) ;
#35 = DIRECTION ( 'NONE',  ( -1.000000000000000000, 0.000000000000000000, 0.000000000000000000 ) ) ;
#36 = APPLICATION_PROTOCOL_DEFINITION ( 'draft international standard', 'automotive_design', 1998, #214 ) ;
#37 = LENGTH_MEASURE_WITH_UNIT ( LENGTH_MEASURE( 0.02539999999999999897 ), #111 );
#38 = PRESENTATION_LAYER_ASSIGNMENT (  '', '', ( #105 ) ) ;
#39 = ORIENTED_EDGE ( 'NONE', *, *, #128, .F. ) ;
#40 = VERTEX_POINT ( 'NONE', #114 ) ;
#41 =( CONVERSION_BASED_UNIT ( 'INCH', #64 ) LENGTH_UNIT ( ) NAMED_UNIT ( #137 ) );
#42 = ORIENTED_EDGE ( 'NONE', *, *, #74, .T. ) ;
#43 =( GEOMETRIC_REPRESENTATION_CONTEXT ( 3 ) GLOBAL_UNCERTAINTY_ASSIGNED_CONTEXT ( ( #175 ) ) GLOBAL_UNIT_ASSIGNED_CONTEXT ( ( #41, #294, #229 ) ) REPRESENTATION_CONTEXT ( 'NONE', 'WORKASPACE' ) );
#44 = FACE_OUTER_BOUND ( 'NONE', #250, .T. ) ;
#45 = FILL_AREA_STYLE ('',( #256 ) ) ;
#46 = VECTOR ( 'NONE', #180, 39.37007874015748143 ) ;
#47 = DIRECTION ( 'NONE',  ( 1.632862398863137774E-16, 1.000000000000000000, -0.000000000000000000 ) ) ;
#48 = DIRECTION ( 'NONE',  ( -1.000000000000000000, 0.000000000000000000, 0.000000000000000000 ) ) ;
#49 =( LENGTH_UNIT ( ) NAMED_UNIT ( * ) SI_UNIT ( $, .METRE. ) );
#50 = ADVANCED_FACE ( 'NONE', ( #89 ), #269, .T. ) ;
#51 = VECTOR ( 'NONE', #281, 39.37007874015748143 ) ;
#52 = COLOUR_RGB ( '',0.7921568627450980005, 0.8196078431372548767, 0.9333333333333333481 ) ;
#53 = CYLINDRICAL_SURFACE ( 'NONE', #144, 0.1874999999999999167 ) ;
#54 = MECHANICAL_DESIGN_GEOMETRIC_PRESENTATION_REPRESENTATION (  '', ( #189 ), #83 ) ;
#55 = UNCERTAINTY_MEASURE_WITH_UNIT (LENGTH_MEASURE( 1.000000000000000082E-05 ), #263, 'distance_accuracy_value', 'NONE');
#56 = CARTESIAN_POINT ( 'NONE',  ( 0.000000000000000000, 0.000000000000000000, 0.000000000000000000 ) ) ;
#57 = CARTESIAN_POINT ( 'NONE',  ( 0.000000000000000000, 0.000000000000000000, 0.000000000000000000 ) ) ;
#58 = SURFACE_STYLE_USAGE ( .BOTH. , #11 ) ;
#59 = ADVANCED_FACE ( 'NONE', ( #109 ), #9, .T. ) ;
#60 = DIRECTION ( 'NONE',  ( 0.000000000000000000, 0.000000000000000000, -1.000000000000000000 ) ) ;
#61 = EDGE_CURVE ( 'NONE', #179, #158, #266, .T. ) ;
#62 = DIRECTION ( 'NONE',  ( -0.000000000000000000, -1.000000000000000000, -0.000000000000000000 ) ) ;
#63 = ORIENTED_EDGE ( 'NONE', *, *, #202, .F. ) ;
#64 = LENGTH_MEASURE_WITH_UNIT ( LENGTH_MEASURE( 0.02539999999999999897 ), #297 );
#65 = ORIENTED_EDGE ( 'NONE', *, *, #24, .T. ) ;
#66 = EDGE_LOOP ( 'NONE', ( #10, #308, #39, #290 ) ) ;
#67 = AXIS2_PLACEMENT_3D ( 'NONE', #23, #119, #185 ) ;
#68 = STYLED_ITEM ( 'NONE', ( #309 ), #225 ) ;
#69 = LENGTH_MEASURE_WITH_UNIT ( LENGTH_MEASURE( 0.02539999999999999897 ), #288 );
#70 = LINE ( 'NONE', #163, #146 ) ;
#71 = DIMENSIONAL_EXPONENTS ( 1.000000000000000000, 0.000000000000000000, 0.000000000000000000, 0.000000000000000000, 0.000000000000000000, 0.000000000000000000, 0.000000000000000000 ) ;
#72 = DIRECTION ( 'NONE',  ( 0.000000000000000000, 0.000000000000000000, -1.000000000000000000 ) ) ;
#73 = SURFACE_STYLE_USAGE ( .BOTH. , #277 ) ;
#74 = EDGE_CURVE ( 'NONE', #40, #158, #187, .T. ) ;
#75 = DIMENSIONAL_EXPONENTS ( 1.000000000000000000, 0.000000000000000000, 0.000000000000000000, 0.000000000000000000, 0.000000000000000000, 0.000000000000000000, 0.000000000000000000 ) ;
#76 =( NAMED_UNIT ( * ) PLANE_ANGLE_UNIT ( ) SI_UNIT ( $, .RADIAN. ) );
#77 = UNCERTAINTY_MEASURE_WITH_UNIT (LENGTH_MEASURE( 1.000000000000000082E-05 ), #232, 'distance_accuracy_value', 'NONE');
#78 = DIRECTION ( 'NONE',  ( 1.632862398863137774E-16, 1.000000000000000000, -0.000000000000000000 ) ) ;
#79 = PRODUCT_DEFINITION_FORMATION_WITH_SPECIFIED_SOURCE ( 'ANY', '', #171, .NOT_KNOWN. ) ;
#80 = SURFACE_SIDE_STYLE ('',( #1 ) ) ;
#81 = FILL_AREA_STYLE ('',( #27 ) ) ;
#82 = DIRECTION ( 'NONE',  ( 1.000000000000000000, 0.000000000000000000, 0.000000000000000000 ) ) ;
#83 =( GEOMETRIC_REPRESENTATION_CONTEXT ( 3 ) GLOBAL_UNCERTAINTY_ASSIGNED_CONTEXT ( ( #222 ) ) GLOBAL_UNIT_ASSIGNED_CONTEXT ( ( #93, #76, #120 ) ) REPRESENTATION_CONTEXT ( 'NONE', 'WORKASPACE' ) );
#84 = CIRCLE ( 'NONE', #95, 0.1875000000000000278 ) ;
#85 = ADVANCED_FACE ( 'NONE', ( #167 ), #115, .T. ) ;
#86 = PRESENTATION_STYLE_ASSIGNMENT (( #31 ) ) ;
#87 = MECHANICAL_DESIGN_GEOMETRIC_PRESENTATION_REPRESENTATION (  '', ( #157 ), #43 ) ;
#88 = EDGE_LOOP ( 'NONE', ( #92, #65, #42, #295 ) ) ;
#89 = FACE_OUTER_BOUND ( 'NONE', #8, .T. ) ;
#90 = CARTESIAN_POINT ( 'NONE',  ( 0.1875000000000000278, 2.000000000000000000, 0.000000000000000000 ) ) ;
#91 = FILL_AREA_STYLE ('',( #264 ) ) ;
#92 = ORIENTED_EDGE ( 'NONE', *, *, #177, .F. ) ;
#93 =( CONVERSION_BASED_UNIT ( 'INCH', #253 ) LENGTH_UNIT ( ) NAMED_UNIT ( #118 ) );
#94 = PRESENTATION_LAYER_ASSIGNMENT (  '', '', ( #20 ) ) ;
#95 = AXIS2_PLACEMENT_3D ( 'NONE', #241, #219, #242 ) ;
#96 = DIRECTION ( 'NONE',  ( 0.000000000000000000, 1.000000000000000000, 0.000000000000000000 ) ) ;
#97 = CARTESIAN_POINT ( 'NONE',  ( 2.296212748401287726E-17, 0.000000000000000000, 0.1875000000000000278 ) ) ;
#98 = UNCERTAINTY_MEASURE_WITH_UNIT (LENGTH_MEASURE( 1.000000000000000082E-05 ), #130, 'distance_accuracy_value', 'NONE');
#99 = DIRECTION ( 'NONE',  ( 0.000000000000000000, -1.000000000000000000, -0.000000000000000000 ) ) ;
#100 = AXIS2_PLACEMENT_3D ( 'NONE', #164, #145, #209 ) ;
#101 = CARTESIAN_POINT ( 'NONE',  ( 0.000000000000000000, 0.5000000000000001110, -0.1875000000000000278 ) ) ;
#102 = SURFACE_STYLE_FILL_AREA ( #81 ) ;
#103 = ORIENTED_EDGE ( 'NONE', *, *, #29, .T. ) ;
#104 = LENGTH_MEASURE_WITH_UNIT ( LENGTH_MEASURE( 0.02539999999999999897 ), #204 );
#105 = STYLED_ITEM ( 'NONE', ( #173 ), #259 ) ;
#106 = CARTESIAN_POINT ( 'NONE',  ( 0.000000000000000000, 0.000000000000000000, 0.000000000000000000 ) ) ;
#107 =( NAMED_UNIT ( * ) PLANE_ANGLE_UNIT ( ) SI_UNIT ( $, .RADIAN. ) );
#108 = ORIENTED_EDGE ( 'NONE', *, *, #302, .F. ) ;
#109 = FACE_OUTER_BOUND ( 'NONE', #293, .T. ) ;
#110 = PLANE ( 'NONE',  #153 ) ;
#111 =( LENGTH_UNIT ( ) NAMED_UNIT ( * ) SI_UNIT ( $, .METRE. ) );
#112 = VERTEX_POINT ( 'NONE', #117 ) ;
#113 = DIRECTION ( 'NONE',  ( 1.632862398863137774E-16, 1.000000000000000000, -0.000000000000000000 ) ) ;
#114 = CARTESIAN_POINT ( 'NONE',  ( -0.1875000000000000278, 0.5000000000000001110, 0.000000000000000000 ) ) ;
#115 = CYLINDRICAL_SURFACE ( 'NONE', #291, 0.1874999999999999167 ) ;
#116 = AXIS2_PLACEMENT_3D ( 'NONE', #257, #47, #274 ) ;
#117 = CARTESIAN_POINT ( 'NONE',  ( 0.1875000000000000278, 0.5000000000000001110, 2.296212748401286493E-17 ) ) ;
#118 = DIMENSIONAL_EXPONENTS ( 1.000000000000000000, 0.000000000000000000, 0.000000000000000000, 0.000000000000000000, 0.000000000000000000, 0.000000000000000000, 0.000000000000000000 ) ;
#119 = DIRECTION ( 'NONE',  ( 1.632862398863137774E-16, 1.000000000000000000, -0.000000000000000000 ) ) ;
#120 =( NAMED_UNIT ( * ) SI_UNIT ( $, .STERADIAN. ) SOLID_ANGLE_UNIT ( ) );
#121 = AXIS2_PLACEMENT_3D ( 'NONE', #235, #96, #18 ) ;
#122 =( GEOMETRIC_REPRESENTATION_CONTEXT ( 3 ) GLOBAL_UNCERTAINTY_ASSIGNED_CONTEXT ( ( #98 ) ) GLOBAL_UNIT_ASSIGNED_CONTEXT ( ( #130, #258, #149 ) ) REPRESENTATION_CONTEXT ( 'NONE', 'WORKASPACE' ) );
#123 = CARTESIAN_POINT ( 'NONE',  ( 2.449293598294706414E-16, 2.000000000000000000, 0.000000000000000000 ) ) ;
#124 = SURFACE_STYLE_USAGE ( .BOTH. , #80 ) ;
#125 = CARTESIAN_POINT ( 'NONE',  ( 0.000000000000000000, 0.000000000000000000, 0.000000000000000000 ) ) ;
#126 = MANIFOLD_SOLID_BREP ( 'Revolve - Tool Body (Straight Shanked)', #19 ) ;
#127 = DIRECTION ( 'NONE',  ( -0.000000000000000000, -1.000000000000000000, -0.000000000000000000 ) ) ;
#128 = EDGE_CURVE ( 'NONE', #271, #161, #272, .T. ) ;
#129 = CIRCLE ( 'NONE', #154, 0.1875000000000000278 ) ;
#130 =( CONVERSION_BASED_UNIT ( 'INCH', #305 ) LENGTH_UNIT ( ) NAMED_UNIT ( #223 ) );
#131 = DIRECTION ( 'NONE',  ( 0.000000000000000000, 0.000000000000000000, -1.000000000000000000 ) ) ;
#132 = ORIENTED_EDGE ( 'NONE', *, *, #255, .F. ) ;
#133 =( NAMED_UNIT ( * ) SI_UNIT ( $, .STERADIAN. ) SOLID_ANGLE_UNIT ( ) );
#134 = ORIENTED_EDGE ( 'NONE', *, *, #24, .F. ) ;
#135 = PRESENTATION_LAYER_ASSIGNMENT (  '', '', ( #157 ) ) ;
#136 = EDGE_LOOP ( 'NONE', ( #247, #13 ) ) ;
#137 = DIMENSIONAL_EXPONENTS ( 1.000000000000000000, 0.000000000000000000, 0.000000000000000000, 0.000000000000000000, 0.000000000000000000, 0.000000000000000000, 0.000000000000000000 ) ;
#138 = DIRECTION ( 'NONE',  ( -0.000000000000000000, -1.000000000000000000, -0.000000000000000000 ) ) ;
#139 = PLANE ( 'NONE',  #306 ) ;
#140 = EDGE_CURVE ( 'NONE', #40, #112, #150, .T. ) ;
#141 = FACE_OUTER_BOUND ( 'NONE', #66, .T. ) ;
#142 = ADVANCED_FACE ( 'NONE', ( #44 ), #139, .F. ) ;
#143 =( NAMED_UNIT ( * ) SI_UNIT ( $, .STERADIAN. ) SOLID_ANGLE_UNIT ( ) );
#144 = AXIS2_PLACEMENT_3D ( 'NONE', #191, #237, #283 ) ;
#145 = DIRECTION ( 'NONE',  ( -0.000000000000000000, -1.000000000000000000, -0.000000000000000000 ) ) ;
#146 = VECTOR ( 'NONE', #254, 39.37007874015748143 ) ;
#147 = DIMENSIONAL_EXPONENTS ( 1.000000000000000000, 0.000000000000000000, 0.000000000000000000, 0.000000000000000000, 0.000000000000000000, 0.000000000000000000, 0.000000000000000000 ) ;
#148 = FILL_AREA_STYLE_COLOUR ( '', #52 ) ;
#149 =( NAMED_UNIT ( * ) SI_UNIT ( $, .STERADIAN. ) SOLID_ANGLE_UNIT ( ) );
#150 = CIRCLE ( 'NONE', #116, 0.1875000000000000278 ) ;
#151 =( NAMED_UNIT ( * ) SI_UNIT ( $, .STERADIAN. ) SOLID_ANGLE_UNIT ( ) );
#152 = PLANE ( 'NONE',  #243 ) ;
#153 = AXIS2_PLACEMENT_3D ( 'NONE', #90, #270, #207 ) ;
#154 = AXIS2_PLACEMENT_3D ( 'NONE', #4, #62, #60 ) ;
#155 = PRESENTATION_STYLE_ASSIGNMENT (( #124 ) ) ;
#156 = PRODUCT_CONTEXT ( 'NONE', #3, 'mechanical' ) ;
#157 = STYLED_ITEM ( 'NONE', ( #86 ), #50 ) ;
#158 = VERTEX_POINT ( 'NONE', #304 ) ;
#159 = ORIENTED_EDGE ( 'NONE', *, *, #140, .F. ) ;
#160 = PRESENTATION_LAYER_ASSIGNMENT (  '', '', ( #301 ) ) ;
#161 = VERTEX_POINT ( 'NONE', #97 ) ;
#162 = CIRCLE ( 'NONE', #34, 0.1874999999999997780 ) ;
#163 = CARTESIAN_POINT ( 'NONE',  ( 0.1875000000000001388, 2.000000000000000000, 2.296212748401286185E-17 ) ) ;
#164 = CARTESIAN_POINT ( 'NONE',  ( 0.000000000000000000, 0.000000000000000000, 0.000000000000000000 ) ) ;
#165 = COLOUR_RGB ( '',1.000000000000000000, 0.000000000000000000, 0.000000000000000000 ) ;
#166 = PRESENTATION_STYLE_ASSIGNMENT (( #73 ) ) ;
#167 = FACE_OUTER_BOUND ( 'NONE', #2, .T. ) ;
#168 = SURFACE_STYLE_USAGE ( .BOTH. , #240 ) ;
#169 = CIRCLE ( 'NONE', #278, 0.1875000000000000278 ) ;
#170 = CARTESIAN_POINT ( 'NONE',  ( 0.000000000000000000, 0.000000000000000000, -0.1875000000000000278 ) ) ;
#171 = PRODUCT ( '05292', '05292', '', ( #156 ) ) ;
#172 = SURFACE_SIDE_STYLE ('',( #273 ) ) ;
#173 = PRESENTATION_STYLE_ASSIGNMENT (( #168 ) ) ;
#174 = VERTEX_POINT ( 'NONE', #190 ) ;
#175 = UNCERTAINTY_MEASURE_WITH_UNIT (LENGTH_MEASURE( 1.000000000000000082E-05 ), #41, 'distance_accuracy_value', 'NONE');
#176 = MECHANICAL_DESIGN_GEOMETRIC_PRESENTATION_REPRESENTATION (  '', ( #68 ), #196 ) ;
#177 = EDGE_CURVE ( 'NONE', #112, #179, #70, .T. ) ;
#178 = ORIENTED_EDGE ( 'NONE', *, *, #255, .T. ) ;
#179 = VERTEX_POINT ( 'NONE', #211 ) ;
#180 = DIRECTION ( 'NONE',  ( -0.000000000000000000, -1.000000000000000000, -0.000000000000000000 ) ) ;
#181 =( NAMED_UNIT ( * ) PLANE_ANGLE_UNIT ( ) SI_UNIT ( $, .RADIAN. ) );
#182 = ORIENTED_EDGE ( 'NONE', *, *, #74, .F. ) ;
#183 = CARTESIAN_POINT ( 'NONE',  ( -0.1874999999999996669, 2.000000000000000000, 0.000000000000000000 ) ) ;
#184 = CIRCLE ( 'NONE', #252, 0.1875000000000000278 ) ;
#185 = DIRECTION ( 'NONE',  ( -1.000000000000000000, 0.000000000000000000, 0.000000000000000000 ) ) ;
#186 = FILL_AREA_STYLE ('',( #303 ) ) ;
#187 = LINE ( 'NONE', #183, #51 ) ;
#188 = ADVANCED_FACE ( 'NONE', ( #141 ), #233, .T. ) ;
#189 = STYLED_ITEM ( 'NONE', ( #166 ), #126 ) ;
#190 = CARTESIAN_POINT ( 'NONE',  ( 2.296212748401287726E-17, 0.5000000000000001110, 0.1875000000000000278 ) ) ;
#191 = CARTESIAN_POINT ( 'NONE',  ( 2.449293598294706414E-16, 2.000000000000000000, 0.000000000000000000 ) ) ;
#192 = CARTESIAN_POINT ( 'NONE',  ( 0.000000000000000000, 0.000000000000000000, -0.1875000000000000278 ) ) ;
#193 = ADVANCED_FACE ( 'NONE', ( #21 ), #53, .T. ) ;
#194 = UNCERTAINTY_MEASURE_WITH_UNIT (LENGTH_MEASURE( 1.000000000000000082E-05 ), #206, 'distance_accuracy_value', 'NONE');
#195 = DIRECTION ( 'NONE',  ( 0.000000000000000000, 0.000000000000000000, -1.000000000000000000 ) ) ;
#196 =( GEOMETRIC_REPRESENTATION_CONTEXT ( 3 ) GLOBAL_UNCERTAINTY_ASSIGNED_CONTEXT ( ( #25 ) ) GLOBAL_UNIT_ASSIGNED_CONTEXT ( ( #289, #216, #151 ) ) REPRESENTATION_CONTEXT ( 'NONE', 'WORKASPACE' ) );
#197 = CARTESIAN_POINT ( 'NONE',  ( 2.296212748401287726E-17, 0.000000000000000000, 0.1875000000000000278 ) ) ;
#198 = SURFACE_STYLE_FILL_AREA ( #32 ) ;
#199 = DIRECTION ( 'NONE',  ( 0.000000000000000000, 0.000000000000000000, 1.000000000000000000 ) ) ;
#200 = MECHANICAL_DESIGN_GEOMETRIC_PRESENTATION_REPRESENTATION (  '', ( #301 ), #251 ) ;
#201 = DIRECTION ( 'NONE',  ( -0.000000000000000000, -1.000000000000000000, -0.000000000000000000 ) ) ;
#202 = EDGE_CURVE ( 'NONE', #174, #161, #282, .T. ) ;
#203 = ORIENTED_EDGE ( 'NONE', *, *, #177, .T. ) ;
#204 =( LENGTH_UNIT ( ) NAMED_UNIT ( * ) SI_UNIT ( $, .METRE. ) );
#205 = ORIENTED_EDGE ( 'NONE', *, *, #302, .T. ) ;
#206 =( CONVERSION_BASED_UNIT ( 'INCH', #37 ) LENGTH_UNIT ( ) NAMED_UNIT ( #75 ) );
#207 = DIRECTION ( 'NONE',  ( 1.000000000000000000, -1.632862398863137774E-16, 0.000000000000000000 ) ) ;
#208 = PRODUCT_DEFINITION ( 'UNKNOWN', '', #79, #292 ) ;
#209 = DIRECTION ( 'NONE',  ( 0.000000000000000000, 0.000000000000000000, -1.000000000000000000 ) ) ;
#210 =( GEOMETRIC_REPRESENTATION_CONTEXT ( 3 ) GLOBAL_UNCERTAINTY_ASSIGNED_CONTEXT ( ( #77 ) ) GLOBAL_UNIT_ASSIGNED_CONTEXT ( ( #232, #181, #143 ) ) REPRESENTATION_CONTEXT ( 'NONE', 'WORKASPACE' ) );
#211 = CARTESIAN_POINT ( 'NONE',  ( 0.1875000000000000278, 2.000000000000000000, 2.296212748401286493E-17 ) ) ;
#212 = PRODUCT_RELATED_PRODUCT_CATEGORY ( 'part', '', ( #171 ) ) ;
#213 = LENGTH_MEASURE_WITH_UNIT ( LENGTH_MEASURE( 0.02539999999999999897 ), #284 );
#214 = APPLICATION_CONTEXT ( 'automotive_design' ) ;
#215 = PRESENTATION_LAYER_ASSIGNMENT (  '', '', ( #68 ) ) ;
#216 =( NAMED_UNIT ( * ) PLANE_ANGLE_UNIT ( ) SI_UNIT ( $, .RADIAN. ) );
#217 = FACE_OUTER_BOUND ( 'NONE', #136, .T. ) ;
#218 = COLOUR_RGB ( '',1.000000000000000000, 0.000000000000000000, 0.000000000000000000 ) ;
#219 = DIRECTION ( 'NONE',  ( -0.000000000000000000, -1.000000000000000000, -0.000000000000000000 ) ) ;
#220 = ORIENTED_EDGE ( 'NONE', *, *, #140, .T. ) ;
#221 = LINE ( 'NONE', #192, #46 ) ;
#222 = UNCERTAINTY_MEASURE_WITH_UNIT (LENGTH_MEASURE( 1.000000000000000082E-05 ), #93, 'distance_accuracy_value', 'NONE');
#223 = DIMENSIONAL_EXPONENTS ( 1.000000000000000000, 0.000000000000000000, 0.000000000000000000, 0.000000000000000000, 0.000000000000000000, 0.000000000000000000, 0.000000000000000000 ) ;
#224 = MECHANICAL_DESIGN_GEOMETRIC_PRESENTATION_REPRESENTATION (  '', ( #20 ), #210 ) ;
#225 = MANIFOLD_SOLID_BREP ( 'Revolve - Cutting Edge', #260 ) ;
#226 = ORIENTED_EDGE ( 'NONE', *, *, #286, .F. ) ;
#227 = FACE_OUTER_BOUND ( 'NONE', #296, .T. ) ;
#228 = VERTEX_POINT ( 'NONE', #101 ) ;
#229 =( NAMED_UNIT ( * ) SI_UNIT ( $, .STERADIAN. ) SOLID_ANGLE_UNIT ( ) );
#230 = DIRECTION ( 'NONE',  ( 1.632862398863137774E-16, 1.000000000000000000, -0.000000000000000000 ) ) ;
#231 = DIMENSIONAL_EXPONENTS ( 1.000000000000000000, 0.000000000000000000, 0.000000000000000000, 0.000000000000000000, 0.000000000000000000, 0.000000000000000000, 0.000000000000000000 ) ;
#232 =( CONVERSION_BASED_UNIT ( 'INCH', #69 ) LENGTH_UNIT ( ) NAMED_UNIT ( #147 ) );
#233 = CYLINDRICAL_SURFACE ( 'NONE', #285, 0.1875000000000000278 ) ;
#234 = AXIS2_PLACEMENT_3D ( 'NONE', #56, #138, #131 ) ;
#235 = CARTESIAN_POINT ( 'NONE',  ( 0.000000000000000000, 0.5000000000000001110, 0.000000000000000000 ) ) ;
#236 = CARTESIAN_POINT ( 'NONE',  ( 2.499599637769763364E-33, 0.5000000000000001110, 0.000000000000000000 ) ) ;
#237 = DIRECTION ( 'NONE',  ( 1.632862398863137774E-16, 1.000000000000000000, -0.000000000000000000 ) ) ;
#238 = SURFACE_SIDE_STYLE ('',( #198 ) ) ;
#239 = PRESENTATION_LAYER_ASSIGNMENT (  '', '', ( #189 ) ) ;
#240 = SURFACE_SIDE_STYLE ('',( #102 ) ) ;
#241 = CARTESIAN_POINT ( 'NONE',  ( 0.000000000000000000, 0.5000000000000001110, 0.000000000000000000 ) ) ;
#242 = DIRECTION ( 'NONE',  ( 0.000000000000000000, 0.000000000000000000, -1.000000000000000000 ) ) ;
#243 = AXIS2_PLACEMENT_3D ( 'NONE', #125, #99, #195 ) ;
#244 = PRESENTATION_STYLE_ASSIGNMENT (( #58 ) ) ;
#245 =( NAMED_UNIT ( * ) SI_UNIT ( $, .STERADIAN. ) SOLID_ANGLE_UNIT ( ) );
#246 = DIRECTION ( 'NONE',  ( 0.000000000000000000, 0.000000000000000000, -1.000000000000000000 ) ) ;
#247 = ORIENTED_EDGE ( 'NONE', *, *, #128, .T. ) ;
#248 = SHAPE_DEFINITION_REPRESENTATION ( #30, #268 ) ;
#249 = ORIENTED_EDGE ( 'NONE', *, *, #61, .T. ) ;
#250 = EDGE_LOOP ( 'NONE', ( #159, #134 ) ) ;
#251 =( GEOMETRIC_REPRESENTATION_CONTEXT ( 3 ) GLOBAL_UNCERTAINTY_ASSIGNED_CONTEXT ( ( #194 ) ) GLOBAL_UNIT_ASSIGNED_CONTEXT ( ( #206, #107, #133 ) ) REPRESENTATION_CONTEXT ( 'NONE', 'WORKASPACE' ) );
#252 = AXIS2_PLACEMENT_3D ( 'NONE', #106, #201, #246 ) ;
#253 = LENGTH_MEASURE_WITH_UNIT ( LENGTH_MEASURE( 0.02539999999999999897 ), #276 );
#254 = DIRECTION ( 'NONE',  ( 1.632862398863137774E-16, 1.000000000000000000, -0.000000000000000000 ) ) ;
#255 = EDGE_CURVE ( 'NONE', #158, #179, #162, .T. ) ;
#256 = FILL_AREA_STYLE_COLOUR ( '', #26 ) ;
#257 = CARTESIAN_POINT ( 'NONE',  ( 0.000000000000000000, 0.5000000000000001110, 0.000000000000000000 ) ) ;
#258 =( NAMED_UNIT ( * ) PLANE_ANGLE_UNIT ( ) SI_UNIT ( $, .RADIAN. ) );
#259 = ADVANCED_FACE ( 'NONE', ( #217 ), #152, .T. ) ;
#260 = CLOSED_SHELL ( 'NONE', ( #188, #59, #50, #259 ) ) ;
#261 = COLOUR_RGB ( '',1.000000000000000000, 0.000000000000000000, 0.000000000000000000 ) ;
#262 = CARTESIAN_POINT ( 'NONE',  ( 0.000000000000000000, 0.5000000000000001110, 0.000000000000000000 ) ) ;
#263 =( CONVERSION_BASED_UNIT ( 'INCH', #104 ) LENGTH_UNIT ( ) NAMED_UNIT ( #71 ) );
#264 = FILL_AREA_STYLE_COLOUR ( '', #165 ) ;
#265 =( NAMED_UNIT ( * ) PLANE_ANGLE_UNIT ( ) SI_UNIT ( $, .RADIAN. ) );
#266 = CIRCLE ( 'NONE', #67, 0.1874999999999997780 ) ;
#267 = ORIENTED_EDGE ( 'NONE', *, *, #299, .F. ) ;
#268 = ADVANCED_BREP_SHAPE_REPRESENTATION ( '05292', ( #225, #126, #28 ), #12 ) ;
#269 = CYLINDRICAL_SURFACE ( 'NONE', #234, 0.1875000000000000278 ) ;
#270 = DIRECTION ( 'NONE',  ( -1.632862398863137774E-16, -1.000000000000000000, 0.000000000000000000 ) ) ;
#271 = VERTEX_POINT ( 'NONE', #170 ) ;
#272 = CIRCLE ( 'NONE', #100, 0.1875000000000000278 ) ;
#273 = SURFACE_STYLE_FILL_AREA ( #298 ) ;
#274 = DIRECTION ( 'NONE',  ( -1.000000000000000000, 0.000000000000000000, 0.000000000000000000 ) ) ;
#275 = DIRECTION ( 'NONE',  ( -0.000000000000000000, -1.000000000000000000, -0.000000000000000000 ) ) ;
#276 =( LENGTH_UNIT ( ) NAMED_UNIT ( * ) SI_UNIT ( $, .METRE. ) );
#277 = SURFACE_SIDE_STYLE ('',( #22 ) ) ;
#278 = AXIS2_PLACEMENT_3D ( 'NONE', #262, #5, #35 ) ;
#279 = CARTESIAN_POINT ( 'NONE',  ( 0.000000000000000000, 0.000000000000000000, 0.000000000000000000 ) ) ;
#280 = MECHANICAL_DESIGN_GEOMETRIC_PRESENTATION_REPRESENTATION (  '', ( #105 ), #122 ) ;
#281 = DIRECTION ( 'NONE',  ( 1.632862398863137774E-16, 1.000000000000000000, -0.000000000000000000 ) ) ;
#282 = LINE ( 'NONE', #197, #307 ) ;
#283 = DIRECTION ( 'NONE',  ( -1.000000000000000000, 0.000000000000000000, 0.000000000000000000 ) ) ;
#284 =( LENGTH_UNIT ( ) NAMED_UNIT ( * ) SI_UNIT ( $, .METRE. ) );
#285 = AXIS2_PLACEMENT_3D ( 'NONE', #279, #275, #72 ) ;
#286 = EDGE_CURVE ( 'NONE', #228, #174, #84, .T. ) ;
#287 = SURFACE_STYLE_USAGE ( .BOTH. , #238 ) ;
#288 =( LENGTH_UNIT ( ) NAMED_UNIT ( * ) SI_UNIT ( $, .METRE. ) );
#289 =( CONVERSION_BASED_UNIT ( 'INCH', #213 ) LENGTH_UNIT ( ) NAMED_UNIT ( #231 ) );
#290 = ORIENTED_EDGE ( 'NONE', *, *, #29, .F. ) ;
#291 = AXIS2_PLACEMENT_3D ( 'NONE', #16, #113, #48 ) ;
#292 = PRODUCT_DEFINITION_CONTEXT ( 'detailed design', #214, 'design' ) ;
#293 = EDGE_LOOP ( 'NONE', ( #226, #108 ) ) ;
#294 =( NAMED_UNIT ( * ) PLANE_ANGLE_UNIT ( ) SI_UNIT ( $, .RADIAN. ) );
#295 = ORIENTED_EDGE ( 'NONE', *, *, #61, .F. ) ;
#296 = EDGE_LOOP ( 'NONE', ( #178, #249 ) ) ;
#297 =( LENGTH_UNIT ( ) NAMED_UNIT ( * ) SI_UNIT ( $, .METRE. ) );
#298 = FILL_AREA_STYLE ('',( #15 ) ) ;
#299 = EDGE_CURVE ( 'NONE', #161, #271, #184, .T. ) ;
#300 = DIRECTION ( 'NONE',  ( -1.000000000000000000, 1.632862398863137774E-16, 0.000000000000000000 ) ) ;
#301 = STYLED_ITEM ( 'NONE', ( #244 ), #59 ) ;
#302 = EDGE_CURVE ( 'NONE', #174, #228, #129, .T. ) ;
#303 = FILL_AREA_STYLE_COLOUR ( '', #6 ) ;
#304 = CARTESIAN_POINT ( 'NONE',  ( -0.1874999999999995282, 2.000000000000000000, 0.000000000000000000 ) ) ;
#305 = LENGTH_MEASURE_WITH_UNIT ( LENGTH_MEASURE( 0.02539999999999999897 ), #49 );
#306 = AXIS2_PLACEMENT_3D ( 'NONE', #236, #230, #300 ) ;
#307 = VECTOR ( 'NONE', #127, 39.37007874015748143 ) ;
#308 = ORIENTED_EDGE ( 'NONE', *, *, #202, .T. ) ;
#309 = PRESENTATION_STYLE_ASSIGNMENT (( #287 ) ) ;
ENDSEC;
END-ISO-10303-21;
