ISO-10303-21;
HEADER;
FILE_DESCRIPTION (( 'STEP AP214' ),
    '1' );
FILE_NAME ('Micro_SFLM-060-20.STEP',
    '2021-09-02T05:46:57',
    ( '' ),
    ( '' ),
    'SwSTEP 2.0',
    'SolidWorks 2020',
    '' );
FILE_SCHEMA (( 'AUTOMOTIVE_DESIGN' ));
ENDSEC;

DATA;
#1 = ORIENTED_EDGE ( 'NONE', *, *, #260, .F. ) ;
#2 = CARTESIAN_POINT ( 'NONE',  ( 0.0000000000000000000, 0.0000000000000000000, 2.244094000000000033 ) ) ;
#3 = DIRECTION ( 'NONE',  ( -0.0000000000000000000, -0.0000000000000000000, -1.000000000000000000 ) ) ;
#4 =( LENGTH_UNIT ( ) NAMED_UNIT ( * ) SI_UNIT ( $, .METRE. ) );
#5 = DIRECTION ( 'NONE',  ( 0.7071067811865358044, 8.659560562354788645E-17, -0.7071067811865590080 ) ) ;
#6 = FACE_OUTER_BOUND ( 'NONE', #249, .T. ) ;
#7 = EDGE_CURVE ( 'NONE', #41, #133, #136, .T. ) ;
#8 = PRODUCT_DEFINITION_CONTEXT ( 'detailed design', #35, 'design' ) ;
#9 = AXIS2_PLACEMENT_3D ( 'NONE', #97, #34, #196 ) ;
#10 = DIMENSIONAL_EXPONENTS ( 1.000000000000000000, 0.0000000000000000000, 0.0000000000000000000, 0.0000000000000000000, 0.0000000000000000000, 0.0000000000000000000, 0.0000000000000000000 ) ;
#11 = ORIENTED_EDGE ( 'NONE', *, *, #218, .T. ) ;
#12 = ORIENTED_EDGE ( 'NONE', *, *, #101, .F. ) ;
#13 =( GEOMETRIC_REPRESENTATION_CONTEXT ( 3 ) GLOBAL_UNCERTAINTY_ASSIGNED_CONTEXT ( ( #128 ) ) GLOBAL_UNIT_ASSIGNED_CONTEXT ( ( #270, #245, #204 ) ) REPRESENTATION_CONTEXT ( 'NONE', 'WORKASPACE' ) );
#14 = ORIENTED_EDGE ( 'NONE', *, *, #7, .T. ) ;
#15 = APPLICATION_PROTOCOL_DEFINITION ( 'draft international standard', 'automotive_design', 1998, #170 ) ;
#16 = DIRECTION ( 'NONE',  ( -1.000000000000000000, 0.0000000000000000000, 1.224646799147353454E-16 ) ) ;
#17 = ORIENTED_EDGE ( 'NONE', *, *, #267, .T. ) ;
#18 = EDGE_CURVE ( 'NONE', #150, #177, #117, .T. ) ;
#19 = EDGE_LOOP ( 'NONE', ( #134, #293, #108, #40 ) ) ;
#20 = CIRCLE ( 'NONE', #159, 0.1181100000000000066 ) ;
#21 = AXIS2_PLACEMENT_3D ( 'NONE', #112, #234, #124 ) ;
#22 = DIRECTION ( 'NONE',  ( -1.224646799147353207E-16, -0.0000000000000000000, -1.000000000000000000 ) ) ;
#23 = CARTESIAN_POINT ( 'NONE',  ( 0.1181100000000000066, 1.446430334472939084E-17, 2.229093999999999465 ) ) ;
#24 = EDGE_CURVE ( 'NONE', #180, #45, #86, .T. ) ;
#25 = CARTESIAN_POINT ( 'NONE',  ( 0.0000000000000000000, 0.0000000000000000000, 2.244094000000000033 ) ) ;
#26 = PRODUCT_RELATED_PRODUCT_CATEGORY ( 'part', '', ( #195 ) ) ;
#27 = CARTESIAN_POINT ( 'NONE',  ( 0.0000000000000000000, 0.0000000000000000000, 0.0000000000000000000 ) ) ;
#28 = VECTOR ( 'NONE', #224, 39.37007874015748143 ) ;
#29 = DIRECTION ( 'NONE',  ( 1.000000000000000000, 0.0000000000000000000, 0.0000000000000000000 ) ) ;
#30 = CARTESIAN_POINT ( 'NONE',  ( 9.642893389422242582E-17, 0.0000000000000000000, 0.7874019999999999353 ) ) ;
#31 = DIRECTION ( 'NONE',  ( 1.000000000000000000, 0.0000000000000000000, 0.0000000000000000000 ) ) ;
#32 = DIRECTION ( 'NONE',  ( 1.000000000000000000, 0.0000000000000000000, 0.0000000000000000000 ) ) ;
#33 =( GEOMETRIC_REPRESENTATION_CONTEXT ( 3 ) GLOBAL_UNCERTAINTY_ASSIGNED_CONTEXT ( ( #255 ) ) GLOBAL_UNIT_ASSIGNED_CONTEXT ( ( #153, #182, #80 ) ) REPRESENTATION_CONTEXT ( 'NONE', 'WORKASPACE' ) );
#34 = DIRECTION ( 'NONE',  ( 0.0000000000000000000, 0.0000000000000000000, -1.000000000000000000 ) ) ;
#35 = APPLICATION_CONTEXT ( 'automotive_design' ) ;
#36 = VECTOR ( 'NONE', #294, 39.37007874015747433 ) ;
#37 = EDGE_LOOP ( 'NONE', ( #11, #222, #60, #263 ) ) ;
#38 = CIRCLE ( 'NONE', #70, 0.1179918899999999882 ) ;
#39 = ADVANCED_FACE ( 'NONE', ( #274 ), #138, .T. ) ;
#40 = ORIENTED_EDGE ( 'NONE', *, *, #95, .F. ) ;
#41 = VERTEX_POINT ( 'NONE', #205 ) ;
#42 = CARTESIAN_POINT ( 'NONE',  ( -0.1031100000000002570, 0.0000000000000000000, 2.244094000000000033 ) ) ;
#43 = SURFACE_STYLE_FILL_AREA ( #243 ) ;
#44 = AXIS2_PLACEMENT_3D ( 'NONE', #71, #214, #167 ) ;
#45 = VERTEX_POINT ( 'NONE', #114 ) ;
#46 = ORIENTED_EDGE ( 'NONE', *, *, #284, .T. ) ;
#47 = CYLINDRICAL_SURFACE ( 'NONE', #202, 0.1179918899999999882 ) ;
#48 = VECTOR ( 'NONE', #277, 39.37007874015748143 ) ;
#49 = DIRECTION ( 'NONE',  ( -1.000000000000000000, 0.0000000000000000000, 1.224646799147353454E-16 ) ) ;
#50 = ADVANCED_FACE ( 'NONE', ( #92 ), #164, .F. ) ;
#51 = PRESENTATION_STYLE_ASSIGNMENT (( #53 ) ) ;
#52 = EDGE_CURVE ( 'NONE', #106, #41, #64, .T. ) ;
#53 = SURFACE_STYLE_USAGE ( .BOTH. , #253 ) ;
#54 = CIRCLE ( 'NONE', #140, 0.1031100000000002570 ) ;
#55 = DIRECTION ( 'NONE',  ( -1.000000000000000000, 0.0000000000000000000, 0.0000000000000000000 ) ) ;
#56 = DIRECTION ( 'NONE',  ( -1.224646799147353207E-16, -0.0000000000000000000, -1.000000000000000000 ) ) ;
#57 = CIRCLE ( 'NONE', #256, 0.1181100000000000066 ) ;
#58 = ORIENTED_EDGE ( 'NONE', *, *, #267, .F. ) ;
#59 = PRODUCT_DEFINITION ( 'UNKNOWN', '', #155, #8 ) ;
#60 = ORIENTED_EDGE ( 'NONE', *, *, #172, .F. ) ;
#61 = ADVANCED_FACE ( 'NONE', ( #297 ), #47, .T. ) ;
#62 = CONICAL_SURFACE ( 'NONE', #118, 0.1179918899999999882, 0.1745329251994339192 ) ;
#63 = ORIENTED_EDGE ( 'NONE', *, *, #24, .T. ) ;
#64 = LINE ( 'NONE', #42, #207 ) ;
#65 = ORIENTED_EDGE ( 'NONE', *, *, #52, .F. ) ;
#66 = COLOUR_RGB ( '',0.7921568627450980005, 0.8196078431372548767, 0.9333333333333333481 ) ;
#67 = DIRECTION ( 'NONE',  ( 1.000000000000000000, 0.0000000000000000000, 0.0000000000000000000 ) ) ;
#68 = DIRECTION ( 'NONE',  ( 1.000000000000000000, 0.0000000000000000000, 0.0000000000000000000 ) ) ;
#69 = CARTESIAN_POINT ( 'NONE',  ( -0.1181100000000000066, 0.0000000000000000000, 2.244094000000000033 ) ) ;
#70 = AXIS2_PLACEMENT_3D ( 'NONE', #163, #272, #111 ) ;
#71 = CARTESIAN_POINT ( 'NONE',  ( 0.0000000000000000000, 0.0000000000000000000, 2.244094000000000033 ) ) ;
#72 = ADVANCED_FACE ( 'NONE', ( #247 ), #62, .T. ) ;
#73 = CARTESIAN_POINT ( 'NONE',  ( 0.0000000000000000000, 0.0000000000000000000, 2.229093999999999465 ) ) ;
#74 = CARTESIAN_POINT ( 'NONE',  ( 1.769594913022618037E-33, 0.0000000000000000000, 1.444983904138465938E-17 ) ) ;
#75 = DIRECTION ( 'NONE',  ( 1.000000000000000000, 0.0000000000000000000, -0.0000000000000000000 ) ) ;
#76 =( GEOMETRIC_REPRESENTATION_CONTEXT ( 3 ) GLOBAL_UNCERTAINTY_ASSIGNED_CONTEXT ( ( #168 ) ) GLOBAL_UNIT_ASSIGNED_CONTEXT ( ( #192, #237, #276 ) ) REPRESENTATION_CONTEXT ( 'NONE', 'WORKASPACE' ) );
#77 = DIMENSIONAL_EXPONENTS ( 1.000000000000000000, 0.0000000000000000000, 0.0000000000000000000, 0.0000000000000000000, 0.0000000000000000000, 0.0000000000000000000, 0.0000000000000000000 ) ;
#78 = EDGE_LOOP ( 'NONE', ( #259, #46, #100, #240 ) ) ;
#79 = ORIENTED_EDGE ( 'NONE', *, *, #101, .T. ) ;
#80 =( NAMED_UNIT ( * ) SI_UNIT ( $, .STERADIAN. ) SOLID_ANGLE_UNIT ( ) );
#81 = ADVANCED_FACE ( 'NONE', ( #156 ), #209, .T. ) ;
#82 = EDGE_LOOP ( 'NONE', ( #104, #239, #83, #1 ) ) ;
#83 = ORIENTED_EDGE ( 'NONE', *, *, #52, .T. ) ;
#84 = VECTOR ( 'NONE', #5, 39.37007874015748854 ) ;
#85 = AXIS2_PLACEMENT_3D ( 'NONE', #241, #250, #31 ) ;
#86 = LINE ( 'NONE', #208, #28 ) ;
#87 = LINE ( 'NONE', #165, #48 ) ;
#88 = ORIENTED_EDGE ( 'NONE', *, *, #127, .T. ) ;
#89 = ORIENTED_EDGE ( 'NONE', *, *, #212, .T. ) ;
#90 = CARTESIAN_POINT ( 'NONE',  ( 0.0000000000000000000, 0.0000000000000000000, 2.244094000000000033 ) ) ;
#91 = EDGE_CURVE ( 'NONE', #290, #106, #54, .T. ) ;
#92 = FACE_OUTER_BOUND ( 'NONE', #258, .T. ) ;
#93 = CARTESIAN_POINT ( 'NONE',  ( 0.1179918899999999882, 1.444983904138465938E-17, 0.0000000000000000000 ) ) ;
#94 = AXIS2_PLACEMENT_3D ( 'NONE', #271, #158, #139 ) ;
#95 = EDGE_CURVE ( 'NONE', #248, #150, #244, .T. ) ;
#96 = DIRECTION ( 'NONE',  ( -1.000000000000000000, 0.0000000000000000000, 0.0000000000000000000 ) ) ;
#97 = CARTESIAN_POINT ( 'NONE',  ( 0.0000000000000000000, 0.0000000000000000000, 2.229093999999999465 ) ) ;
#98 =( LENGTH_UNIT ( ) NAMED_UNIT ( * ) SI_UNIT ( $, .METRE. ) );
#99 = COLOUR_RGB ( '',0.7921568627450980005, 0.8196078431372548767, 0.9333333333333333481 ) ;
#100 = ORIENTED_EDGE ( 'NONE', *, *, #172, .T. ) ;
#101 = EDGE_CURVE ( 'NONE', #180, #248, #38, .T. ) ;
#102 = EDGE_LOOP ( 'NONE', ( #197, #79, #265, #58 ) ) ;
#103 = MECHANICAL_DESIGN_GEOMETRIC_PRESENTATION_REPRESENTATION (  '', ( #216 ), #13 ) ;
#104 = ORIENTED_EDGE ( 'NONE', *, *, #212, .F. ) ;
#105 = SURFACE_STYLE_USAGE ( .BOTH. , #107 ) ;
#106 = VERTEX_POINT ( 'NONE', #186 ) ;
#107 = SURFACE_SIDE_STYLE ('',( #43 ) ) ;
#108 = ORIENTED_EDGE ( 'NONE', *, *, #18, .F. ) ;
#109 = FILL_AREA_STYLE_COLOUR ( '', #66 ) ;
#110 = AXIS2_PLACEMENT_3D ( 'NONE', #210, #3, #96 ) ;
#111 = DIRECTION ( 'NONE',  ( -1.000000000000000000, 0.0000000000000000000, 0.0000000000000000000 ) ) ;
#112 = CARTESIAN_POINT ( 'NONE',  ( 9.642893389422242582E-17, 0.0000000000000000000, 0.7874019999999999353 ) ) ;
#113 = CLOSED_SHELL ( 'NONE', ( #39, #279, #160, #81, #143, #147, #179, #72, #61, #50 ) ) ;
#114 = CARTESIAN_POINT ( 'NONE',  ( 0.1181100000000001177, 1.446430334472940317E-17, 0.7880718350957151008 ) ) ;
#115 = DIRECTION ( 'NONE',  ( -0.0000000000000000000, -0.0000000000000000000, -1.000000000000000000 ) ) ;
#116 = EDGE_CURVE ( 'NONE', #248, #180, #223, .T. ) ;
#117 = CIRCLE ( 'NONE', #282, 0.1179918899999999882 ) ;
#118 = AXIS2_PLACEMENT_3D ( 'NONE', #30, #119, #29 ) ;
#119 = DIRECTION ( 'NONE',  ( 1.224646799147353207E-16, 0.0000000000000000000, 1.000000000000000000 ) ) ;
#120 = APPLICATION_PROTOCOL_DEFINITION ( 'draft international standard', 'automotive_design', 1998, #35 ) ;
#121 = CARTESIAN_POINT ( 'NONE',  ( 1.769594913022618037E-33, 0.0000000000000000000, 1.444983904138465938E-17 ) ) ;
#122 = AXIS2_PLACEMENT_3D ( 'NONE', #90, #273, #206 ) ;
#123 = LINE ( 'NONE', #281, #84 ) ;
#124 = DIRECTION ( 'NONE',  ( 1.000000000000000000, 0.0000000000000000000, 0.0000000000000000000 ) ) ;
#125 = DIRECTION ( 'NONE',  ( 0.0000000000000000000, 0.0000000000000000000, 1.000000000000000000 ) ) ;
#126 = DIRECTION ( 'NONE',  ( 0.0000000000000000000, 0.0000000000000000000, -1.000000000000000000 ) ) ;
#127 = EDGE_CURVE ( 'NONE', #106, #290, #166, .T. ) ;
#128 = UNCERTAINTY_MEASURE_WITH_UNIT (LENGTH_MEASURE( 1.000000000000000082E-05 ), #270, 'distance_accuracy_value', 'NONE');
#129 = DIMENSIONAL_EXPONENTS ( 1.000000000000000000, 0.0000000000000000000, 0.0000000000000000000, 0.0000000000000000000, 0.0000000000000000000, 0.0000000000000000000, 0.0000000000000000000 ) ;
#130 = VECTOR ( 'NONE', #22, 39.37007874015748143 ) ;
#131 = EDGE_LOOP ( 'NONE', ( #289, #288, #14, #220 ) ) ;
#132 = MANIFOLD_SOLID_BREP ( 'Cut-Revolve1', #113 ) ;
#133 = VERTEX_POINT ( 'NONE', #252 ) ;
#134 = ORIENTED_EDGE ( 'NONE', *, *, #116, .T. ) ;
#135 = CARTESIAN_POINT ( 'NONE',  ( -0.1179918899999999882, 0.0000000000000000000, 1.444983904138465938E-17 ) ) ;
#136 = LINE ( 'NONE', #69, #269 ) ;
#137 = SHAPE_DEFINITION_REPRESENTATION ( #157, #232 ) ;
#138 = CYLINDRICAL_SURFACE ( 'NONE', #291, 0.1179918899999999882 ) ;
#139 = DIRECTION ( 'NONE',  ( -1.000000000000000000, 0.0000000000000000000, 0.0000000000000000000 ) ) ;
#140 = AXIS2_PLACEMENT_3D ( 'NONE', #25, #296, #68 ) ;
#141 = CARTESIAN_POINT ( 'NONE',  ( 0.0000000000000000000, 0.0000000000000000000, 0.0000000000000000000 ) ) ;
#142 = FACE_OUTER_BOUND ( 'NONE', #131, .T. ) ;
#143 = ADVANCED_FACE ( 'NONE', ( #142 ), #227, .T. ) ;
#144 = CARTESIAN_POINT ( 'NONE',  ( 0.0000000000000000000, 0.0000000000000000000, 2.244094000000000033 ) ) ;
#145 = CONICAL_SURFACE ( 'NONE', #21, 0.1179918899999999882, 0.1745329251994339192 ) ;
#146 = CARTESIAN_POINT ( 'NONE',  ( 0.1179918900000000992, 0.0000000000000000000, 0.7874019999999999353 ) ) ;
#147 = ADVANCED_FACE ( 'NONE', ( #6 ), #174, .T. ) ;
#148 = DIRECTION ( 'NONE',  ( -0.0000000000000000000, -0.0000000000000000000, -1.000000000000000000 ) ) ;
#149 = LINE ( 'NONE', #217, #193 ) ;
#150 = VERTEX_POINT ( 'NONE', #194 ) ;
#151 = EDGE_LOOP ( 'NONE', ( #175, #12, #63, #199 ) ) ;
#152 = LENGTH_MEASURE_WITH_UNIT ( LENGTH_MEASURE( 0.02539999999999999897 ), #183 );
#153 =( CONVERSION_BASED_UNIT ( 'INCH', #171 ) LENGTH_UNIT ( ) NAMED_UNIT ( #129 ) );
#154 = DIRECTION ( 'NONE',  ( 1.000000000000000000, 0.0000000000000000000, 0.0000000000000000000 ) ) ;
#155 = PRODUCT_DEFINITION_FORMATION_WITH_SPECIFIED_SOURCE ( 'ANY', '', #195, .NOT_KNOWN. ) ;
#156 = FACE_OUTER_BOUND ( 'NONE', #37, .T. ) ;
#157 = PRODUCT_DEFINITION_SHAPE ( 'NONE', 'NONE',  #59 ) ;
#158 = DIRECTION ( 'NONE',  ( -1.224646799147353207E-16, -0.0000000000000000000, -1.000000000000000000 ) ) ;
#159 = AXIS2_PLACEMENT_3D ( 'NONE', #73, #213, #162 ) ;
#160 = ADVANCED_FACE ( 'NONE', ( #278 ), #221, .T. ) ;
#161 = FILL_AREA_STYLE_COLOUR ( '', #99 ) ;
#162 = DIRECTION ( 'NONE',  ( 1.000000000000000000, 0.0000000000000000000, 0.0000000000000000000 ) ) ;
#163 = CARTESIAN_POINT ( 'NONE',  ( 9.642893389422242582E-17, 0.0000000000000000000, 0.7874019999999999353 ) ) ;
#164 = PLANE ( 'NONE',  #215 ) ;
#165 = CARTESIAN_POINT ( 'NONE',  ( 0.1179918899999999882, 1.444983904138465938E-17, -1.444983904138465938E-17 ) ) ;
#166 = CIRCLE ( 'NONE', #238, 0.1031100000000002570 ) ;
#167 = DIRECTION ( 'NONE',  ( -1.000000000000000000, 0.0000000000000000000, 0.0000000000000000000 ) ) ;
#168 = UNCERTAINTY_MEASURE_WITH_UNIT (LENGTH_MEASURE( 1.000000000000000082E-05 ), #192, 'distance_accuracy_value', 'NONE');
#169 = CARTESIAN_POINT ( 'NONE',  ( 9.651096503481483597E-17, 0.0000000000000000000, 0.7880718350957151008 ) ) ;
#170 = APPLICATION_CONTEXT ( 'automotive_design' ) ;
#171 = LENGTH_MEASURE_WITH_UNIT ( LENGTH_MEASURE( 0.02539999999999999897 ), #4 );
#172 = EDGE_CURVE ( 'NONE', #133, #45, #264, .T. ) ;
#173 = PRESENTATION_LAYER_ASSIGNMENT (  '', '', ( #283 ) ) ;
#174 = PLANE ( 'NONE',  #188 ) ;
#175 = ORIENTED_EDGE ( 'NONE', *, *, #284, .F. ) ;
#176 = DIRECTION ( 'NONE',  ( -1.224646799147353207E-16, -0.0000000000000000000, -1.000000000000000000 ) ) ;
#177 = VERTEX_POINT ( 'NONE', #93 ) ;
#178 = ORIENTED_EDGE ( 'NONE', *, *, #18, .T. ) ;
#179 = ADVANCED_FACE ( 'NONE', ( #236 ), #242, .T. ) ;
#180 = VERTEX_POINT ( 'NONE', #146 ) ;
#181 = CIRCLE ( 'NONE', #211, 0.1179918899999999882 ) ;
#182 =( NAMED_UNIT ( * ) PLANE_ANGLE_UNIT ( ) SI_UNIT ( $, .RADIAN. ) );
#183 =( LENGTH_UNIT ( ) NAMED_UNIT ( * ) SI_UNIT ( $, .METRE. ) );
#184 = LINE ( 'NONE', #266, #36 ) ;
#185 = DIRECTION ( 'NONE',  ( -1.000000000000000000, 0.0000000000000000000, 1.224646799147353454E-16 ) ) ;
#186 = CARTESIAN_POINT ( 'NONE',  ( -0.1031100000000002570, 0.0000000000000000000, 2.244094000000000033 ) ) ;
#187 = DIRECTION ( 'NONE',  ( -1.224646799147353207E-16, -0.0000000000000000000, -1.000000000000000000 ) ) ;
#188 = AXIS2_PLACEMENT_3D ( 'NONE', #144, #125, #75 ) ;
#189 = DIRECTION ( 'NONE',  ( -1.224646799147353207E-16, -0.0000000000000000000, -1.000000000000000000 ) ) ;
#190 = FACE_OUTER_BOUND ( 'NONE', #78, .T. ) ;
#191 = DIRECTION ( 'NONE',  ( -0.7071067811865358044, 0.0000000000000000000, -0.7071067811865590080 ) ) ;
#192 =( CONVERSION_BASED_UNIT ( 'INCH', #257 ) LENGTH_UNIT ( ) NAMED_UNIT ( #10 ) );
#193 = VECTOR ( 'NONE', #148, 39.37007874015748143 ) ;
#194 = CARTESIAN_POINT ( 'NONE',  ( -0.1179918899999999882, 0.0000000000000000000, 2.889967808276931875E-17 ) ) ;
#195 = PRODUCT ( 'Micro_SFLM-060-20', 'Micro_SFLM-060-20', '', ( #275 ) ) ;
#196 = DIRECTION ( 'NONE',  ( 1.000000000000000000, 0.0000000000000000000, 0.0000000000000000000 ) ) ;
#197 = ORIENTED_EDGE ( 'NONE', *, *, #285, .F. ) ;
#198 = ORIENTED_EDGE ( 'NONE', *, *, #91, .F. ) ;
#199 = ORIENTED_EDGE ( 'NONE', *, *, #295, .T. ) ;
#200 = PRESENTATION_STYLE_ASSIGNMENT (( #105 ) ) ;
#201 = EDGE_LOOP ( 'NONE', ( #198, #89, #219, #65 ) ) ;
#202 = AXIS2_PLACEMENT_3D ( 'NONE', #203, #187, #230 ) ;
#203 = CARTESIAN_POINT ( 'NONE',  ( 0.0000000000000000000, 0.0000000000000000000, 0.0000000000000000000 ) ) ;
#204 =( NAMED_UNIT ( * ) SI_UNIT ( $, .STERADIAN. ) SOLID_ANGLE_UNIT ( ) );
#205 = CARTESIAN_POINT ( 'NONE',  ( -0.1181100000000000066, 0.0000000000000000000, 2.229093999999999465 ) ) ;
#206 = DIRECTION ( 'NONE',  ( -1.000000000000000000, 0.0000000000000000000, 0.0000000000000000000 ) ) ;
#207 = VECTOR ( 'NONE', #191, 39.37007874015748854 ) ;
#208 = CARTESIAN_POINT ( 'NONE',  ( 0.1179918900000000992, 0.0000000000000000000, 0.7874019999999999353 ) ) ;
#209 = CYLINDRICAL_SURFACE ( 'NONE', #122, 0.1181100000000000066 ) ;
#210 = CARTESIAN_POINT ( 'NONE',  ( 0.0000000000000000000, 0.0000000000000000000, 2.244094000000000033 ) ) ;
#211 = AXIS2_PLACEMENT_3D ( 'NONE', #74, #176, #16 ) ;
#212 = EDGE_CURVE ( 'NONE', #290, #261, #123, .T. ) ;
#213 = DIRECTION ( 'NONE',  ( 0.0000000000000000000, 0.0000000000000000000, -1.000000000000000000 ) ) ;
#214 = DIRECTION ( 'NONE',  ( 0.0000000000000000000, 0.0000000000000000000, -1.000000000000000000 ) ) ;
#215 = AXIS2_PLACEMENT_3D ( 'NONE', #141, #299, #268 ) ;
#216 = STYLED_ITEM ( 'NONE', ( #200 ), #232 ) ;
#217 = CARTESIAN_POINT ( 'NONE',  ( 0.1181100000000000066, 1.446430334472939084E-17, 2.244094000000000033 ) ) ;
#218 = EDGE_CURVE ( 'NONE', #41, #261, #287, .T. ) ;
#219 = ORIENTED_EDGE ( 'NONE', *, *, #218, .F. ) ;
#220 = ORIENTED_EDGE ( 'NONE', *, *, #295, .F. ) ;
#221 = CONICAL_SURFACE ( 'NONE', #292, 0.1031100000000002570, 0.7853981633974318477 ) ;
#222 = ORIENTED_EDGE ( 'NONE', *, *, #298, .T. ) ;
#223 = CIRCLE ( 'NONE', #94, 0.1179918899999999882 ) ;
#224 = DIRECTION ( 'NONE',  ( 0.1736481776669314137, 0.0000000000000000000, 0.9848077530122077983 ) ) ;
#225 = DIRECTION ( 'NONE',  ( -1.224646799147353207E-16, -0.0000000000000000000, -1.000000000000000000 ) ) ;
#226 = CARTESIAN_POINT ( 'NONE',  ( 9.651096503481483597E-17, 0.0000000000000000000, 0.7880718350957151008 ) ) ;
#227 = CYLINDRICAL_SURFACE ( 'NONE', #110, 0.1181100000000000066 ) ;
#228 = CARTESIAN_POINT ( 'NONE',  ( 0.0000000000000000000, 0.0000000000000000000, 2.244094000000000033 ) ) ;
#229 = MECHANICAL_DESIGN_GEOMETRIC_PRESENTATION_REPRESENTATION (  '', ( #283 ), #76 ) ;
#230 = DIRECTION ( 'NONE',  ( -1.000000000000000000, 0.0000000000000000000, 1.224646799147353454E-16 ) ) ;
#231 = FILL_AREA_STYLE ('',( #161 ) ) ;
#232 = ADVANCED_BREP_SHAPE_REPRESENTATION ( 'Micro_SFLM-060-20', ( #132, #85 ), #33 ) ;
#233 = DIRECTION ( 'NONE',  ( -1.224646799147353207E-16, -0.0000000000000000000, -1.000000000000000000 ) ) ;
#234 = DIRECTION ( 'NONE',  ( 1.224646799147353207E-16, 0.0000000000000000000, 1.000000000000000000 ) ) ;
#235 = PRESENTATION_LAYER_ASSIGNMENT (  '', '', ( #216 ) ) ;
#236 = FACE_OUTER_BOUND ( 'NONE', #82, .T. ) ;
#237 =( NAMED_UNIT ( * ) PLANE_ANGLE_UNIT ( ) SI_UNIT ( $, .RADIAN. ) );
#238 = AXIS2_PLACEMENT_3D ( 'NONE', #228, #246, #67 ) ;
#239 = ORIENTED_EDGE ( 'NONE', *, *, #127, .F. ) ;
#240 = ORIENTED_EDGE ( 'NONE', *, *, #24, .F. ) ;
#241 = CARTESIAN_POINT ( 'NONE',  ( 0.0000000000000000000, 0.0000000000000000000, 0.0000000000000000000 ) ) ;
#242 = CONICAL_SURFACE ( 'NONE', #44, 0.1031100000000002570, 0.7853981633974318477 ) ;
#243 = FILL_AREA_STYLE ('',( #109 ) ) ;
#244 = LINE ( 'NONE', #135, #130 ) ;
#245 =( NAMED_UNIT ( * ) PLANE_ANGLE_UNIT ( ) SI_UNIT ( $, .RADIAN. ) );
#246 = DIRECTION ( 'NONE',  ( 0.0000000000000000000, 0.0000000000000000000, 1.000000000000000000 ) ) ;
#247 = FACE_OUTER_BOUND ( 'NONE', #151, .T. ) ;
#248 = VERTEX_POINT ( 'NONE', #280 ) ;
#249 = EDGE_LOOP ( 'NONE', ( #88, #286 ) ) ;
#250 = DIRECTION ( 'NONE',  ( 0.0000000000000000000, 0.0000000000000000000, 1.000000000000000000 ) ) ;
#251 = AXIS2_PLACEMENT_3D ( 'NONE', #169, #233, #32 ) ;
#252 = CARTESIAN_POINT ( 'NONE',  ( -0.1181099999999999095, 0.0000000000000000000, 0.7880718350957151008 ) ) ;
#253 = SURFACE_SIDE_STYLE ('',( #254 ) ) ;
#254 = SURFACE_STYLE_FILL_AREA ( #231 ) ;
#255 = UNCERTAINTY_MEASURE_WITH_UNIT (LENGTH_MEASURE( 1.000000000000000082E-05 ), #153, 'distance_accuracy_value', 'NONE');
#256 = AXIS2_PLACEMENT_3D ( 'NONE', #226, #56, #154 ) ;
#257 = LENGTH_MEASURE_WITH_UNIT ( LENGTH_MEASURE( 0.02539999999999999897 ), #98 );
#258 = EDGE_LOOP ( 'NONE', ( #178, #17 ) ) ;
#259 = ORIENTED_EDGE ( 'NONE', *, *, #116, .F. ) ;
#260 = EDGE_CURVE ( 'NONE', #261, #41, #20, .T. ) ;
#261 = VERTEX_POINT ( 'NONE', #23 ) ;
#262 = CARTESIAN_POINT ( 'NONE',  ( 0.1031100000000002570, 1.354581824536888722E-17, 2.244094000000000033 ) ) ;
#263 = ORIENTED_EDGE ( 'NONE', *, *, #7, .F. ) ;
#264 = CIRCLE ( 'NONE', #251, 0.1181100000000000066 ) ;
#265 = ORIENTED_EDGE ( 'NONE', *, *, #95, .T. ) ;
#266 = CARTESIAN_POINT ( 'NONE',  ( -0.1179918899999998910, 1.444983904138465938E-17, 0.7874019999999999353 ) ) ;
#267 = EDGE_CURVE ( 'NONE', #177, #150, #181, .T. ) ;
#268 = DIRECTION ( 'NONE',  ( 1.000000000000000000, 0.0000000000000000000, -0.0000000000000000000 ) ) ;
#269 = VECTOR ( 'NONE', #115, 39.37007874015748143 ) ;
#270 =( CONVERSION_BASED_UNIT ( 'INCH', #152 ) LENGTH_UNIT ( ) NAMED_UNIT ( #77 ) );
#271 = CARTESIAN_POINT ( 'NONE',  ( 9.642893389422242582E-17, 0.0000000000000000000, 0.7874019999999999353 ) ) ;
#272 = DIRECTION ( 'NONE',  ( -1.224646799147353207E-16, -0.0000000000000000000, -1.000000000000000000 ) ) ;
#273 = DIRECTION ( 'NONE',  ( -0.0000000000000000000, -0.0000000000000000000, -1.000000000000000000 ) ) ;
#274 = FACE_OUTER_BOUND ( 'NONE', #19, .T. ) ;
#275 = PRODUCT_CONTEXT ( 'NONE', #170, 'mechanical' ) ;
#276 =( NAMED_UNIT ( * ) SI_UNIT ( $, .STERADIAN. ) SOLID_ANGLE_UNIT ( ) );
#277 = DIRECTION ( 'NONE',  ( -1.224646799147353207E-16, -0.0000000000000000000, -1.000000000000000000 ) ) ;
#278 = FACE_OUTER_BOUND ( 'NONE', #201, .T. ) ;
#279 = ADVANCED_FACE ( 'NONE', ( #190 ), #145, .T. ) ;
#280 = CARTESIAN_POINT ( 'NONE',  ( -0.1179918899999998910, 1.445707119305702357E-17, 0.7874019999999999353 ) ) ;
#281 = CARTESIAN_POINT ( 'NONE',  ( 0.1031100000000002570, 1.262733314600838667E-17, 2.244094000000000033 ) ) ;
#282 = AXIS2_PLACEMENT_3D ( 'NONE', #121, #189, #49 ) ;
#283 = STYLED_ITEM ( 'NONE', ( #51 ), #132 ) ;
#284 = EDGE_CURVE ( 'NONE', #248, #133, #184, .T. ) ;
#285 = EDGE_CURVE ( 'NONE', #180, #177, #87, .T. ) ;
#286 = ORIENTED_EDGE ( 'NONE', *, *, #91, .T. ) ;
#287 = CIRCLE ( 'NONE', #9, 0.1181100000000000066 ) ;
#288 = ORIENTED_EDGE ( 'NONE', *, *, #260, .T. ) ;
#289 = ORIENTED_EDGE ( 'NONE', *, *, #298, .F. ) ;
#290 = VERTEX_POINT ( 'NONE', #262 ) ;
#291 = AXIS2_PLACEMENT_3D ( 'NONE', #27, #225, #185 ) ;
#292 = AXIS2_PLACEMENT_3D ( 'NONE', #2, #126, #55 ) ;
#293 = ORIENTED_EDGE ( 'NONE', *, *, #285, .T. ) ;
#294 = DIRECTION ( 'NONE',  ( -0.1736481776669312194, 2.126576849575783625E-17, 0.9848077530122080203 ) ) ;
#295 = EDGE_CURVE ( 'NONE', #45, #133, #57, .T. ) ;
#296 = DIRECTION ( 'NONE',  ( 0.0000000000000000000, 0.0000000000000000000, 1.000000000000000000 ) ) ;
#297 = FACE_OUTER_BOUND ( 'NONE', #102, .T. ) ;
#298 = EDGE_CURVE ( 'NONE', #261, #45, #149, .T. ) ;
#299 = DIRECTION ( 'NONE',  ( 0.0000000000000000000, 0.0000000000000000000, 1.000000000000000000 ) ) ;
ENDSEC;
END-ISO-10303-21;
