ISO-10303-21;
HEADER;
FILE_DESCRIPTION (( 'STEP AP214' ),
    '1' );
FILE_NAME ('05697.STEP',
    '2023-06-22T16:18:50',
    ( '' ),
    ( '' ),
    'SwSTEP 2.0',
    'SolidWorks 2023',
    '' );
FILE_SCHEMA (( 'AUTOMOTIVE_DESIGN' ));
ENDSEC;

DATA;
#1 = MECHANICAL_DESIGN_GEOMETRIC_PRESENTATION_REPRESENTATION (  '', ( #215 ), #159 ) ;
#2 = CARTESIAN_POINT ( 'NONE',  ( 6.327111583104716231E-33, 1.000000000000000222, 0.000000000000000000 ) ) ;
#3 = EDGE_CURVE ( 'NONE', #267, #22, #200, .T. ) ;
#4 =( CONVERSION_BASED_UNIT ( 'INCH', #286 ) LENGTH_UNIT ( ) NAMED_UNIT ( #126 ) );
#5 = CIRCLE ( 'NONE', #124, 0.3749999999999996669 ) ;
#6 = DIRECTION ( 'NONE',  ( -1.000000000000000000, 3.642463991552350465E-16, 0.000000000000000000 ) ) ;
#7 = AXIS2_PLACEMENT_3D ( 'NONE', #67, #206, #132 ) ;
#8 =( NAMED_UNIT ( * ) PLANE_ANGLE_UNIT ( ) SI_UNIT ( $, .RADIAN. ) );
#9 = CYLINDRICAL_SURFACE ( 'NONE', #151, 0.3750000000000000555 ) ;
#10 = DIRECTION ( 'NONE',  ( 1.836970198721030181E-16, 1.000000000000000000, -0.000000000000000000 ) ) ;
#11 = MECHANICAL_DESIGN_GEOMETRIC_PRESENTATION_REPRESENTATION (  '', ( #245 ), #186 ) ;
#12 = PRESENTATION_STYLE_ASSIGNMENT (( #250 ) ) ;
#13 = UNCERTAINTY_MEASURE_WITH_UNIT (LENGTH_MEASURE( 1.000000000000000082E-05 ), #113, 'distance_accuracy_value', 'NONE');
#14 = VECTOR ( 'NONE', #142, 39.37007874015748143 ) ;
#15 = CIRCLE ( 'NONE', #36, 0.3749999999999996669 ) ;
#16 = PRESENTATION_STYLE_ASSIGNMENT (( #55 ) ) ;
#17 = EDGE_LOOP ( 'NONE', ( #63, #53 ) ) ;
#18 = MECHANICAL_DESIGN_GEOMETRIC_PRESENTATION_REPRESENTATION (  '', ( #176 ), #43 ) ;
#19 = CYLINDRICAL_SURFACE ( 'NONE', #275, 0.3750000000000000555 ) ;
#20 = SHAPE_DEFINITION_REPRESENTATION ( #293, #90 ) ;
#21 = PRESENTATION_STYLE_ASSIGNMENT (( #188 ) ) ;
#22 = VERTEX_POINT ( 'NONE', #258 ) ;
#23 = VECTOR ( 'NONE', #150, 39.37007874015748143 ) ;
#24 = CIRCLE ( 'NONE', #28, 0.3750000000000000555 ) ;
#25 =( NAMED_UNIT ( * ) SI_UNIT ( $, .STERADIAN. ) SOLID_ANGLE_UNIT ( ) );
#26 = ADVANCED_FACE ( 'NONE', ( #44 ), #19, .T. ) ;
#27 = DIRECTION ( 'NONE',  ( -1.000000000000000000, 1.836970198721030181E-16, 0.000000000000000000 ) ) ;
#28 = AXIS2_PLACEMENT_3D ( 'NONE', #222, #72, #6 ) ;
#29 = EDGE_CURVE ( 'NONE', #22, #232, #5, .T. ) ;
#30 =( NAMED_UNIT ( * ) PLANE_ANGLE_UNIT ( ) SI_UNIT ( $, .RADIAN. ) );
#31 = DIRECTION ( 'NONE',  ( 1.836970198721030181E-16, 1.000000000000000000, -0.000000000000000000 ) ) ;
#32 = SURFACE_SIDE_STYLE ('',( #99 ) ) ;
#33 = PRESENTATION_LAYER_ASSIGNMENT (  '', '', ( #245 ) ) ;
#34 = EDGE_CURVE ( 'NONE', #205, #267, #162, .T. ) ;
#35 =( CONVERSION_BASED_UNIT ( 'INCH', #49 ) LENGTH_UNIT ( ) NAMED_UNIT ( #145 ) );
#36 = AXIS2_PLACEMENT_3D ( 'NONE', #100, #189, #195 ) ;
#37 = DIRECTION ( 'NONE',  ( 0.000000000000000000, 0.000000000000000000, -1.000000000000000000 ) ) ;
#38 = CARTESIAN_POINT ( 'NONE',  ( 3.673940397442060361E-16, 3.000000000000000444, 0.000000000000000000 ) ) ;
#39 = ORIENTED_EDGE ( 'NONE', *, *, #29, .T. ) ;
#40 = ORIENTED_EDGE ( 'NONE', *, *, #223, .T. ) ;
#41 = SURFACE_STYLE_USAGE ( .BOTH. , #207 ) ;
#42 = MECHANICAL_DESIGN_GEOMETRIC_PRESENTATION_REPRESENTATION (  '', ( #216 ), #307 ) ;
#43 =( GEOMETRIC_REPRESENTATION_CONTEXT ( 3 ) GLOBAL_UNCERTAINTY_ASSIGNED_CONTEXT ( ( #47 ) ) GLOBAL_UNIT_ASSIGNED_CONTEXT ( ( #4, #285, #243 ) ) REPRESENTATION_CONTEXT ( 'NONE', 'WORKASPACE' ) );
#44 = FACE_OUTER_BOUND ( 'NONE', #147, .T. ) ;
#45 = FILL_AREA_STYLE ('',( #164 ) ) ;
#46 =( NAMED_UNIT ( * ) PLANE_ANGLE_UNIT ( ) SI_UNIT ( $, .RADIAN. ) );
#47 = UNCERTAINTY_MEASURE_WITH_UNIT (LENGTH_MEASURE( 1.000000000000000082E-05 ), #4, 'distance_accuracy_value', 'NONE');
#48 =( LENGTH_UNIT ( ) NAMED_UNIT ( * ) SI_UNIT ( $, .METRE. ) );
#49 = LENGTH_MEASURE_WITH_UNIT ( LENGTH_MEASURE( 0.02539999999999999897 ), #192 );
#50 = CYLINDRICAL_SURFACE ( 'NONE', #256, 0.3749999999999998335 ) ;
#51 = CARTESIAN_POINT ( 'NONE',  ( -0.3749999999999995004, 3.000000000000000444, 0.000000000000000000 ) ) ;
#52 = FACE_OUTER_BOUND ( 'NONE', #123, .T. ) ;
#53 = ORIENTED_EDGE ( 'NONE', *, *, #262, .F. ) ;
#54 = FILL_AREA_STYLE ('',( #172 ) ) ;
#55 = SURFACE_STYLE_USAGE ( .BOTH. , #167 ) ;
#56 = MECHANICAL_DESIGN_GEOMETRIC_PRESENTATION_REPRESENTATION (  '', ( #271 ), #254 ) ;
#57 = AXIS2_PLACEMENT_3D ( 'NONE', #290, #120, #220 ) ;
#58 = DIMENSIONAL_EXPONENTS ( 1.000000000000000000, 0.000000000000000000, 0.000000000000000000, 0.000000000000000000, 0.000000000000000000, 0.000000000000000000, 0.000000000000000000 ) ;
#59 = PRESENTATION_STYLE_ASSIGNMENT (( #41 ) ) ;
#60 = CIRCLE ( 'NONE', #136, 0.3750000000000000555 ) ;
#61 = PRODUCT_DEFINITION_FORMATION_WITH_SPECIFIED_SOURCE ( 'ANY', '', #213, .NOT_KNOWN. ) ;
#62 = DIRECTION ( 'NONE',  ( -0.000000000000000000, -1.000000000000000000, -0.000000000000000000 ) ) ;
#63 = ORIENTED_EDGE ( 'NONE', *, *, #154, .F. ) ;
#64 = DIRECTION ( 'NONE',  ( -1.000000000000000000, 0.000000000000000000, 0.000000000000000000 ) ) ;
#65 = LENGTH_MEASURE_WITH_UNIT ( LENGTH_MEASURE( 0.02539999999999999897 ), #93 );
#66 = SURFACE_SIDE_STYLE ('',( #217 ) ) ;
#67 = CARTESIAN_POINT ( 'NONE',  ( 0.000000000000000000, 0.000000000000000000, 0.000000000000000000 ) ) ;
#68 = DIRECTION ( 'NONE',  ( -1.000000000000000000, 3.642463991552350465E-16, 0.000000000000000000 ) ) ;
#69 = AXIS2_PLACEMENT_3D ( 'NONE', #173, #119, #295 ) ;
#70 = MANIFOLD_SOLID_BREP ( 'Revolve - Cutting Edge', #95 ) ;
#71 = SURFACE_STYLE_FILL_AREA ( #45 ) ;
#72 = DIRECTION ( 'NONE',  ( 1.836970198721030181E-16, 1.000000000000000000, -0.000000000000000000 ) ) ;
#73 = ADVANCED_FACE ( 'NONE', ( #161 ), #185, .T. ) ;
#74 = FACE_OUTER_BOUND ( 'NONE', #226, .T. ) ;
#75 = CARTESIAN_POINT ( 'NONE',  ( 0.3750000000000000555, 1.000000000000000222, 4.592425496802572986E-17 ) ) ;
#76 = STYLED_ITEM ( 'NONE', ( #16 ), #134 ) ;
#77 = AXIS2_PLACEMENT_3D ( 'NONE', #2, #10, #27 ) ;
#78 = CARTESIAN_POINT ( 'NONE',  ( 0.000000000000000000, 0.000000000000000000, -0.3750000000000000555 ) ) ;
#79 = CARTESIAN_POINT ( 'NONE',  ( 0.000000000000000000, 0.000000000000000000, 0.000000000000000000 ) ) ;
#80 =( CONVERSION_BASED_UNIT ( 'INCH', #165 ) LENGTH_UNIT ( ) NAMED_UNIT ( #251 ) );
#81 = CIRCLE ( 'NONE', #110, 0.3750000000000000555 ) ;
#82 = CARTESIAN_POINT ( 'NONE',  ( 4.592425496802575451E-17, 0.000000000000000000, 0.3750000000000000555 ) ) ;
#83 = ORIENTED_EDGE ( 'NONE', *, *, #274, .T. ) ;
#84 = PRESENTATION_STYLE_ASSIGNMENT (( #156 ) ) ;
#85 =( NAMED_UNIT ( * ) SI_UNIT ( $, .STERADIAN. ) SOLID_ANGLE_UNIT ( ) );
#86 = AXIS2_PLACEMENT_3D ( 'NONE', #283, #160, #264 ) ;
#87 = ORIENTED_EDGE ( 'NONE', *, *, #187, .F. ) ;
#88 = DIRECTION ( 'NONE',  ( 1.836970198721030181E-16, 1.000000000000000000, -0.000000000000000000 ) ) ;
#89 = ORIENTED_EDGE ( 'NONE', *, *, #34, .F. ) ;
#90 = ADVANCED_BREP_SHAPE_REPRESENTATION ( '05697', ( #70, #175, #7 ), #137 ) ;
#91 = ADVANCED_FACE ( 'NONE', ( #265 ), #105, .T. ) ;
#92 = UNCERTAINTY_MEASURE_WITH_UNIT (LENGTH_MEASURE( 1.000000000000000082E-05 ), #80, 'distance_accuracy_value', 'NONE');
#93 =( LENGTH_UNIT ( ) NAMED_UNIT ( * ) SI_UNIT ( $, .METRE. ) );
#94 = CARTESIAN_POINT ( 'NONE',  ( 0.000000000000000000, 0.000000000000000000, -0.3750000000000000555 ) ) ;
#95 = CLOSED_SHELL ( 'NONE', ( #134, #91, #26, #73 ) ) ;
#96 = ADVANCED_FACE ( 'NONE', ( #298 ), #121, .F. ) ;
#97 = CIRCLE ( 'NONE', #170, 0.3750000000000000555 ) ;
#98 = APPLICATION_CONTEXT ( 'automotive_design' ) ;
#99 = SURFACE_STYLE_FILL_AREA ( #141 ) ;
#100 = CARTESIAN_POINT ( 'NONE',  ( 3.673940397442060361E-16, 3.000000000000000444, 0.000000000000000000 ) ) ;
#101 = CLOSED_SHELL ( 'NONE', ( #210, #241, #248, #96 ) ) ;
#102 = CYLINDRICAL_SURFACE ( 'NONE', #183, 0.3749999999999998335 ) ;
#103 = EDGE_LOOP ( 'NONE', ( #39, #83 ) ) ;
#104 = DIMENSIONAL_EXPONENTS ( 1.000000000000000000, 0.000000000000000000, 0.000000000000000000, 0.000000000000000000, 0.000000000000000000, 0.000000000000000000, 0.000000000000000000 ) ;
#105 = PLANE ( 'NONE',  #69 ) ;
#106 = EDGE_CURVE ( 'NONE', #297, #231, #81, .T. ) ;
#107 = COLOUR_RGB ( '',1.000000000000000000, 0.000000000000000000, 0.000000000000000000 ) ;
#108 = SURFACE_STYLE_FILL_AREA ( #261 ) ;
#109 = ORIENTED_EDGE ( 'NONE', *, *, #223, .F. ) ;
#110 = AXIS2_PLACEMENT_3D ( 'NONE', #79, #146, #252 ) ;
#111 = VERTEX_POINT ( 'NONE', #221 ) ;
#112 = EDGE_LOOP ( 'NONE', ( #276, #89 ) ) ;
#113 =( CONVERSION_BASED_UNIT ( 'INCH', #240 ) LENGTH_UNIT ( ) NAMED_UNIT ( #58 ) );
#114 = DIRECTION ( 'NONE',  ( 1.836970198721030181E-16, 1.000000000000000000, -0.000000000000000000 ) ) ;
#115 = CARTESIAN_POINT ( 'NONE',  ( 0.3750000000000000555, 3.000000000000000444, 4.592425496802572986E-17 ) ) ;
#116 = DIRECTION ( 'NONE',  ( -1.000000000000000000, 0.000000000000000000, 0.000000000000000000 ) ) ;
#117 = VECTOR ( 'NONE', #225, 39.37007874015748143 ) ;
#118 = FACE_OUTER_BOUND ( 'NONE', #112, .T. ) ;
#119 = DIRECTION ( 'NONE',  ( 0.000000000000000000, 1.000000000000000000, 0.000000000000000000 ) ) ;
#120 = DIRECTION ( 'NONE',  ( -0.000000000000000000, -1.000000000000000000, -0.000000000000000000 ) ) ;
#121 = PLANE ( 'NONE',  #249 ) ;
#122 = CARTESIAN_POINT ( 'NONE',  ( 3.673940397442060361E-16, 3.000000000000000444, 0.000000000000000000 ) ) ;
#123 = EDGE_LOOP ( 'NONE', ( #308, #237, #130, #128 ) ) ;
#124 = AXIS2_PLACEMENT_3D ( 'NONE', #38, #88, #64 ) ;
#125 = PRESENTATION_LAYER_ASSIGNMENT (  '', '', ( #215 ) ) ;
#126 = DIMENSIONAL_EXPONENTS ( 1.000000000000000000, 0.000000000000000000, 0.000000000000000000, 0.000000000000000000, 0.000000000000000000, 0.000000000000000000, 0.000000000000000000 ) ;
#127 = LINE ( 'NONE', #291, #117 ) ;
#128 = ORIENTED_EDGE ( 'NONE', *, *, #3, .F. ) ;
#129 = DIRECTION ( 'NONE',  ( 0.000000000000000000, 0.000000000000000000, -1.000000000000000000 ) ) ;
#130 = ORIENTED_EDGE ( 'NONE', *, *, #29, .F. ) ;
#131 = EDGE_CURVE ( 'NONE', #205, #232, #127, .T. ) ;
#132 = DIRECTION ( 'NONE',  ( 1.000000000000000000, 0.000000000000000000, 0.000000000000000000 ) ) ;
#133 = UNCERTAINTY_MEASURE_WITH_UNIT (LENGTH_MEASURE( 1.000000000000000082E-05 ), #35, 'distance_accuracy_value', 'NONE');
#134 = ADVANCED_FACE ( 'NONE', ( #74 ), #9, .T. ) ;
#135 = SURFACE_SIDE_STYLE ('',( #71 ) ) ;
#136 = AXIS2_PLACEMENT_3D ( 'NONE', #201, #62, #129 ) ;
#137 =( GEOMETRIC_REPRESENTATION_CONTEXT ( 3 ) GLOBAL_UNCERTAINTY_ASSIGNED_CONTEXT ( ( #92 ) ) GLOBAL_UNIT_ASSIGNED_CONTEXT ( ( #80, #46, #244 ) ) REPRESENTATION_CONTEXT ( 'NONE', 'WORKASPACE' ) );
#138 = DIRECTION ( 'NONE',  ( 1.000000000000000000, -1.836970198721030181E-16, 0.000000000000000000 ) ) ;
#139 = CARTESIAN_POINT ( 'NONE',  ( 0.000000000000000000, 0.000000000000000000, 0.000000000000000000 ) ) ;
#140 = DIRECTION ( 'NONE',  ( -1.000000000000000000, 0.000000000000000000, 0.000000000000000000 ) ) ;
#141 = FILL_AREA_STYLE ('',( #247 ) ) ;
#142 = DIRECTION ( 'NONE',  ( 1.836970198721030181E-16, 1.000000000000000000, -0.000000000000000000 ) ) ;
#143 = CIRCLE ( 'NONE', #57, 0.3750000000000000555 ) ;
#144 = EDGE_CURVE ( 'NONE', #259, #297, #253, .T. ) ;
#145 = DIMENSIONAL_EXPONENTS ( 1.000000000000000000, 0.000000000000000000, 0.000000000000000000, 0.000000000000000000, 0.000000000000000000, 0.000000000000000000, 0.000000000000000000 ) ;
#146 = DIRECTION ( 'NONE',  ( -0.000000000000000000, -1.000000000000000000, -0.000000000000000000 ) ) ;
#147 = EDGE_LOOP ( 'NONE', ( #234, #272, #40, #204 ) ) ;
#148 = DIRECTION ( 'NONE',  ( -0.000000000000000000, -1.000000000000000000, -0.000000000000000000 ) ) ;
#149 =( NAMED_UNIT ( * ) PLANE_ANGLE_UNIT ( ) SI_UNIT ( $, .RADIAN. ) );
#150 = DIRECTION ( 'NONE',  ( -0.000000000000000000, -1.000000000000000000, -0.000000000000000000 ) ) ;
#151 = AXIS2_PLACEMENT_3D ( 'NONE', #177, #148, #37 ) ;
#152 = DIRECTION ( 'NONE',  ( 0.000000000000000000, 0.000000000000000000, -1.000000000000000000 ) ) ;
#153 = UNCERTAINTY_MEASURE_WITH_UNIT (LENGTH_MEASURE( 1.000000000000000082E-05 ), #277, 'distance_accuracy_value', 'NONE');
#154 = EDGE_CURVE ( 'NONE', #111, #259, #60, .T. ) ;
#155 = ORIENTED_EDGE ( 'NONE', *, *, #131, .F. ) ;
#156 = SURFACE_STYLE_USAGE ( .BOTH. , #198 ) ;
#157 = CARTESIAN_POINT ( 'NONE',  ( 0.000000000000000000, 1.000000000000000222, 0.000000000000000000 ) ) ;
#158 = PRESENTATION_LAYER_ASSIGNMENT (  '', '', ( #176 ) ) ;
#159 =( GEOMETRIC_REPRESENTATION_CONTEXT ( 3 ) GLOBAL_UNCERTAINTY_ASSIGNED_CONTEXT ( ( #303 ) ) GLOBAL_UNIT_ASSIGNED_CONTEXT ( ( #238, #212, #193 ) ) REPRESENTATION_CONTEXT ( 'NONE', 'WORKASPACE' ) );
#160 = DIRECTION ( 'NONE',  ( 0.000000000000000000, -1.000000000000000000, -0.000000000000000000 ) ) ;
#161 = FACE_OUTER_BOUND ( 'NONE', #305, .T. ) ;
#162 = CIRCLE ( 'NONE', #288, 0.3750000000000000555 ) ;
#163 = UNCERTAINTY_MEASURE_WITH_UNIT (LENGTH_MEASURE( 1.000000000000000082E-05 ), #230, 'distance_accuracy_value', 'NONE');
#164 = FILL_AREA_STYLE_COLOUR ( '', #107 ) ;
#165 = LENGTH_MEASURE_WITH_UNIT ( LENGTH_MEASURE( 0.02539999999999999897 ), #194 );
#166 = SURFACE_STYLE_USAGE ( .BOTH. , #66 ) ;
#167 = SURFACE_SIDE_STYLE ('',( #219 ) ) ;
#168 = CARTESIAN_POINT ( 'NONE',  ( 3.673940397442060361E-16, 3.000000000000000444, 0.000000000000000000 ) ) ;
#169 = MECHANICAL_DESIGN_GEOMETRIC_PRESENTATION_REPRESENTATION (  '', ( #76 ), #190 ) ;
#170 = AXIS2_PLACEMENT_3D ( 'NONE', #139, #292, #273 ) ;
#171 = CARTESIAN_POINT ( 'NONE',  ( 0.3750000000000000555, 3.000000000000000444, 0.000000000000000000 ) ) ;
#172 = FILL_AREA_STYLE_COLOUR ( '', #279 ) ;
#173 = CARTESIAN_POINT ( 'NONE',  ( 0.000000000000000000, 1.000000000000000222, 0.000000000000000000 ) ) ;
#174 = DIMENSIONAL_EXPONENTS ( 1.000000000000000000, 0.000000000000000000, 0.000000000000000000, 0.000000000000000000, 0.000000000000000000, 0.000000000000000000, 0.000000000000000000 ) ;
#175 = MANIFOLD_SOLID_BREP ( 'Revolve - Tool Body (Straight Shanked)', #101 ) ;
#176 = STYLED_ITEM ( 'NONE', ( #208 ), #70 ) ;
#177 = CARTESIAN_POINT ( 'NONE',  ( 0.000000000000000000, 0.000000000000000000, 0.000000000000000000 ) ) ;
#178 = APPLICATION_PROTOCOL_DEFINITION ( 'draft international standard', 'automotive_design', 1998, #269 ) ;
#179 = PRODUCT_DEFINITION_CONTEXT ( 'detailed design', #98, 'design' ) ;
#180 = CARTESIAN_POINT ( 'NONE',  ( 0.000000000000000000, 0.000000000000000000, 0.000000000000000000 ) ) ;
#181 = SURFACE_STYLE_FILL_AREA ( #306 ) ;
#182 = LENGTH_MEASURE_WITH_UNIT ( LENGTH_MEASURE( 0.02539999999999999897 ), #233 );
#183 = AXIS2_PLACEMENT_3D ( 'NONE', #122, #31, #116 ) ;
#184 = ORIENTED_EDGE ( 'NONE', *, *, #3, .T. ) ;
#185 = PLANE ( 'NONE',  #86 ) ;
#186 =( GEOMETRIC_REPRESENTATION_CONTEXT ( 3 ) GLOBAL_UNCERTAINTY_ASSIGNED_CONTEXT ( ( #133 ) ) GLOBAL_UNIT_ASSIGNED_CONTEXT ( ( #35, #30, #296 ) ) REPRESENTATION_CONTEXT ( 'NONE', 'WORKASPACE' ) );
#187 = EDGE_CURVE ( 'NONE', #231, #297, #97, .T. ) ;
#188 = SURFACE_STYLE_USAGE ( .BOTH. , #135 ) ;
#189 = DIRECTION ( 'NONE',  ( 1.836970198721030181E-16, 1.000000000000000000, -0.000000000000000000 ) ) ;
#190 =( GEOMETRIC_REPRESENTATION_CONTEXT ( 3 ) GLOBAL_UNCERTAINTY_ASSIGNED_CONTEXT ( ( #153 ) ) GLOBAL_UNIT_ASSIGNED_CONTEXT ( ( #277, #255, #85 ) ) REPRESENTATION_CONTEXT ( 'NONE', 'WORKASPACE' ) );
#191 = DIRECTION ( 'NONE',  ( -0.000000000000000000, -1.000000000000000000, -0.000000000000000000 ) ) ;
#192 =( LENGTH_UNIT ( ) NAMED_UNIT ( * ) SI_UNIT ( $, .METRE. ) );
#193 =( NAMED_UNIT ( * ) SI_UNIT ( $, .STERADIAN. ) SOLID_ANGLE_UNIT ( ) );
#194 =( LENGTH_UNIT ( ) NAMED_UNIT ( * ) SI_UNIT ( $, .METRE. ) );
#195 = DIRECTION ( 'NONE',  ( -1.000000000000000000, 0.000000000000000000, 0.000000000000000000 ) ) ;
#196 = DIMENSIONAL_EXPONENTS ( 1.000000000000000000, 0.000000000000000000, 0.000000000000000000, 0.000000000000000000, 0.000000000000000000, 0.000000000000000000, 0.000000000000000000 ) ;
#197 = PRESENTATION_LAYER_ASSIGNMENT (  '', '', ( #271 ) ) ;
#198 = SURFACE_SIDE_STYLE ('',( #181 ) ) ;
#199 = ORIENTED_EDGE ( 'NONE', *, *, #34, .T. ) ;
#200 = LINE ( 'NONE', #51, #14 ) ;
#201 = CARTESIAN_POINT ( 'NONE',  ( 0.000000000000000000, 1.000000000000000222, 0.000000000000000000 ) ) ;
#202 = COLOUR_RGB ( '',0.7921568627450980005, 0.8196078431372548767, 0.9333333333333333481 ) ;
#203 = DIRECTION ( 'NONE',  ( -0.000000000000000000, -1.000000000000000000, -0.000000000000000000 ) ) ;
#204 = ORIENTED_EDGE ( 'NONE', *, *, #106, .F. ) ;
#205 = VERTEX_POINT ( 'NONE', #75 ) ;
#206 = DIRECTION ( 'NONE',  ( 0.000000000000000000, 0.000000000000000000, 1.000000000000000000 ) ) ;
#207 = SURFACE_SIDE_STYLE ('',( #108 ) ) ;
#208 = PRESENTATION_STYLE_ASSIGNMENT (( #166 ) ) ;
#209 = COLOUR_RGB ( '',1.000000000000000000, 0.000000000000000000, 0.000000000000000000 ) ;
#210 = ADVANCED_FACE ( 'NONE', ( #52 ), #50, .T. ) ;
#211 = FILL_AREA_STYLE ('',( #287 ) ) ;
#212 =( NAMED_UNIT ( * ) PLANE_ANGLE_UNIT ( ) SI_UNIT ( $, .RADIAN. ) );
#213 = PRODUCT ( '05697', '05697', '', ( #280 ) ) ;
#214 = CARTESIAN_POINT ( 'NONE',  ( 4.592425496802575451E-17, 0.000000000000000000, 0.3750000000000000555 ) ) ;
#215 = STYLED_ITEM ( 'NONE', ( #84 ), #175 ) ;
#216 = STYLED_ITEM ( 'NONE', ( #21 ), #73 ) ;
#217 = SURFACE_STYLE_FILL_AREA ( #211 ) ;
#218 = CARTESIAN_POINT ( 'NONE',  ( 4.592425496802575451E-17, 1.000000000000000222, 0.3750000000000000555 ) ) ;
#219 = SURFACE_STYLE_FILL_AREA ( #54 ) ;
#220 = DIRECTION ( 'NONE',  ( 0.000000000000000000, 0.000000000000000000, -1.000000000000000000 ) ) ;
#221 = CARTESIAN_POINT ( 'NONE',  ( 0.000000000000000000, 1.000000000000000222, -0.3750000000000000555 ) ) ;
#222 = CARTESIAN_POINT ( 'NONE',  ( 0.000000000000000000, 1.000000000000000222, 0.000000000000000000 ) ) ;
#223 = EDGE_CURVE ( 'NONE', #111, #231, #270, .T. ) ;
#224 = DIRECTION ( 'NONE',  ( -1.836970198721030181E-16, -1.000000000000000000, 0.000000000000000000 ) ) ;
#225 = DIRECTION ( 'NONE',  ( 1.836970198721030181E-16, 1.000000000000000000, -0.000000000000000000 ) ) ;
#226 = EDGE_LOOP ( 'NONE', ( #260, #239, #87, #109 ) ) ;
#227 = PRESENTATION_LAYER_ASSIGNMENT (  '', '', ( #76 ) ) ;
#228 = FILL_AREA_STYLE_COLOUR ( '', #242 ) ;
#229 = PRODUCT_DEFINITION ( 'UNKNOWN', '', #61, #179 ) ;
#230 =( CONVERSION_BASED_UNIT ( 'INCH', #182 ) LENGTH_UNIT ( ) NAMED_UNIT ( #104 ) );
#231 = VERTEX_POINT ( 'NONE', #78 ) ;
#232 = VERTEX_POINT ( 'NONE', #115 ) ;
#233 =( LENGTH_UNIT ( ) NAMED_UNIT ( * ) SI_UNIT ( $, .METRE. ) );
#234 = ORIENTED_EDGE ( 'NONE', *, *, #144, .F. ) ;
#235 =( NAMED_UNIT ( * ) SI_UNIT ( $, .STERADIAN. ) SOLID_ANGLE_UNIT ( ) );
#236 = FILL_AREA_STYLE_COLOUR ( '', #300 ) ;
#237 = ORIENTED_EDGE ( 'NONE', *, *, #131, .T. ) ;
#238 =( CONVERSION_BASED_UNIT ( 'INCH', #65 ) LENGTH_UNIT ( ) NAMED_UNIT ( #196 ) );
#239 = ORIENTED_EDGE ( 'NONE', *, *, #144, .T. ) ;
#240 = LENGTH_MEASURE_WITH_UNIT ( LENGTH_MEASURE( 0.02539999999999999897 ), #266 );
#241 = ADVANCED_FACE ( 'NONE', ( #118 ), #294, .F. ) ;
#242 = COLOUR_RGB ( '',0.7921568627450980005, 0.8196078431372548767, 0.9333333333333333481 ) ;
#243 =( NAMED_UNIT ( * ) SI_UNIT ( $, .STERADIAN. ) SOLID_ANGLE_UNIT ( ) );
#244 =( NAMED_UNIT ( * ) SI_UNIT ( $, .STERADIAN. ) SOLID_ANGLE_UNIT ( ) );
#245 = STYLED_ITEM ( 'NONE', ( #12 ), #91 ) ;
#246 = FACE_OUTER_BOUND ( 'NONE', #282, .T. ) ;
#247 = FILL_AREA_STYLE_COLOUR ( '', #209 ) ;
#248 = ADVANCED_FACE ( 'NONE', ( #246 ), #102, .T. ) ;
#249 = AXIS2_PLACEMENT_3D ( 'NONE', #171, #224, #138 ) ;
#250 = SURFACE_STYLE_USAGE ( .BOTH. , #32 ) ;
#251 = DIMENSIONAL_EXPONENTS ( 1.000000000000000000, 0.000000000000000000, 0.000000000000000000, 0.000000000000000000, 0.000000000000000000, 0.000000000000000000, 0.000000000000000000 ) ;
#252 = DIRECTION ( 'NONE',  ( 0.000000000000000000, 0.000000000000000000, -1.000000000000000000 ) ) ;
#253 = LINE ( 'NONE', #82, #23 ) ;
#254 =( GEOMETRIC_REPRESENTATION_CONTEXT ( 3 ) GLOBAL_UNCERTAINTY_ASSIGNED_CONTEXT ( ( #163 ) ) GLOBAL_UNIT_ASSIGNED_CONTEXT ( ( #230, #149, #235 ) ) REPRESENTATION_CONTEXT ( 'NONE', 'WORKASPACE' ) );
#255 =( NAMED_UNIT ( * ) PLANE_ANGLE_UNIT ( ) SI_UNIT ( $, .RADIAN. ) );
#256 = AXIS2_PLACEMENT_3D ( 'NONE', #168, #268, #140 ) ;
#257 = ORIENTED_EDGE ( 'NONE', *, *, #274, .F. ) ;
#258 = CARTESIAN_POINT ( 'NONE',  ( -0.3749999999999993339, 3.000000000000000444, 0.000000000000000000 ) ) ;
#259 = VERTEX_POINT ( 'NONE', #218 ) ;
#260 = ORIENTED_EDGE ( 'NONE', *, *, #154, .T. ) ;
#261 = FILL_AREA_STYLE ('',( #236 ) ) ;
#262 = EDGE_CURVE ( 'NONE', #259, #111, #143, .T. ) ;
#263 = PRESENTATION_LAYER_ASSIGNMENT (  '', '', ( #216 ) ) ;
#264 = DIRECTION ( 'NONE',  ( 0.000000000000000000, 0.000000000000000000, -1.000000000000000000 ) ) ;
#265 = FACE_OUTER_BOUND ( 'NONE', #17, .T. ) ;
#266 =( LENGTH_UNIT ( ) NAMED_UNIT ( * ) SI_UNIT ( $, .METRE. ) );
#267 = VERTEX_POINT ( 'NONE', #289 ) ;
#268 = DIRECTION ( 'NONE',  ( 1.836970198721030181E-16, 1.000000000000000000, -0.000000000000000000 ) ) ;
#269 = APPLICATION_CONTEXT ( 'automotive_design' ) ;
#270 = LINE ( 'NONE', #94, #301 ) ;
#271 = STYLED_ITEM ( 'NONE', ( #59 ), #26 ) ;
#272 = ORIENTED_EDGE ( 'NONE', *, *, #262, .T. ) ;
#273 = DIRECTION ( 'NONE',  ( 0.000000000000000000, 0.000000000000000000, -1.000000000000000000 ) ) ;
#274 = EDGE_CURVE ( 'NONE', #232, #22, #15, .T. ) ;
#275 = AXIS2_PLACEMENT_3D ( 'NONE', #180, #203, #152 ) ;
#276 = ORIENTED_EDGE ( 'NONE', *, *, #299, .F. ) ;
#277 =( CONVERSION_BASED_UNIT ( 'INCH', #302 ) LENGTH_UNIT ( ) NAMED_UNIT ( #174 ) );
#278 = ORIENTED_EDGE ( 'NONE', *, *, #187, .T. ) ;
#279 = COLOUR_RGB ( '',1.000000000000000000, 0.000000000000000000, 0.000000000000000000 ) ;
#280 = PRODUCT_CONTEXT ( 'NONE', #269, 'mechanical' ) ;
#281 = ORIENTED_EDGE ( 'NONE', *, *, #106, .T. ) ;
#282 = EDGE_LOOP ( 'NONE', ( #155, #199, #184, #257 ) ) ;
#283 = CARTESIAN_POINT ( 'NONE',  ( 0.000000000000000000, 0.000000000000000000, 0.000000000000000000 ) ) ;
#284 = PRODUCT_RELATED_PRODUCT_CATEGORY ( 'part', '', ( #213 ) ) ;
#285 =( NAMED_UNIT ( * ) PLANE_ANGLE_UNIT ( ) SI_UNIT ( $, .RADIAN. ) );
#286 = LENGTH_MEASURE_WITH_UNIT ( LENGTH_MEASURE( 0.02539999999999999897 ), #48 );
#287 = FILL_AREA_STYLE_COLOUR ( '', #202 ) ;
#288 = AXIS2_PLACEMENT_3D ( 'NONE', #157, #114, #68 ) ;
#289 = CARTESIAN_POINT ( 'NONE',  ( -0.3750000000000000555, 1.000000000000000444, 0.000000000000000000 ) ) ;
#290 = CARTESIAN_POINT ( 'NONE',  ( 0.000000000000000000, 1.000000000000000222, 0.000000000000000000 ) ) ;
#291 = CARTESIAN_POINT ( 'NONE',  ( 0.3750000000000001665, 3.000000000000000444, 4.592425496802572370E-17 ) ) ;
#292 = DIRECTION ( 'NONE',  ( -0.000000000000000000, -1.000000000000000000, -0.000000000000000000 ) ) ;
#293 = PRODUCT_DEFINITION_SHAPE ( 'NONE', 'NONE',  #229 ) ;
#294 = PLANE ( 'NONE',  #77 ) ;
#295 = DIRECTION ( 'NONE',  ( 0.000000000000000000, -0.000000000000000000, 1.000000000000000000 ) ) ;
#296 =( NAMED_UNIT ( * ) SI_UNIT ( $, .STERADIAN. ) SOLID_ANGLE_UNIT ( ) );
#297 = VERTEX_POINT ( 'NONE', #214 ) ;
#298 = FACE_OUTER_BOUND ( 'NONE', #103, .T. ) ;
#299 = EDGE_CURVE ( 'NONE', #267, #205, #24, .T. ) ;
#300 = COLOUR_RGB ( '',1.000000000000000000, 0.000000000000000000, 0.000000000000000000 ) ;
#301 = VECTOR ( 'NONE', #191, 39.37007874015748143 ) ;
#302 = LENGTH_MEASURE_WITH_UNIT ( LENGTH_MEASURE( 0.02539999999999999897 ), #304 );
#303 = UNCERTAINTY_MEASURE_WITH_UNIT (LENGTH_MEASURE( 1.000000000000000082E-05 ), #238, 'distance_accuracy_value', 'NONE');
#304 =( LENGTH_UNIT ( ) NAMED_UNIT ( * ) SI_UNIT ( $, .METRE. ) );
#305 = EDGE_LOOP ( 'NONE', ( #278, #281 ) ) ;
#306 = FILL_AREA_STYLE ('',( #228 ) ) ;
#307 =( GEOMETRIC_REPRESENTATION_CONTEXT ( 3 ) GLOBAL_UNCERTAINTY_ASSIGNED_CONTEXT ( ( #13 ) ) GLOBAL_UNIT_ASSIGNED_CONTEXT ( ( #113, #8, #25 ) ) REPRESENTATION_CONTEXT ( 'NONE', 'WORKASPACE' ) );
#308 = ORIENTED_EDGE ( 'NONE', *, *, #299, .T. ) ;
#309 = APPLICATION_PROTOCOL_DEFINITION ( 'draft international standard', 'automotive_design', 1998, #98 ) ;
ENDSEC;
END-ISO-10303-21;
