ISO-10303-21;
HEADER;
FILE_DESCRIPTION (( 'STEP AP214' ),
    '1' );
FILE_NAME ('Micro_GEM-312-2.STEP',
    '2021-09-01T20:29:21',
    ( '' ),
    ( '' ),
    'SwSTEP 2.0',
    'SolidWorks 2020',
    '' );
FILE_SCHEMA (( 'AUTOMOTIVE_DESIGN' ));
ENDSEC;

DATA;
#1 = DIRECTION ( 'NONE',  ( 1.000000000000000000, 0.0000000000000000000, 0.0000000000000000000 ) ) ;
#2 = DIRECTION ( 'NONE',  ( -0.0000000000000000000, -0.0000000000000000000, -1.000000000000000000 ) ) ;
#3 = DIRECTION ( 'NONE',  ( 0.0000000000000000000, 0.0000000000000000000, -1.000000000000000000 ) ) ;
#4 = ADVANCED_FACE ( 'NONE', ( #221 ), #81, .T. ) ;
#5 = CARTESIAN_POINT ( 'NONE',  ( 0.1562500000000001110, 1.913510623667740388E-17, 0.8138861377843152889 ) ) ;
#6 = CIRCLE ( 'NONE', #210, 0.1562500000000000000 ) ;
#7 = DIRECTION ( 'NONE',  ( -0.1736481776669311916, 2.126576849575783316E-17, 0.9848077530122080203 ) ) ;
#8 = PRESENTATION_STYLE_ASSIGNMENT (( #35 ) ) ;
#9 =( NAMED_UNIT ( * ) SI_UNIT ( $, .STERADIAN. ) SOLID_ANGLE_UNIT ( ) );
#10 = CIRCLE ( 'NONE', #113, 0.1412499999999994871 ) ;
#11 = DIRECTION ( 'NONE',  ( 0.0000000000000000000, 0.0000000000000000000, 1.000000000000000000 ) ) ;
#12 = ORIENTED_EDGE ( 'NONE', *, *, #252, .F. ) ;
#13 = VERTEX_POINT ( 'NONE', #202 ) ;
#14 = VECTOR ( 'NONE', #120, 39.37007874015748143 ) ;
#15 = EDGE_CURVE ( 'NONE', #155, #64, #65, .T. ) ;
#16 = ORIENTED_EDGE ( 'NONE', *, *, #108, .F. ) ;
#17 = ORIENTED_EDGE ( 'NONE', *, *, #286, .T. ) ;
#18 = ORIENTED_EDGE ( 'NONE', *, *, #148, .T. ) ;
#19 = ADVANCED_FACE ( 'NONE', ( #283 ), #61, .T. ) ;
#20 = DIRECTION ( 'NONE',  ( 1.000000000000000000, 0.0000000000000000000, 0.0000000000000000000 ) ) ;
#21 = EDGE_CURVE ( 'NONE', #130, #155, #253, .T. ) ;
#22 = CARTESIAN_POINT ( 'NONE',  ( -0.1560937499999999756, 0.0000000000000000000, 1.911597113044071690E-17 ) ) ;
#23 = EDGE_CURVE ( 'NONE', #13, #176, #232, .T. ) ;
#24 = COLOUR_RGB ( '',0.7921568627450980005, 0.8196078431372548767, 0.9333333333333333481 ) ;
#25 = DIRECTION ( 'NONE',  ( -1.224646799147353207E-16, -0.0000000000000000000, -1.000000000000000000 ) ) ;
#26 = DIRECTION ( 'NONE',  ( -1.000000000000000000, 0.0000000000000000000, 0.0000000000000000000 ) ) ;
#27 = DIRECTION ( 'NONE',  ( 1.000000000000000000, 0.0000000000000000000, -0.0000000000000000000 ) ) ;
#28 = PRODUCT_CONTEXT ( 'NONE', #105, 'mechanical' ) ;
#29 = CARTESIAN_POINT ( 'NONE',  ( 0.0000000000000000000, 0.0000000000000000000, 2.500000000000000000 ) ) ;
#30 = APPLICATION_CONTEXT ( 'automotive_design' ) ;
#31 =( CONVERSION_BASED_UNIT ( 'INCH', #98 ) LENGTH_UNIT ( ) NAMED_UNIT ( #141 ) );
#32 = AXIS2_PLACEMENT_3D ( 'NONE', #44, #11, #36 ) ;
#33 = FILL_AREA_STYLE_COLOUR ( '', #24 ) ;
#34 = DIRECTION ( 'NONE',  ( 0.0000000000000000000, 0.0000000000000000000, 1.000000000000000000 ) ) ;
#35 = SURFACE_STYLE_USAGE ( .BOTH. , #197 ) ;
#36 = DIRECTION ( 'NONE',  ( 1.000000000000000000, 0.0000000000000000000, -0.0000000000000000000 ) ) ;
#37 = COLOUR_RGB ( '',0.7921568627450980005, 0.8196078431372548767, 0.9333333333333333481 ) ;
#38 = FACE_OUTER_BOUND ( 'NONE', #111, .T. ) ;
#39 = EDGE_CURVE ( 'NONE', #250, #200, #228, .T. ) ;
#40 = ORIENTED_EDGE ( 'NONE', *, *, #67, .F. ) ;
#41 = ORIENTED_EDGE ( 'NONE', *, *, #23, .F. ) ;
#42 = CIRCLE ( 'NONE', #298, 0.1562500000000000000 ) ;
#43 = EDGE_CURVE ( 'NONE', #13, #130, #215, .T. ) ;
#44 = CARTESIAN_POINT ( 'NONE',  ( 0.0000000000000000000, 0.0000000000000000000, 0.0000000000000000000 ) ) ;
#45 = EDGE_LOOP ( 'NONE', ( #294, #82, #226, #16 ) ) ;
#46 = EDGE_CURVE ( 'NONE', #66, #176, #259, .T. ) ;
#47 = ORIENTED_EDGE ( 'NONE', *, *, #84, .F. ) ;
#48 = ORIENTED_EDGE ( 'NONE', *, *, #15, .T. ) ;
#49 = PRESENTATION_LAYER_ASSIGNMENT (  '', '', ( #220 ) ) ;
#50 = FACE_OUTER_BOUND ( 'NONE', #45, .T. ) ;
#51 = CARTESIAN_POINT ( 'NONE',  ( 0.1562500000000000000, 1.913510623667739463E-17, 2.500000000000000000 ) ) ;
#52 = EDGE_CURVE ( 'NONE', #292, #66, #42, .T. ) ;
#53 = CARTESIAN_POINT ( 'NONE',  ( 0.0000000000000000000, 0.0000000000000000000, 2.484999999999999432 ) ) ;
#54 = FILL_AREA_STYLE_COLOUR ( '', #37 ) ;
#55 = DIRECTION ( 'NONE',  ( 0.1736481776669313859, 0.0000000000000000000, 0.9848077530122077983 ) ) ;
#56 = CARTESIAN_POINT ( 'NONE',  ( 9.967230535079632947E-17, 0.0000000000000000000, 0.8138861377843152889 ) ) ;
#57 = AXIS2_PLACEMENT_3D ( 'NONE', #234, #258, #117 ) ;
#58 = PRESENTATION_STYLE_ASSIGNMENT (( #152 ) ) ;
#59 = ADVANCED_BREP_SHAPE_REPRESENTATION ( 'Micro_GEM-312-2', ( #199, #216 ), #284 ) ;
#60 = PRODUCT_DEFINITION_CONTEXT ( 'detailed design', #30, 'design' ) ;
#61 = CONICAL_SURFACE ( 'NONE', #247, 0.1560937499999999756, 0.1745329251994338915 ) ;
#62 = ORIENTED_EDGE ( 'NONE', *, *, #278, .T. ) ;
#63 = DIRECTION ( 'NONE',  ( 0.0000000000000000000, 0.0000000000000000000, -1.000000000000000000 ) ) ;
#64 = VERTEX_POINT ( 'NONE', #281 ) ;
#65 = CIRCLE ( 'NONE', #233, 0.1560937499999999756 ) ;
#66 = VERTEX_POINT ( 'NONE', #70 ) ;
#67 = EDGE_CURVE ( 'NONE', #200, #66, #94, .T. ) ;
#68 = CARTESIAN_POINT ( 'NONE',  ( 0.0000000000000000000, 0.0000000000000000000, 2.500000000000000000 ) ) ;
#69 = VECTOR ( 'NONE', #255, 39.37007874015748143 ) ;
#70 = CARTESIAN_POINT ( 'NONE',  ( 0.1562500000000000000, 1.913510623667739463E-17, 2.484999999999999432 ) ) ;
#71 = CARTESIAN_POINT ( 'NONE',  ( 0.0000000000000000000, 0.0000000000000000000, 2.484999999999999432 ) ) ;
#72 = CARTESIAN_POINT ( 'NONE',  ( 0.0000000000000000000, 0.0000000000000000000, 2.500000000000000000 ) ) ;
#73 = CARTESIAN_POINT ( 'NONE',  ( -0.1412499999999994871, 0.0000000000000000000, 2.500000000000000000 ) ) ;
#74 = AXIS2_PLACEMENT_3D ( 'NONE', #116, #211, #27 ) ;
#75 = CARTESIAN_POINT ( 'NONE',  ( -0.1562499999999999167, 0.0000000000000000000, 0.8138861377843152889 ) ) ;
#76 = DIRECTION ( 'NONE',  ( -0.0000000000000000000, -0.0000000000000000000, -1.000000000000000000 ) ) ;
#77 = EDGE_CURVE ( 'NONE', #64, #155, #204, .T. ) ;
#78 = CYLINDRICAL_SURFACE ( 'NONE', #244, 0.1560937499999999756 ) ;
#79 = SURFACE_STYLE_FILL_AREA ( #218 ) ;
#80 =( CONVERSION_BASED_UNIT ( 'INCH', #268 ) LENGTH_UNIT ( ) NAMED_UNIT ( #183 ) );
#81 = CONICAL_SURFACE ( 'NONE', #101, 0.1412499999999994871, 0.7853981633974391752 ) ;
#82 = ORIENTED_EDGE ( 'NONE', *, *, #46, .T. ) ;
#83 = EDGE_LOOP ( 'NONE', ( #40, #275, #136, #293 ) ) ;
#84 = EDGE_CURVE ( 'NONE', #250, #292, #207, .T. ) ;
#85 = CARTESIAN_POINT ( 'NONE',  ( 2.341031285748743514E-33, 0.0000000000000000000, 1.911597113044071690E-17 ) ) ;
#86 = ORIENTED_EDGE ( 'NONE', *, *, #108, .T. ) ;
#87 = MECHANICAL_DESIGN_GEOMETRIC_PRESENTATION_REPRESENTATION (  '', ( #220 ), #267 ) ;
#88 = ORIENTED_EDGE ( 'NONE', *, *, #52, .F. ) ;
#89 =( LENGTH_UNIT ( ) NAMED_UNIT ( * ) SI_UNIT ( $, .METRE. ) );
#90 = CARTESIAN_POINT ( 'NONE',  ( -0.1560937499999999756, 0.0000000000000000000, 3.823194226088143379E-17 ) ) ;
#91 = DIRECTION ( 'NONE',  ( -1.224646799147353207E-16, -0.0000000000000000000, -1.000000000000000000 ) ) ;
#92 = CLOSED_SHELL ( 'NONE', ( #208, #19, #137, #160, #251, #93, #4, #145, #257, #271 ) ) ;
#93 = ADVANCED_FACE ( 'NONE', ( #237 ), #295, .T. ) ;
#94 = LINE ( 'NONE', #206, #170 ) ;
#95 = DIRECTION ( 'NONE',  ( -1.000000000000000000, 0.0000000000000000000, 0.0000000000000000000 ) ) ;
#96 = DIRECTION ( 'NONE',  ( -1.000000000000000000, 0.0000000000000000000, 1.224646799147353454E-16 ) ) ;
#97 = DIRECTION ( 'NONE',  ( -1.000000000000000000, 0.0000000000000000000, 1.224646799147353454E-16 ) ) ;
#98 = LENGTH_MEASURE_WITH_UNIT ( LENGTH_MEASURE( 0.02539999999999999897 ), #124 );
#99 = UNCERTAINTY_MEASURE_WITH_UNIT (LENGTH_MEASURE( 1.000000000000000082E-05 ), #80, 'distance_accuracy_value', 'NONE');
#100 =( LENGTH_UNIT ( ) NAMED_UNIT ( * ) SI_UNIT ( $, .METRE. ) );
#101 = AXIS2_PLACEMENT_3D ( 'NONE', #274, #63, #109 ) ;
#102 = AXIS2_PLACEMENT_3D ( 'NONE', #186, #188, #97 ) ;
#103 = CARTESIAN_POINT ( 'NONE',  ( 9.956378477067980482E-17, 0.0000000000000000000, 0.8129999999999999449 ) ) ;
#104 = EDGE_CURVE ( 'NONE', #66, #292, #280, .T. ) ;
#105 = APPLICATION_CONTEXT ( 'automotive_design' ) ;
#106 = ORIENTED_EDGE ( 'NONE', *, *, #77, .T. ) ;
#107 = ORIENTED_EDGE ( 'NONE', *, *, #43, .T. ) ;
#108 = EDGE_CURVE ( 'NONE', #292, #138, #118, .T. ) ;
#109 = DIRECTION ( 'NONE',  ( -1.000000000000000000, 0.0000000000000000000, 0.0000000000000000000 ) ) ;
#110 = ORIENTED_EDGE ( 'NONE', *, *, #189, .T. ) ;
#111 = EDGE_LOOP ( 'NONE', ( #48, #106 ) ) ;
#112 = VECTOR ( 'NONE', #55, 39.37007874015748143 ) ;
#113 = AXIS2_PLACEMENT_3D ( 'NONE', #212, #139, #181 ) ;
#114 = DIRECTION ( 'NONE',  ( -1.000000000000000000, 0.0000000000000000000, 1.224646799147353454E-16 ) ) ;
#115 = SURFACE_STYLE_FILL_AREA ( #214 ) ;
#116 = CARTESIAN_POINT ( 'NONE',  ( 0.0000000000000000000, 0.0000000000000000000, 2.500000000000000000 ) ) ;
#117 = DIRECTION ( 'NONE',  ( -1.000000000000000000, 0.0000000000000000000, 0.0000000000000000000 ) ) ;
#118 = LINE ( 'NONE', #119, #151 ) ;
#119 = CARTESIAN_POINT ( 'NONE',  ( -0.1562500000000000000, 0.0000000000000000000, 2.500000000000000000 ) ) ;
#120 = DIRECTION ( 'NONE',  ( -1.224646799147353207E-16, -0.0000000000000000000, -1.000000000000000000 ) ) ;
#121 = LINE ( 'NONE', #217, #242 ) ;
#122 = CARTESIAN_POINT ( 'NONE',  ( 0.0000000000000000000, 0.0000000000000000000, 0.0000000000000000000 ) ) ;
#123 = SHAPE_DEFINITION_REPRESENTATION ( #153, #59 ) ;
#124 =( LENGTH_UNIT ( ) NAMED_UNIT ( * ) SI_UNIT ( $, .METRE. ) );
#125 =( NAMED_UNIT ( * ) PLANE_ANGLE_UNIT ( ) SI_UNIT ( $, .RADIAN. ) );
#126 = CARTESIAN_POINT ( 'NONE',  ( 0.0000000000000000000, 0.0000000000000000000, 0.0000000000000000000 ) ) ;
#127 = PRODUCT_DEFINITION ( 'UNKNOWN', '', #132, #60 ) ;
#128 = DIRECTION ( 'NONE',  ( 1.000000000000000000, 0.0000000000000000000, 0.0000000000000000000 ) ) ;
#129 = CONICAL_SURFACE ( 'NONE', #270, 0.1412499999999994871, 0.7853981633974391752 ) ;
#130 = VERTEX_POINT ( 'NONE', #213 ) ;
#131 = VECTOR ( 'NONE', #282, 39.37007874015748143 ) ;
#132 = PRODUCT_DEFINITION_FORMATION_WITH_SPECIFIED_SOURCE ( 'ANY', '', #222, .NOT_KNOWN. ) ;
#133 = ORIENTED_EDGE ( 'NONE', *, *, #43, .F. ) ;
#134 = CARTESIAN_POINT ( 'NONE',  ( 9.967230535079632947E-17, 0.0000000000000000000, 0.8138861377843152889 ) ) ;
#135 = ORIENTED_EDGE ( 'NONE', *, *, #289, .F. ) ;
#136 = ORIENTED_EDGE ( 'NONE', *, *, #84, .T. ) ;
#137 = ADVANCED_FACE ( 'NONE', ( #231 ), #129, .T. ) ;
#138 = VERTEX_POINT ( 'NONE', #75 ) ;
#139 = DIRECTION ( 'NONE',  ( 0.0000000000000000000, 0.0000000000000000000, 1.000000000000000000 ) ) ;
#140 = AXIS2_PLACEMENT_3D ( 'NONE', #122, #287, #96 ) ;
#141 = DIMENSIONAL_EXPONENTS ( 1.000000000000000000, 0.0000000000000000000, 0.0000000000000000000, 0.0000000000000000000, 0.0000000000000000000, 0.0000000000000000000, 0.0000000000000000000 ) ;
#142 = CYLINDRICAL_SURFACE ( 'NONE', #223, 0.1562500000000000000 ) ;
#143 = DIRECTION ( 'NONE',  ( 1.000000000000000000, 0.0000000000000000000, 0.0000000000000000000 ) ) ;
#144 = CARTESIAN_POINT ( 'NONE',  ( 9.956378477067980482E-17, 0.0000000000000000000, 0.8129999999999999449 ) ) ;
#145 = ADVANCED_FACE ( 'NONE', ( #164 ), #235, .T. ) ;
#146 = DIRECTION ( 'NONE',  ( -0.7071067811865410224, 0.0000000000000000000, -0.7071067811865539010 ) ) ;
#147 = FACE_OUTER_BOUND ( 'NONE', #159, .T. ) ;
#148 = EDGE_CURVE ( 'NONE', #138, #176, #167, .T. ) ;
#149 = DIRECTION ( 'NONE',  ( -1.000000000000000000, 0.0000000000000000000, 0.0000000000000000000 ) ) ;
#150 = CARTESIAN_POINT ( 'NONE',  ( 0.1412499999999994871, 1.821662113731684786E-17, 2.500000000000000000 ) ) ;
#151 = VECTOR ( 'NONE', #2, 39.37007874015748143 ) ;
#152 = SURFACE_STYLE_USAGE ( .BOTH. , #243 ) ;
#153 = PRODUCT_DEFINITION_SHAPE ( 'NONE', 'NONE',  #127 ) ;
#154 = STYLED_ITEM ( 'NONE', ( #58 ), #199 ) ;
#155 = VERTEX_POINT ( 'NONE', #90 ) ;
#156 = ORIENTED_EDGE ( 'NONE', *, *, #77, .F. ) ;
#157 = AXIS2_PLACEMENT_3D ( 'NONE', #144, #261, #143 ) ;
#158 = ORIENTED_EDGE ( 'NONE', *, *, #67, .T. ) ;
#159 = EDGE_LOOP ( 'NONE', ( #17, #110, #291, #277 ) ) ;
#160 = ADVANCED_FACE ( 'NONE', ( #50 ), #142, .T. ) ;
#161 = DIMENSIONAL_EXPONENTS ( 1.000000000000000000, 0.0000000000000000000, 0.0000000000000000000, 0.0000000000000000000, 0.0000000000000000000, 0.0000000000000000000, 0.0000000000000000000 ) ;
#162 = DIRECTION ( 'NONE',  ( 0.0000000000000000000, 0.0000000000000000000, -1.000000000000000000 ) ) ;
#163 = MECHANICAL_DESIGN_GEOMETRIC_PRESENTATION_REPRESENTATION (  '', ( #154 ), #229 ) ;
#164 = FACE_OUTER_BOUND ( 'NONE', #227, .T. ) ;
#165 = DIRECTION ( 'NONE',  ( 0.0000000000000000000, 0.0000000000000000000, -1.000000000000000000 ) ) ;
#166 = CARTESIAN_POINT ( 'NONE',  ( 9.956378477067980482E-17, 0.0000000000000000000, 0.8129999999999999449 ) ) ;
#167 = CIRCLE ( 'NONE', #299, 0.1562500000000000000 ) ;
#168 = DIRECTION ( 'NONE',  ( 0.7071067811865410224, 8.659560562354852739E-17, -0.7071067811865539010 ) ) ;
#169 = CARTESIAN_POINT ( 'NONE',  ( 0.0000000000000000000, 0.0000000000000000000, 0.0000000000000000000 ) ) ;
#170 = VECTOR ( 'NONE', #168, 39.37007874015748854 ) ;
#171 = UNCERTAINTY_MEASURE_WITH_UNIT (LENGTH_MEASURE( 1.000000000000000082E-05 ), #256, 'distance_accuracy_value', 'NONE');
#172 = AXIS2_PLACEMENT_3D ( 'NONE', #103, #236, #26 ) ;
#173 =( NAMED_UNIT ( * ) SI_UNIT ( $, .STERADIAN. ) SOLID_ANGLE_UNIT ( ) );
#174 = CIRCLE ( 'NONE', #172, 0.1560937499999999756 ) ;
#175 = EDGE_LOOP ( 'NONE', ( #248, #272, #86, #246 ) ) ;
#176 = VERTEX_POINT ( 'NONE', #5 ) ;
#177 = EDGE_LOOP ( 'NONE', ( #290, #203, #18, #41 ) ) ;
#178 = VECTOR ( 'NONE', #146, 39.37007874015748854 ) ;
#179 = EDGE_LOOP ( 'NONE', ( #205, #245 ) ) ;
#180 = ORIENTED_EDGE ( 'NONE', *, *, #23, .T. ) ;
#181 = DIRECTION ( 'NONE',  ( 1.000000000000000000, 0.0000000000000000000, 0.0000000000000000000 ) ) ;
#182 = DIRECTION ( 'NONE',  ( 0.0000000000000000000, 0.0000000000000000000, 1.000000000000000000 ) ) ;
#183 = DIMENSIONAL_EXPONENTS ( 1.000000000000000000, 0.0000000000000000000, 0.0000000000000000000, 0.0000000000000000000, 0.0000000000000000000, 0.0000000000000000000, 0.0000000000000000000 ) ;
#184 = DIRECTION ( 'NONE',  ( 1.224646799147353207E-16, 0.0000000000000000000, 1.000000000000000000 ) ) ;
#185 = AXIS2_PLACEMENT_3D ( 'NONE', #29, #76, #149 ) ;
#186 = CARTESIAN_POINT ( 'NONE',  ( 2.341031285748743514E-33, 0.0000000000000000000, 1.911597113044071690E-17 ) ) ;
#187 = DIRECTION ( 'NONE',  ( 1.000000000000000000, 0.0000000000000000000, 0.0000000000000000000 ) ) ;
#188 = DIRECTION ( 'NONE',  ( -1.224646799147353207E-16, -0.0000000000000000000, -1.000000000000000000 ) ) ;
#189 = EDGE_CURVE ( 'NONE', #13, #64, #241, .T. ) ;
#190 = AXIS2_PLACEMENT_3D ( 'NONE', #71, #162, #1 ) ;
#191 = FACE_OUTER_BOUND ( 'NONE', #175, .T. ) ;
#192 = DIRECTION ( 'NONE',  ( 1.000000000000000000, 0.0000000000000000000, 0.0000000000000000000 ) ) ;
#193 = FACE_OUTER_BOUND ( 'NONE', #201, .T. ) ;
#194 =( NAMED_UNIT ( * ) PLANE_ANGLE_UNIT ( ) SI_UNIT ( $, .RADIAN. ) );
#195 = CYLINDRICAL_SURFACE ( 'NONE', #140, 0.1560937499999999756 ) ;
#196 = PRESENTATION_LAYER_ASSIGNMENT (  '', '', ( #154 ) ) ;
#197 = SURFACE_SIDE_STYLE ('',( #115 ) ) ;
#198 = PLANE ( 'NONE',  #32 ) ;
#199 = MANIFOLD_SOLID_BREP ( 'Cut-Revolve1', #92 ) ;
#200 = VERTEX_POINT ( 'NONE', #150 ) ;
#201 = EDGE_LOOP ( 'NONE', ( #224, #107, #276, #156 ) ) ;
#202 = CARTESIAN_POINT ( 'NONE',  ( 0.1560937500000000866, 0.0000000000000000000, 0.8129999999999999449 ) ) ;
#203 = ORIENTED_EDGE ( 'NONE', *, *, #252, .T. ) ;
#204 = CIRCLE ( 'NONE', #102, 0.1560937499999999756 ) ;
#205 = ORIENTED_EDGE ( 'NONE', *, *, #39, .T. ) ;
#206 = CARTESIAN_POINT ( 'NONE',  ( 0.1412499999999994871, 1.729813603795630110E-17, 2.500000000000000000 ) ) ;
#207 = LINE ( 'NONE', #279, #178 ) ;
#208 = ADVANCED_FACE ( 'NONE', ( #147 ), #195, .T. ) ;
#209 = CARTESIAN_POINT ( 'NONE',  ( 0.1560937500000000866, 0.0000000000000000000, 0.8129999999999999449 ) ) ;
#210 = AXIS2_PLACEMENT_3D ( 'NONE', #134, #269, #128 ) ;
#211 = DIRECTION ( 'NONE',  ( 0.0000000000000000000, 0.0000000000000000000, 1.000000000000000000 ) ) ;
#212 = CARTESIAN_POINT ( 'NONE',  ( 0.0000000000000000000, 0.0000000000000000000, 2.500000000000000000 ) ) ;
#213 = CARTESIAN_POINT ( 'NONE',  ( -0.1560937499999998923, 1.912553868355905422E-17, 0.8129999999999999449 ) ) ;
#214 = FILL_AREA_STYLE ('',( #54 ) ) ;
#215 = CIRCLE ( 'NONE', #57, 0.1560937499999999756 ) ;
#216 = AXIS2_PLACEMENT_3D ( 'NONE', #126, #34, #192 ) ;
#217 = CARTESIAN_POINT ( 'NONE',  ( -0.1560937499999998923, 1.911597113044071690E-17, 0.8129999999999999449 ) ) ;
#218 = FILL_AREA_STYLE ('',( #33 ) ) ;
#219 = APPLICATION_PROTOCOL_DEFINITION ( 'draft international standard', 'automotive_design', 1998, #30 ) ;
#220 = STYLED_ITEM ( 'NONE', ( #8 ), #59 ) ;
#221 = FACE_OUTER_BOUND ( 'NONE', #83, .T. ) ;
#222 = PRODUCT ( 'Micro_GEM-312-2', 'Micro_GEM-312-2', '', ( #28 ) ) ;
#223 = AXIS2_PLACEMENT_3D ( 'NONE', #263, #239, #285 ) ;
#224 = ORIENTED_EDGE ( 'NONE', *, *, #189, .F. ) ;
#225 = PRODUCT_RELATED_PRODUCT_CATEGORY ( 'part', '', ( #222 ) ) ;
#226 = ORIENTED_EDGE ( 'NONE', *, *, #148, .F. ) ;
#227 = EDGE_LOOP ( 'NONE', ( #12, #133, #180, #62 ) ) ;
#228 = CIRCLE ( 'NONE', #266, 0.1412499999999994871 ) ;
#229 =( GEOMETRIC_REPRESENTATION_CONTEXT ( 3 ) GLOBAL_UNCERTAINTY_ASSIGNED_CONTEXT ( ( #288 ) ) GLOBAL_UNIT_ASSIGNED_CONTEXT ( ( #31, #194, #9 ) ) REPRESENTATION_CONTEXT ( 'NONE', 'WORKASPACE' ) );
#230 = DIRECTION ( 'NONE',  ( 1.000000000000000000, 0.0000000000000000000, 0.0000000000000000000 ) ) ;
#231 = FACE_OUTER_BOUND ( 'NONE', #249, .T. ) ;
#232 = LINE ( 'NONE', #209, #112 ) ;
#233 = AXIS2_PLACEMENT_3D ( 'NONE', #85, #91, #114 ) ;
#234 = CARTESIAN_POINT ( 'NONE',  ( 9.956378477067980482E-17, 0.0000000000000000000, 0.8129999999999999449 ) ) ;
#235 = CONICAL_SURFACE ( 'NONE', #157, 0.1560937499999999756, 0.1745329251994338915 ) ;
#236 = DIRECTION ( 'NONE',  ( -1.224646799147353207E-16, -0.0000000000000000000, -1.000000000000000000 ) ) ;
#237 = FACE_OUTER_BOUND ( 'NONE', #179, .T. ) ;
#238 =( NAMED_UNIT ( * ) SI_UNIT ( $, .STERADIAN. ) SOLID_ANGLE_UNIT ( ) );
#239 = DIRECTION ( 'NONE',  ( -0.0000000000000000000, -0.0000000000000000000, -1.000000000000000000 ) ) ;
#240 =( NAMED_UNIT ( * ) PLANE_ANGLE_UNIT ( ) SI_UNIT ( $, .RADIAN. ) );
#241 = LINE ( 'NONE', #265, #14 ) ;
#242 = VECTOR ( 'NONE', #7, 39.37007874015747433 ) ;
#243 = SURFACE_SIDE_STYLE ('',( #79 ) ) ;
#244 = AXIS2_PLACEMENT_3D ( 'NONE', #169, #264, #273 ) ;
#245 = ORIENTED_EDGE ( 'NONE', *, *, #289, .T. ) ;
#246 = ORIENTED_EDGE ( 'NONE', *, *, #278, .F. ) ;
#247 = AXIS2_PLACEMENT_3D ( 'NONE', #166, #184, #297 ) ;
#248 = ORIENTED_EDGE ( 'NONE', *, *, #46, .F. ) ;
#249 = EDGE_LOOP ( 'NONE', ( #135, #158, #88, #47 ) ) ;
#250 = VERTEX_POINT ( 'NONE', #73 ) ;
#251 = ADVANCED_FACE ( 'NONE', ( #191 ), #260, .T. ) ;
#252 = EDGE_CURVE ( 'NONE', #130, #138, #121, .T. ) ;
#253 = LINE ( 'NONE', #22, #69 ) ;
#254 = LENGTH_MEASURE_WITH_UNIT ( LENGTH_MEASURE( 0.02539999999999999897 ), #89 );
#255 = DIRECTION ( 'NONE',  ( -1.224646799147353207E-16, -0.0000000000000000000, -1.000000000000000000 ) ) ;
#256 =( CONVERSION_BASED_UNIT ( 'INCH', #254 ) LENGTH_UNIT ( ) NAMED_UNIT ( #161 ) );
#257 = ADVANCED_FACE ( 'NONE', ( #193 ), #78, .T. ) ;
#258 = DIRECTION ( 'NONE',  ( -1.224646799147353207E-16, -0.0000000000000000000, -1.000000000000000000 ) ) ;
#259 = LINE ( 'NONE', #51, #131 ) ;
#260 = CYLINDRICAL_SURFACE ( 'NONE', #185, 0.1562500000000000000 ) ;
#261 = DIRECTION ( 'NONE',  ( 1.224646799147353207E-16, 0.0000000000000000000, 1.000000000000000000 ) ) ;
#262 = APPLICATION_PROTOCOL_DEFINITION ( 'draft international standard', 'automotive_design', 1998, #105 ) ;
#263 = CARTESIAN_POINT ( 'NONE',  ( 0.0000000000000000000, 0.0000000000000000000, 2.500000000000000000 ) ) ;
#264 = DIRECTION ( 'NONE',  ( -1.224646799147353207E-16, -0.0000000000000000000, -1.000000000000000000 ) ) ;
#265 = CARTESIAN_POINT ( 'NONE',  ( 0.1560937499999999756, 1.911597113044071690E-17, -1.911597113044071690E-17 ) ) ;
#266 = AXIS2_PLACEMENT_3D ( 'NONE', #72, #182, #187 ) ;
#267 =( GEOMETRIC_REPRESENTATION_CONTEXT ( 3 ) GLOBAL_UNCERTAINTY_ASSIGNED_CONTEXT ( ( #99 ) ) GLOBAL_UNIT_ASSIGNED_CONTEXT ( ( #80, #125, #238 ) ) REPRESENTATION_CONTEXT ( 'NONE', 'WORKASPACE' ) );
#268 = LENGTH_MEASURE_WITH_UNIT ( LENGTH_MEASURE( 0.02539999999999999897 ), #100 );
#269 = DIRECTION ( 'NONE',  ( -1.224646799147353207E-16, -0.0000000000000000000, -1.000000000000000000 ) ) ;
#270 = AXIS2_PLACEMENT_3D ( 'NONE', #68, #3, #95 ) ;
#271 = ADVANCED_FACE ( 'NONE', ( #38 ), #198, .F. ) ;
#272 = ORIENTED_EDGE ( 'NONE', *, *, #104, .T. ) ;
#273 = DIRECTION ( 'NONE',  ( -1.000000000000000000, 0.0000000000000000000, 1.224646799147353454E-16 ) ) ;
#274 = CARTESIAN_POINT ( 'NONE',  ( 0.0000000000000000000, 0.0000000000000000000, 2.500000000000000000 ) ) ;
#275 = ORIENTED_EDGE ( 'NONE', *, *, #39, .F. ) ;
#276 = ORIENTED_EDGE ( 'NONE', *, *, #21, .T. ) ;
#277 = ORIENTED_EDGE ( 'NONE', *, *, #21, .F. ) ;
#278 = EDGE_CURVE ( 'NONE', #176, #138, #6, .T. ) ;
#279 = CARTESIAN_POINT ( 'NONE',  ( -0.1412499999999994871, 0.0000000000000000000, 2.500000000000000000 ) ) ;
#280 = CIRCLE ( 'NONE', #190, 0.1562500000000000000 ) ;
#281 = CARTESIAN_POINT ( 'NONE',  ( 0.1560937499999999756, 1.911597113044071690E-17, 0.0000000000000000000 ) ) ;
#282 = DIRECTION ( 'NONE',  ( -0.0000000000000000000, -0.0000000000000000000, -1.000000000000000000 ) ) ;
#283 = FACE_OUTER_BOUND ( 'NONE', #177, .T. ) ;
#284 =( GEOMETRIC_REPRESENTATION_CONTEXT ( 3 ) GLOBAL_UNCERTAINTY_ASSIGNED_CONTEXT ( ( #171 ) ) GLOBAL_UNIT_ASSIGNED_CONTEXT ( ( #256, #240, #173 ) ) REPRESENTATION_CONTEXT ( 'NONE', 'WORKASPACE' ) );
#285 = DIRECTION ( 'NONE',  ( -1.000000000000000000, 0.0000000000000000000, 0.0000000000000000000 ) ) ;
#286 = EDGE_CURVE ( 'NONE', #130, #13, #174, .T. ) ;
#287 = DIRECTION ( 'NONE',  ( -1.224646799147353207E-16, -0.0000000000000000000, -1.000000000000000000 ) ) ;
#288 = UNCERTAINTY_MEASURE_WITH_UNIT (LENGTH_MEASURE( 1.000000000000000082E-05 ), #31, 'distance_accuracy_value', 'NONE');
#289 = EDGE_CURVE ( 'NONE', #200, #250, #10, .T. ) ;
#290 = ORIENTED_EDGE ( 'NONE', *, *, #286, .F. ) ;
#291 = ORIENTED_EDGE ( 'NONE', *, *, #15, .F. ) ;
#292 = VERTEX_POINT ( 'NONE', #296 ) ;
#293 = ORIENTED_EDGE ( 'NONE', *, *, #104, .F. ) ;
#294 = ORIENTED_EDGE ( 'NONE', *, *, #52, .T. ) ;
#295 = PLANE ( 'NONE',  #74 ) ;
#296 = CARTESIAN_POINT ( 'NONE',  ( -0.1562500000000000000, 0.0000000000000000000, 2.484999999999999432 ) ) ;
#297 = DIRECTION ( 'NONE',  ( 1.000000000000000000, 0.0000000000000000000, 0.0000000000000000000 ) ) ;
#298 = AXIS2_PLACEMENT_3D ( 'NONE', #53, #165, #20 ) ;
#299 = AXIS2_PLACEMENT_3D ( 'NONE', #56, #25, #230 ) ;
ENDSEC;
END-ISO-10303-21;
