ISO-10303-21;
HEADER;
FILE_DESCRIPTION (( 'STEP AP214' ),
    '1' );
FILE_NAME ('03585.STEP',
    '2023-06-22T15:29:43',
    ( '' ),
    ( '' ),
    'SwSTEP 2.0',
    'SolidWorks 2023',
    '' );
FILE_SCHEMA (( 'AUTOMOTIVE_DESIGN' ));
ENDSEC;

DATA;
#1 = PRODUCT_DEFINITION ( 'UNKNOWN', '', #279, #289 ) ;
#2 =( LENGTH_UNIT ( ) NAMED_UNIT ( * ) SI_UNIT ( $, .METRE. ) );
#3 = DIRECTION ( 'NONE',  ( -3.265724797726275178E-17, 1.000000000000000000, -0.000000000000000000 ) ) ;
#4 = AXIS2_PLACEMENT_3D ( 'NONE', #40, #296, #185 ) ;
#5 = CARTESIAN_POINT ( 'NONE',  ( 3.827021247335478926E-17, 0.000000000000000000, 0.3125000000000000000 ) ) ;
#6 = DIRECTION ( 'NONE',  ( -0.000000000000000000, -1.000000000000000000, -0.000000000000000000 ) ) ;
#7 =( GEOMETRIC_REPRESENTATION_CONTEXT ( 3 ) GLOBAL_UNCERTAINTY_ASSIGNED_CONTEXT ( ( #119 ) ) GLOBAL_UNIT_ASSIGNED_CONTEXT ( ( #88, #74, #22 ) ) REPRESENTATION_CONTEXT ( 'NONE', 'WORKASPACE' ) );
#8 = SURFACE_STYLE_USAGE ( .BOTH. , #149 ) ;
#9 = ORIENTED_EDGE ( 'NONE', *, *, #80, .F. ) ;
#10 = MECHANICAL_DESIGN_GEOMETRIC_PRESENTATION_REPRESENTATION (  '', ( #261 ), #23 ) ;
#11 = AXIS2_PLACEMENT_3D ( 'NONE', #163, #49, #138 ) ;
#12 = DIRECTION ( 'NONE',  ( 0.000000000000000000, 0.000000000000000000, -1.000000000000000000 ) ) ;
#13 = ADVANCED_FACE ( 'NONE', ( #253 ), #45, .T. ) ;
#14 = CYLINDRICAL_SURFACE ( 'NONE', #212, 0.3125000000000000000 ) ;
#15 = ORIENTED_EDGE ( 'NONE', *, *, #58, .F. ) ;
#16 =( NAMED_UNIT ( * ) SI_UNIT ( $, .STERADIAN. ) SOLID_ANGLE_UNIT ( ) );
#17 =( LENGTH_UNIT ( ) NAMED_UNIT ( * ) SI_UNIT ( $, .METRE. ) );
#18 =( NAMED_UNIT ( * ) PLANE_ANGLE_UNIT ( ) SI_UNIT ( $, .RADIAN. ) );
#19 = SURFACE_STYLE_FILL_AREA ( #106 ) ;
#20 = DIRECTION ( 'NONE',  ( -3.265724797726275178E-17, 1.000000000000000000, -0.000000000000000000 ) ) ;
#21 = CARTESIAN_POINT ( 'NONE',  ( 0.3125000000000000000, 4.000000000000000000, 3.827021247335478926E-17 ) ) ;
#22 =( NAMED_UNIT ( * ) SI_UNIT ( $, .STERADIAN. ) SOLID_ANGLE_UNIT ( ) );
#23 =( GEOMETRIC_REPRESENTATION_CONTEXT ( 3 ) GLOBAL_UNCERTAINTY_ASSIGNED_CONTEXT ( ( #240 ) ) GLOBAL_UNIT_ASSIGNED_CONTEXT ( ( #159, #72, #131 ) ) REPRESENTATION_CONTEXT ( 'NONE', 'WORKASPACE' ) );
#24 = MECHANICAL_DESIGN_GEOMETRIC_PRESENTATION_REPRESENTATION (  '', ( #142 ), #204 ) ;
#25 = EDGE_CURVE ( 'NONE', #223, #87, #263, .T. ) ;
#26 = LENGTH_MEASURE_WITH_UNIT ( LENGTH_MEASURE( 0.02539999999999999897 ), #2 );
#27 = PRESENTATION_LAYER_ASSIGNMENT (  '', '', ( #261 ) ) ;
#28 = STYLED_ITEM ( 'NONE', ( #157 ), #239 ) ;
#29 = UNCERTAINTY_MEASURE_WITH_UNIT (LENGTH_MEASURE( 1.000000000000000082E-05 ), #50, 'distance_accuracy_value', 'NONE');
#30 =( LENGTH_UNIT ( ) NAMED_UNIT ( * ) SI_UNIT ( $, .METRE. ) );
#31 = EDGE_CURVE ( 'NONE', #51, #270, #284, .T. ) ;
#32 = DIRECTION ( 'NONE',  ( 0.000000000000000000, 0.000000000000000000, -1.000000000000000000 ) ) ;
#33 = CIRCLE ( 'NONE', #141, 0.3125000000000000000 ) ;
#34 = ORIENTED_EDGE ( 'NONE', *, *, #192, .F. ) ;
#35 = SURFACE_STYLE_FILL_AREA ( #243 ) ;
#36 = ORIENTED_EDGE ( 'NONE', *, *, #190, .T. ) ;
#37 = ORIENTED_EDGE ( 'NONE', *, *, #165, .T. ) ;
#38 = COLOUR_RGB ( '',1.000000000000000000, 0.000000000000000000, 0.000000000000000000 ) ;
#39 = EDGE_LOOP ( 'NONE', ( #309, #36, #300, #9 ) ) ;
#40 = CARTESIAN_POINT ( 'NONE',  ( -6.123233995736766036E-17, 4.000000000000000000, 0.000000000000000000 ) ) ;
#41 = DIRECTION ( 'NONE',  ( -3.265724797726275178E-17, 1.000000000000000000, -0.000000000000000000 ) ) ;
#42 =( LENGTH_UNIT ( ) NAMED_UNIT ( * ) SI_UNIT ( $, .METRE. ) );
#43 = DIRECTION ( 'NONE',  ( -1.000000000000000000, 0.000000000000000000, 0.000000000000000000 ) ) ;
#44 =( LENGTH_UNIT ( ) NAMED_UNIT ( * ) SI_UNIT ( $, .METRE. ) );
#45 = CYLINDRICAL_SURFACE ( 'NONE', #191, 0.3125000000000000000 ) ;
#46 = DIRECTION ( 'NONE',  ( 0.000000000000000000, 0.000000000000000000, -1.000000000000000000 ) ) ;
#47 = LINE ( 'NONE', #111, #57 ) ;
#48 = UNCERTAINTY_MEASURE_WITH_UNIT (LENGTH_MEASURE( 1.000000000000000082E-05 ), #183, 'distance_accuracy_value', 'NONE');
#49 = DIRECTION ( 'NONE',  ( -0.000000000000000000, -1.000000000000000000, -0.000000000000000000 ) ) ;
#50 =( CONVERSION_BASED_UNIT ( 'INCH', #206 ) LENGTH_UNIT ( ) NAMED_UNIT ( #245 ) );
#51 = VERTEX_POINT ( 'NONE', #166 ) ;
#52 = PRESENTATION_LAYER_ASSIGNMENT (  '', '', ( #98 ) ) ;
#53 =( GEOMETRIC_REPRESENTATION_CONTEXT ( 3 ) GLOBAL_UNCERTAINTY_ASSIGNED_CONTEXT ( ( #167 ) ) GLOBAL_UNIT_ASSIGNED_CONTEXT ( ( #274, #276, #16 ) ) REPRESENTATION_CONTEXT ( 'NONE', 'WORKASPACE' ) );
#54 = CARTESIAN_POINT ( 'NONE',  ( 0.000000000000000000, 0.000000000000000000, -0.3125000000000000000 ) ) ;
#55 = PRESENTATION_STYLE_ASSIGNMENT (( #295 ) ) ;
#56 = CARTESIAN_POINT ( 'NONE',  ( 0.000000000000000000, 0.000000000000000000, 0.000000000000000000 ) ) ;
#57 = VECTOR ( 'NONE', #41, 39.37007874015748143 ) ;
#58 = EDGE_CURVE ( 'NONE', #270, #108, #86, .T. ) ;
#59 = AXIS2_PLACEMENT_3D ( 'NONE', #114, #133, #225 ) ;
#60 = EDGE_CURVE ( 'NONE', #108, #270, #33, .T. ) ;
#61 = PRESENTATION_LAYER_ASSIGNMENT (  '', '', ( #142 ) ) ;
#62 = LINE ( 'NONE', #174, #176 ) ;
#63 = ORIENTED_EDGE ( 'NONE', *, *, #31, .T. ) ;
#64 = SURFACE_SIDE_STYLE ('',( #35 ) ) ;
#65 = EDGE_CURVE ( 'NONE', #221, #108, #62, .T. ) ;
#66 = ORIENTED_EDGE ( 'NONE', *, *, #259, .T. ) ;
#67 = SURFACE_STYLE_USAGE ( .BOTH. , #92 ) ;
#68 =( LENGTH_UNIT ( ) NAMED_UNIT ( * ) SI_UNIT ( $, .METRE. ) );
#69 = SURFACE_SIDE_STYLE ('',( #233 ) ) ;
#70 = LENGTH_MEASURE_WITH_UNIT ( LENGTH_MEASURE( 0.02539999999999999897 ), #17 );
#71 = CARTESIAN_POINT ( 'NONE',  ( -0.3125000000000000000, 2.125000000000000000, 0.000000000000000000 ) ) ;
#72 =( NAMED_UNIT ( * ) PLANE_ANGLE_UNIT ( ) SI_UNIT ( $, .RADIAN. ) );
#73 = CIRCLE ( 'NONE', #59, 0.3125000000000000000 ) ;
#74 =( NAMED_UNIT ( * ) PLANE_ANGLE_UNIT ( ) SI_UNIT ( $, .RADIAN. ) );
#75 = CARTESIAN_POINT ( 'NONE',  ( 0.3125000000000000000, 4.000000000000000000, 0.000000000000000000 ) ) ;
#76 = ADVANCED_FACE ( 'NONE', ( #197 ), #14, .T. ) ;
#77 = AXIS2_PLACEMENT_3D ( 'NONE', #226, #20, #208 ) ;
#78 = CIRCLE ( 'NONE', #11, 0.3125000000000000000 ) ;
#79 = PRESENTATION_LAYER_ASSIGNMENT (  '', '', ( #248 ) ) ;
#80 = EDGE_CURVE ( 'NONE', #129, #87, #103, .T. ) ;
#81 = MECHANICAL_DESIGN_GEOMETRIC_PRESENTATION_REPRESENTATION (  '', ( #98 ), #203 ) ;
#82 = EDGE_LOOP ( 'NONE', ( #105, #66, #196, #15 ) ) ;
#83 = FACE_OUTER_BOUND ( 'NONE', #153, .T. ) ;
#84 = ADVANCED_FACE ( 'NONE', ( #302 ), #280, .T. ) ;
#85 = ORIENTED_EDGE ( 'NONE', *, *, #170, .F. ) ;
#86 = CIRCLE ( 'NONE', #260, 0.3125000000000000000 ) ;
#87 = VERTEX_POINT ( 'NONE', #94 ) ;
#88 =( CONVERSION_BASED_UNIT ( 'INCH', #109 ) LENGTH_UNIT ( ) NAMED_UNIT ( #173 ) );
#89 = CIRCLE ( 'NONE', #128, 0.3125000000000000000 ) ;
#90 = SURFACE_STYLE_USAGE ( .BOTH. , #255 ) ;
#91 = DIRECTION ( 'NONE',  ( 1.000000000000000000, 3.265724797726275178E-17, 0.000000000000000000 ) ) ;
#92 = SURFACE_SIDE_STYLE ('',( #19 ) ) ;
#93 = MECHANICAL_DESIGN_GEOMETRIC_PRESENTATION_REPRESENTATION (  '', ( #99 ), #7 ) ;
#94 = CARTESIAN_POINT ( 'NONE',  ( -0.3125000000000001665, 4.000000000000000000, 0.000000000000000000 ) ) ;
#95 = CARTESIAN_POINT ( 'NONE',  ( 1.666399758513175262E-34, 2.125000000000000000, 0.000000000000000000 ) ) ;
#96 = AXIS2_PLACEMENT_3D ( 'NONE', #95, #116, #144 ) ;
#97 = AXIS2_PLACEMENT_3D ( 'NONE', #56, #218, #32 ) ;
#98 = STYLED_ITEM ( 'NONE', ( #178 ), #76 ) ;
#99 = STYLED_ITEM ( 'NONE', ( #252 ), #238 ) ;
#100 = DIRECTION ( 'NONE',  ( -3.265724797726275178E-17, 1.000000000000000000, -0.000000000000000000 ) ) ;
#101 = FILL_AREA_STYLE_COLOUR ( '', #115 ) ;
#102 = DIMENSIONAL_EXPONENTS ( 1.000000000000000000, 0.000000000000000000, 0.000000000000000000, 0.000000000000000000, 0.000000000000000000, 0.000000000000000000, 0.000000000000000000 ) ;
#103 = CIRCLE ( 'NONE', #77, 0.3125000000000000555 ) ;
#104 = DIRECTION ( 'NONE',  ( -0.000000000000000000, -1.000000000000000000, -0.000000000000000000 ) ) ;
#105 = ORIENTED_EDGE ( 'NONE', *, *, #31, .F. ) ;
#106 = FILL_AREA_STYLE ('',( #298 ) ) ;
#107 = CARTESIAN_POINT ( 'NONE',  ( 0.000000000000000000, 2.125000000000000000, 0.000000000000000000 ) ) ;
#108 = VERTEX_POINT ( 'NONE', #54 ) ;
#109 = LENGTH_MEASURE_WITH_UNIT ( LENGTH_MEASURE( 0.02539999999999999897 ), #68 );
#110 = FILL_AREA_STYLE ('',( #201 ) ) ;
#111 = CARTESIAN_POINT ( 'NONE',  ( 0.3124999999999999445, 4.000000000000000000, 3.827021247335478926E-17 ) ) ;
#112 = DIRECTION ( 'NONE',  ( 0.000000000000000000, -0.000000000000000000, 1.000000000000000000 ) ) ;
#113 = PRODUCT_CONTEXT ( 'NONE', #217, 'mechanical' ) ;
#114 = CARTESIAN_POINT ( 'NONE',  ( 0.000000000000000000, 2.125000000000000000, 0.000000000000000000 ) ) ;
#115 = COLOUR_RGB ( '',1.000000000000000000, 0.000000000000000000, 0.000000000000000000 ) ;
#116 = DIRECTION ( 'NONE',  ( -3.265724797726275178E-17, 1.000000000000000000, 0.000000000000000000 ) ) ;
#117 =( NAMED_UNIT ( * ) SI_UNIT ( $, .STERADIAN. ) SOLID_ANGLE_UNIT ( ) );
#118 = DIRECTION ( 'NONE',  ( 0.000000000000000000, 0.000000000000000000, 1.000000000000000000 ) ) ;
#119 = UNCERTAINTY_MEASURE_WITH_UNIT (LENGTH_MEASURE( 1.000000000000000082E-05 ), #88, 'distance_accuracy_value', 'NONE');
#120 = CARTESIAN_POINT ( 'NONE',  ( -0.3125000000000000555, 4.000000000000000000, 0.000000000000000000 ) ) ;
#121 = DIRECTION ( 'NONE',  ( 0.000000000000000000, 0.000000000000000000, -1.000000000000000000 ) ) ;
#122 = ADVANCED_FACE ( 'NONE', ( #234 ), #211, .F. ) ;
#123 =( NAMED_UNIT ( * ) SI_UNIT ( $, .STERADIAN. ) SOLID_ANGLE_UNIT ( ) );
#124 = FILL_AREA_STYLE ('',( #256 ) ) ;
#125 = ADVANCED_FACE ( 'NONE', ( #215 ), #229, .T. ) ;
#126 = EDGE_LOOP ( 'NONE', ( #275, #37, #34, #267 ) ) ;
#127 = CIRCLE ( 'NONE', #305, 0.3125000000000000000 ) ;
#128 = AXIS2_PLACEMENT_3D ( 'NONE', #168, #100, #271 ) ;
#129 = VERTEX_POINT ( 'NONE', #21 ) ;
#130 = DIMENSIONAL_EXPONENTS ( 1.000000000000000000, 0.000000000000000000, 0.000000000000000000, 0.000000000000000000, 0.000000000000000000, 0.000000000000000000, 0.000000000000000000 ) ;
#131 =( NAMED_UNIT ( * ) SI_UNIT ( $, .STERADIAN. ) SOLID_ANGLE_UNIT ( ) );
#132 = ORIENTED_EDGE ( 'NONE', *, *, #58, .T. ) ;
#133 = DIRECTION ( 'NONE',  ( -0.000000000000000000, -1.000000000000000000, -0.000000000000000000 ) ) ;
#134 = ADVANCED_FACE ( 'NONE', ( #306 ), #282, .F. ) ;
#135 = PRESENTATION_LAYER_ASSIGNMENT (  '', '', ( #28 ) ) ;
#136 = DIRECTION ( 'NONE',  ( -0.000000000000000000, -1.000000000000000000, -0.000000000000000000 ) ) ;
#137 = CARTESIAN_POINT ( 'NONE',  ( -6.123233995736766036E-17, 4.000000000000000000, 0.000000000000000000 ) ) ;
#138 = DIRECTION ( 'NONE',  ( 0.000000000000000000, 0.000000000000000000, -1.000000000000000000 ) ) ;
#139 = CARTESIAN_POINT ( 'NONE',  ( -6.123233995736766036E-17, 4.000000000000000000, 0.000000000000000000 ) ) ;
#140 = FILL_AREA_STYLE ('',( #257 ) ) ;
#141 = AXIS2_PLACEMENT_3D ( 'NONE', #150, #266, #12 ) ;
#142 = STYLED_ITEM ( 'NONE', ( #258 ), #187 ) ;
#143 = PRODUCT_RELATED_PRODUCT_CATEGORY ( 'part', '', ( #164 ) ) ;
#144 = DIRECTION ( 'NONE',  ( -1.000000000000000000, -3.265724797726275178E-17, 0.000000000000000000 ) ) ;
#145 =( NAMED_UNIT ( * ) PLANE_ANGLE_UNIT ( ) SI_UNIT ( $, .RADIAN. ) );
#146 = ADVANCED_BREP_SHAPE_REPRESENTATION ( '03585', ( #239, #238, #242 ), #194 ) ;
#147 = PRODUCT_DEFINITION_SHAPE ( 'NONE', 'NONE',  #1 ) ;
#148 = COLOUR_RGB ( '',1.000000000000000000, 0.000000000000000000, 0.000000000000000000 ) ;
#149 = SURFACE_SIDE_STYLE ('',( #262 ) ) ;
#150 = CARTESIAN_POINT ( 'NONE',  ( 0.000000000000000000, 0.000000000000000000, 0.000000000000000000 ) ) ;
#151 = DIMENSIONAL_EXPONENTS ( 1.000000000000000000, 0.000000000000000000, 0.000000000000000000, 0.000000000000000000, 0.000000000000000000, 0.000000000000000000, 0.000000000000000000 ) ;
#152 = VERTEX_POINT ( 'NONE', #299 ) ;
#153 = EDGE_LOOP ( 'NONE', ( #205, #132 ) ) ;
#154 = VECTOR ( 'NONE', #216, 39.37007874015748143 ) ;
#155 = AXIS2_PLACEMENT_3D ( 'NONE', #189, #294, #121 ) ;
#156 = ORIENTED_EDGE ( 'NONE', *, *, #259, .F. ) ;
#157 = PRESENTATION_STYLE_ASSIGNMENT (( #67 ) ) ;
#158 = PRESENTATION_STYLE_ASSIGNMENT (( #8 ) ) ;
#159 =( CONVERSION_BASED_UNIT ( 'INCH', #70 ) LENGTH_UNIT ( ) NAMED_UNIT ( #250 ) );
#160 = CLOSED_SHELL ( 'NONE', ( #76, #84, #182, #187 ) ) ;
#161 = CARTESIAN_POINT ( 'NONE',  ( 3.827021247335478926E-17, 0.000000000000000000, 0.3125000000000000000 ) ) ;
#162 = DIRECTION ( 'NONE',  ( -3.265724797726275178E-17, 1.000000000000000000, -0.000000000000000000 ) ) ;
#163 = CARTESIAN_POINT ( 'NONE',  ( 0.000000000000000000, 2.125000000000000000, 0.000000000000000000 ) ) ;
#164 = PRODUCT ( '03585', '03585', '', ( #113 ) ) ;
#165 = EDGE_CURVE ( 'NONE', #152, #129, #47, .T. ) ;
#166 = CARTESIAN_POINT ( 'NONE',  ( 3.827021247335478926E-17, 2.125000000000000000, 0.3125000000000000000 ) ) ;
#167 = UNCERTAINTY_MEASURE_WITH_UNIT (LENGTH_MEASURE( 1.000000000000000082E-05 ), #274, 'distance_accuracy_value', 'NONE');
#168 = CARTESIAN_POINT ( 'NONE',  ( 0.000000000000000000, 2.125000000000000000, 0.000000000000000000 ) ) ;
#169 = PLANE ( 'NONE',  #155 ) ;
#170 = EDGE_CURVE ( 'NONE', #223, #152, #127, .T. ) ;
#171 = VECTOR ( 'NONE', #286, 39.37007874015748143 ) ;
#172 = PRESENTATION_LAYER_ASSIGNMENT (  '', '', ( #99 ) ) ;
#173 = DIMENSIONAL_EXPONENTS ( 1.000000000000000000, 0.000000000000000000, 0.000000000000000000, 0.000000000000000000, 0.000000000000000000, 0.000000000000000000, 0.000000000000000000 ) ;
#174 = CARTESIAN_POINT ( 'NONE',  ( 0.000000000000000000, 0.000000000000000000, -0.3125000000000000000 ) ) ;
#175 = ORIENTED_EDGE ( 'NONE', *, *, #198, .T. ) ;
#176 = VECTOR ( 'NONE', #104, 39.37007874015748143 ) ;
#177 = COLOUR_RGB ( '',0.7921568627450980005, 0.8196078431372548767, 0.9333333333333333481 ) ;
#178 = PRESENTATION_STYLE_ASSIGNMENT (( #195 ) ) ;
#179 = EDGE_LOOP ( 'NONE', ( #222, #180 ) ) ;
#180 = ORIENTED_EDGE ( 'NONE', *, *, #80, .T. ) ;
#181 = LENGTH_MEASURE_WITH_UNIT ( LENGTH_MEASURE( 0.02539999999999999897 ), #42 );
#182 = ADVANCED_FACE ( 'NONE', ( #210 ), #303, .T. ) ;
#183 =( CONVERSION_BASED_UNIT ( 'INCH', #249 ) LENGTH_UNIT ( ) NAMED_UNIT ( #287 ) );
#184 = AXIS2_PLACEMENT_3D ( 'NONE', #139, #3, #186 ) ;
#185 = DIRECTION ( 'NONE',  ( -1.000000000000000000, 0.000000000000000000, 0.000000000000000000 ) ) ;
#186 = DIRECTION ( 'NONE',  ( -1.000000000000000000, 0.000000000000000000, 0.000000000000000000 ) ) ;
#187 = ADVANCED_FACE ( 'NONE', ( #83 ), #169, .T. ) ;
#188 = COLOUR_RGB ( '',1.000000000000000000, 0.000000000000000000, 0.000000000000000000 ) ;
#189 = CARTESIAN_POINT ( 'NONE',  ( 0.000000000000000000, 0.000000000000000000, 0.000000000000000000 ) ) ;
#190 = EDGE_CURVE ( 'NONE', #152, #223, #89, .T. ) ;
#191 = AXIS2_PLACEMENT_3D ( 'NONE', #137, #162, #227 ) ;
#192 = EDGE_CURVE ( 'NONE', #87, #129, #236, .T. ) ;
#193 = EDGE_LOOP ( 'NONE', ( #175, #63, #200, #251 ) ) ;
#194 =( GEOMETRIC_REPRESENTATION_CONTEXT ( 3 ) GLOBAL_UNCERTAINTY_ASSIGNED_CONTEXT ( ( #292 ) ) GLOBAL_UNIT_ASSIGNED_CONTEXT ( ( #291, #241, #123 ) ) REPRESENTATION_CONTEXT ( 'NONE', 'WORKASPACE' ) );
#195 = SURFACE_STYLE_USAGE ( .BOTH. , #64 ) ;
#196 = ORIENTED_EDGE ( 'NONE', *, *, #65, .T. ) ;
#197 = FACE_OUTER_BOUND ( 'NONE', #193, .T. ) ;
#198 = EDGE_CURVE ( 'NONE', #221, #51, #78, .T. ) ;
#199 =( LENGTH_UNIT ( ) NAMED_UNIT ( * ) SI_UNIT ( $, .METRE. ) );
#200 = ORIENTED_EDGE ( 'NONE', *, *, #60, .F. ) ;
#201 = FILL_AREA_STYLE_COLOUR ( '', #268 ) ;
#202 = DIRECTION ( 'NONE',  ( -3.265724797726275178E-17, 1.000000000000000000, -0.000000000000000000 ) ) ;
#203 =( GEOMETRIC_REPRESENTATION_CONTEXT ( 3 ) GLOBAL_UNCERTAINTY_ASSIGNED_CONTEXT ( ( #48 ) ) GLOBAL_UNIT_ASSIGNED_CONTEXT ( ( #183, #18, #301 ) ) REPRESENTATION_CONTEXT ( 'NONE', 'WORKASPACE' ) );
#204 =( GEOMETRIC_REPRESENTATION_CONTEXT ( 3 ) GLOBAL_UNCERTAINTY_ASSIGNED_CONTEXT ( ( #29 ) ) GLOBAL_UNIT_ASSIGNED_CONTEXT ( ( #50, #304, #224 ) ) REPRESENTATION_CONTEXT ( 'NONE', 'WORKASPACE' ) );
#205 = ORIENTED_EDGE ( 'NONE', *, *, #60, .T. ) ;
#206 = LENGTH_MEASURE_WITH_UNIT ( LENGTH_MEASURE( 0.02539999999999999897 ), #44 );
#207 = SURFACE_SIDE_STYLE ('',( #228 ) ) ;
#208 = DIRECTION ( 'NONE',  ( -1.000000000000000000, 0.000000000000000000, 0.000000000000000000 ) ) ;
#209 = SURFACE_STYLE_USAGE ( .BOTH. , #207 ) ;
#210 = FACE_OUTER_BOUND ( 'NONE', #82, .T. ) ;
#211 = PLANE ( 'NONE',  #96 ) ;
#212 = AXIS2_PLACEMENT_3D ( 'NONE', #254, #136, #46 ) ;
#213 = SURFACE_STYLE_FILL_AREA ( #277 ) ;
#214 = SHAPE_DEFINITION_REPRESENTATION ( #147, #146 ) ;
#215 = FACE_OUTER_BOUND ( 'NONE', #126, .T. ) ;
#216 = DIRECTION ( 'NONE',  ( -3.265724797726275178E-17, 1.000000000000000000, -0.000000000000000000 ) ) ;
#217 = APPLICATION_CONTEXT ( 'automotive_design' ) ;
#218 = DIRECTION ( 'NONE',  ( -0.000000000000000000, -1.000000000000000000, -0.000000000000000000 ) ) ;
#219 = CARTESIAN_POINT ( 'NONE',  ( 0.000000000000000000, 0.000000000000000000, 0.000000000000000000 ) ) ;
#220 =( GEOMETRIC_REPRESENTATION_CONTEXT ( 3 ) GLOBAL_UNCERTAINTY_ASSIGNED_CONTEXT ( ( #231 ) ) GLOBAL_UNIT_ASSIGNED_CONTEXT ( ( #237, #145, #117 ) ) REPRESENTATION_CONTEXT ( 'NONE', 'WORKASPACE' ) );
#221 = VERTEX_POINT ( 'NONE', #232 ) ;
#222 = ORIENTED_EDGE ( 'NONE', *, *, #192, .T. ) ;
#223 = VERTEX_POINT ( 'NONE', #71 ) ;
#224 =( NAMED_UNIT ( * ) SI_UNIT ( $, .STERADIAN. ) SOLID_ANGLE_UNIT ( ) );
#225 = DIRECTION ( 'NONE',  ( 0.000000000000000000, 0.000000000000000000, -1.000000000000000000 ) ) ;
#226 = CARTESIAN_POINT ( 'NONE',  ( -6.123233995736766036E-17, 4.000000000000000000, 0.000000000000000000 ) ) ;
#227 = DIRECTION ( 'NONE',  ( -1.000000000000000000, 0.000000000000000000, 0.000000000000000000 ) ) ;
#228 = SURFACE_STYLE_FILL_AREA ( #110 ) ;
#229 = CYLINDRICAL_SURFACE ( 'NONE', #184, 0.3125000000000000000 ) ;
#230 = DIRECTION ( 'NONE',  ( 1.000000000000000000, 0.000000000000000000, 0.000000000000000000 ) ) ;
#231 = UNCERTAINTY_MEASURE_WITH_UNIT (LENGTH_MEASURE( 1.000000000000000082E-05 ), #237, 'distance_accuracy_value', 'NONE');
#232 = CARTESIAN_POINT ( 'NONE',  ( 0.000000000000000000, 2.125000000000000000, -0.3125000000000000000 ) ) ;
#233 = SURFACE_STYLE_FILL_AREA ( #140 ) ;
#234 = FACE_OUTER_BOUND ( 'NONE', #297, .T. ) ;
#235 = AXIS2_PLACEMENT_3D ( 'NONE', #281, #288, #112 ) ;
#236 = CIRCLE ( 'NONE', #4, 0.3125000000000000555 ) ;
#237 =( CONVERSION_BASED_UNIT ( 'INCH', #26 ) LENGTH_UNIT ( ) NAMED_UNIT ( #151 ) );
#238 = MANIFOLD_SOLID_BREP ( 'Revolve - Tool Body (Straight Shanked)', #278 ) ;
#239 = MANIFOLD_SOLID_BREP ( 'Revolve - Cutting Edge', #160 ) ;
#240 = UNCERTAINTY_MEASURE_WITH_UNIT (LENGTH_MEASURE( 1.000000000000000082E-05 ), #159, 'distance_accuracy_value', 'NONE');
#241 =( NAMED_UNIT ( * ) PLANE_ANGLE_UNIT ( ) SI_UNIT ( $, .RADIAN. ) );
#242 = AXIS2_PLACEMENT_3D ( 'NONE', #283, #118, #230 ) ;
#243 = FILL_AREA_STYLE ('',( #269 ) ) ;
#244 = ORIENTED_EDGE ( 'NONE', *, *, #198, .F. ) ;
#245 = DIMENSIONAL_EXPONENTS ( 1.000000000000000000, 0.000000000000000000, 0.000000000000000000, 0.000000000000000000, 0.000000000000000000, 0.000000000000000000, 0.000000000000000000 ) ;
#246 = APPLICATION_PROTOCOL_DEFINITION ( 'draft international standard', 'automotive_design', 1998, #217 ) ;
#247 = MECHANICAL_DESIGN_GEOMETRIC_PRESENTATION_REPRESENTATION (  '', ( #248 ), #220 ) ;
#248 = STYLED_ITEM ( 'NONE', ( #55 ), #182 ) ;
#249 = LENGTH_MEASURE_WITH_UNIT ( LENGTH_MEASURE( 0.02539999999999999897 ), #199 );
#250 = DIMENSIONAL_EXPONENTS ( 1.000000000000000000, 0.000000000000000000, 0.000000000000000000, 0.000000000000000000, 0.000000000000000000, 0.000000000000000000, 0.000000000000000000 ) ;
#251 = ORIENTED_EDGE ( 'NONE', *, *, #65, .F. ) ;
#252 = PRESENTATION_STYLE_ASSIGNMENT (( #209 ) ) ;
#253 = FACE_OUTER_BOUND ( 'NONE', #39, .T. ) ;
#254 = CARTESIAN_POINT ( 'NONE',  ( 0.000000000000000000, 0.000000000000000000, 0.000000000000000000 ) ) ;
#255 = SURFACE_SIDE_STYLE ('',( #213 ) ) ;
#256 = FILL_AREA_STYLE_COLOUR ( '', #188 ) ;
#257 = FILL_AREA_STYLE_COLOUR ( '', #38 ) ;
#258 = PRESENTATION_STYLE_ASSIGNMENT (( #90 ) ) ;
#259 = EDGE_CURVE ( 'NONE', #51, #221, #73, .T. ) ;
#260 = AXIS2_PLACEMENT_3D ( 'NONE', #219, #6, #290 ) ;
#261 = STYLED_ITEM ( 'NONE', ( #158 ), #84 ) ;
#262 = SURFACE_STYLE_FILL_AREA ( #124 ) ;
#263 = LINE ( 'NONE', #120, #154 ) ;
#264 = AXIS2_PLACEMENT_3D ( 'NONE', #75, #272, #91 ) ;
#265 = EDGE_LOOP ( 'NONE', ( #244, #156 ) ) ;
#266 = DIRECTION ( 'NONE',  ( -0.000000000000000000, -1.000000000000000000, -0.000000000000000000 ) ) ;
#267 = ORIENTED_EDGE ( 'NONE', *, *, #25, .F. ) ;
#268 = COLOUR_RGB ( '',0.7921568627450980005, 0.8196078431372548767, 0.9333333333333333481 ) ;
#269 = FILL_AREA_STYLE_COLOUR ( '', #148 ) ;
#270 = VERTEX_POINT ( 'NONE', #161 ) ;
#271 = DIRECTION ( 'NONE',  ( -1.000000000000000000, 0.000000000000000000, 0.000000000000000000 ) ) ;
#272 = DIRECTION ( 'NONE',  ( 3.265724797726275178E-17, -1.000000000000000000, 0.000000000000000000 ) ) ;
#273 = ORIENTED_EDGE ( 'NONE', *, *, #190, .F. ) ;
#274 =( CONVERSION_BASED_UNIT ( 'INCH', #181 ) LENGTH_UNIT ( ) NAMED_UNIT ( #102 ) );
#275 = ORIENTED_EDGE ( 'NONE', *, *, #170, .T. ) ;
#276 =( NAMED_UNIT ( * ) PLANE_ANGLE_UNIT ( ) SI_UNIT ( $, .RADIAN. ) );
#277 = FILL_AREA_STYLE ('',( #101 ) ) ;
#278 = CLOSED_SHELL ( 'NONE', ( #125, #122, #13, #134 ) ) ;
#279 = PRODUCT_DEFINITION_FORMATION_WITH_SPECIFIED_SOURCE ( 'ANY', '', #164, .NOT_KNOWN. ) ;
#280 = PLANE ( 'NONE',  #235 ) ;
#281 = CARTESIAN_POINT ( 'NONE',  ( 0.000000000000000000, 2.125000000000000000, 0.000000000000000000 ) ) ;
#282 = PLANE ( 'NONE',  #264 ) ;
#283 = CARTESIAN_POINT ( 'NONE',  ( 0.000000000000000000, 0.000000000000000000, 0.000000000000000000 ) ) ;
#284 = LINE ( 'NONE', #5, #171 ) ;
#285 = APPLICATION_CONTEXT ( 'automotive_design' ) ;
#286 = DIRECTION ( 'NONE',  ( -0.000000000000000000, -1.000000000000000000, -0.000000000000000000 ) ) ;
#287 = DIMENSIONAL_EXPONENTS ( 1.000000000000000000, 0.000000000000000000, 0.000000000000000000, 0.000000000000000000, 0.000000000000000000, 0.000000000000000000, 0.000000000000000000 ) ;
#288 = DIRECTION ( 'NONE',  ( 0.000000000000000000, 1.000000000000000000, 0.000000000000000000 ) ) ;
#289 = PRODUCT_DEFINITION_CONTEXT ( 'detailed design', #285, 'design' ) ;
#290 = DIRECTION ( 'NONE',  ( 0.000000000000000000, 0.000000000000000000, -1.000000000000000000 ) ) ;
#291 =( CONVERSION_BASED_UNIT ( 'INCH', #293 ) LENGTH_UNIT ( ) NAMED_UNIT ( #130 ) );
#292 = UNCERTAINTY_MEASURE_WITH_UNIT (LENGTH_MEASURE( 1.000000000000000082E-05 ), #291, 'distance_accuracy_value', 'NONE');
#293 = LENGTH_MEASURE_WITH_UNIT ( LENGTH_MEASURE( 0.02539999999999999897 ), #30 );
#294 = DIRECTION ( 'NONE',  ( 0.000000000000000000, -1.000000000000000000, -0.000000000000000000 ) ) ;
#295 = SURFACE_STYLE_USAGE ( .BOTH. , #69 ) ;
#296 = DIRECTION ( 'NONE',  ( -3.265724797726275178E-17, 1.000000000000000000, -0.000000000000000000 ) ) ;
#297 = EDGE_LOOP ( 'NONE', ( #85, #273 ) ) ;
#298 = FILL_AREA_STYLE_COLOUR ( '', #177 ) ;
#299 = CARTESIAN_POINT ( 'NONE',  ( 0.3125000000000000000, 2.125000000000000000, 3.827021247335478926E-17 ) ) ;
#300 = ORIENTED_EDGE ( 'NONE', *, *, #25, .T. ) ;
#301 =( NAMED_UNIT ( * ) SI_UNIT ( $, .STERADIAN. ) SOLID_ANGLE_UNIT ( ) );
#302 = FACE_OUTER_BOUND ( 'NONE', #265, .T. ) ;
#303 = CYLINDRICAL_SURFACE ( 'NONE', #97, 0.3125000000000000000 ) ;
#304 =( NAMED_UNIT ( * ) PLANE_ANGLE_UNIT ( ) SI_UNIT ( $, .RADIAN. ) );
#305 = AXIS2_PLACEMENT_3D ( 'NONE', #107, #202, #43 ) ;
#306 = FACE_OUTER_BOUND ( 'NONE', #179, .T. ) ;
#307 = MECHANICAL_DESIGN_GEOMETRIC_PRESENTATION_REPRESENTATION (  '', ( #28 ), #53 ) ;
#308 = APPLICATION_PROTOCOL_DEFINITION ( 'draft international standard', 'automotive_design', 1998, #285 ) ;
#309 = ORIENTED_EDGE ( 'NONE', *, *, #165, .F. ) ;
ENDSEC;
END-ISO-10303-21;
