ISO-10303-21;
HEADER;
FILE_DESCRIPTION (( 'STEP AP214' ),
    '1' );
FILE_NAME ('59482.STEP',
    '2023-07-24T15:47:53',
    ( '' ),
    ( '' ),
    'SwSTEP 2.0',
    'SolidWorks 2023',
    '' );
FILE_SCHEMA (( 'AUTOMOTIVE_DESIGN' ));
ENDSEC;

DATA;
#1 = CARTESIAN_POINT ( 'NONE',  ( 0.000000000000000000, 20.00000000000000355, 0.000000000000000000 ) ) ;
#2 = APPLICATION_PROTOCOL_DEFINITION ( 'draft international standard', 'automotive_design', 1998, #160 ) ;
#3 =( NAMED_UNIT ( * ) PLANE_ANGLE_UNIT ( ) SI_UNIT ( $, .RADIAN. ) );
#4 = COLOUR_RGB ( '',1.000000000000000000, 0.000000000000000000, 0.000000000000000000 ) ;
#5 = AXIS2_PLACEMENT_3D ( 'NONE', #73, #179, #119 ) ;
#6 =( LENGTH_UNIT ( ) NAMED_UNIT ( * ) SI_UNIT ( .MILLI., .METRE. ) );
#7 = PRESENTATION_STYLE_ASSIGNMENT (( #266 ) ) ;
#8 = UNCERTAINTY_MEASURE_WITH_UNIT (LENGTH_MEASURE( 1.000000000000000082E-05 ), #225, 'distance_accuracy_value', 'NONE');
#9 = FACE_OUTER_BOUND ( 'NONE', #59, .T. ) ;
#10 = ORIENTED_EDGE ( 'NONE', *, *, #176, .F. ) ;
#11 = AXIS2_PLACEMENT_3D ( 'NONE', #42, #68, #245 ) ;
#12 = ORIENTED_EDGE ( 'NONE', *, *, #168, .T. ) ;
#13 = EDGE_CURVE ( 'NONE', #31, #195, #51, .T. ) ;
#14 = SURFACE_STYLE_FILL_AREA ( #44 ) ;
#15 = CARTESIAN_POINT ( 'NONE',  ( 3.184081677783117402E-15, 63.00000000000000000, 0.000000000000000000 ) ) ;
#16 = CLOSED_SHELL ( 'NONE', ( #27, #157, #200, #284 ) ) ;
#17 = VECTOR ( 'NONE', #113, 1000.000000000000000 ) ;
#18 = SURFACE_STYLE_FILL_AREA ( #170 ) ;
#19 = DIRECTION ( 'NONE',  ( -1.000000000000000000, 0.000000000000000000, 0.000000000000000000 ) ) ;
#20 = DIRECTION ( 'NONE',  ( -0.000000000000000000, -1.000000000000000000, -0.000000000000000000 ) ) ;
#21 = EDGE_CURVE ( 'NONE', #55, #43, #260, .T. ) ;
#22 = PLANE ( 'NONE',  #64 ) ;
#23 = CARTESIAN_POINT ( 'NONE',  ( 0.000000000000000000, 20.00000000000000000, 0.000000000000000000 ) ) ;
#24 = EDGE_CURVE ( 'NONE', #43, #55, #33, .T. ) ;
#25 = DIRECTION ( 'NONE',  ( 1.000000000000000000, -7.404841111123529214E-17, 0.000000000000000000 ) ) ;
#26 = SURFACE_SIDE_STYLE ('',( #48 ) ) ;
#27 = ADVANCED_FACE ( 'NONE', ( #65 ), #125, .T. ) ;
#28 = PRODUCT_CONTEXT ( 'NONE', #160, 'mechanical' ) ;
#29 = DIRECTION ( 'NONE',  ( 0.000000000000000000, -1.000000000000000000, -0.000000000000000000 ) ) ;
#30 =( LENGTH_UNIT ( ) NAMED_UNIT ( * ) SI_UNIT ( .MILLI., .METRE. ) );
#31 = VERTEX_POINT ( 'NONE', #84 ) ;
#32 = SURFACE_SIDE_STYLE ('',( #99 ) ) ;
#33 = CIRCLE ( 'NONE', #254, 4.999999999999996447 ) ;
#34 =( GEOMETRIC_REPRESENTATION_CONTEXT ( 3 ) GLOBAL_UNCERTAINTY_ASSIGNED_CONTEXT ( ( #155 ) ) GLOBAL_UNIT_ASSIGNED_CONTEXT ( ( #6, #288, #46 ) ) REPRESENTATION_CONTEXT ( 'NONE', 'WORKASPACE' ) );
#35 = DIRECTION ( 'NONE',  ( 0.000000000000000000, 0.000000000000000000, -1.000000000000000000 ) ) ;
#36 =( NAMED_UNIT ( * ) SI_UNIT ( $, .STERADIAN. ) SOLID_ANGLE_UNIT ( ) );
#37 = ORIENTED_EDGE ( 'NONE', *, *, #189, .F. ) ;
#38 = DIRECTION ( 'NONE',  ( 0.000000000000000000, 0.000000000000000000, -1.000000000000000000 ) ) ;
#39 = PRESENTATION_LAYER_ASSIGNMENT (  '', '', ( #158 ) ) ;
#40 = VECTOR ( 'NONE', #198, 1000.000000000000000 ) ;
#41 = ORIENTED_EDGE ( 'NONE', *, *, #176, .T. ) ;
#42 = CARTESIAN_POINT ( 'NONE',  ( 0.000000000000000000, 0.000000000000000000, 0.000000000000000000 ) ) ;
#43 = VERTEX_POINT ( 'NONE', #214 ) ;
#44 = FILL_AREA_STYLE ('',( #123 ) ) ;
#45 = CARTESIAN_POINT ( 'NONE',  ( 0.000000000000000000, 20.00000000000000000, 0.000000000000000000 ) ) ;
#46 =( NAMED_UNIT ( * ) SI_UNIT ( $, .STERADIAN. ) SOLID_ANGLE_UNIT ( ) );
#47 = EDGE_CURVE ( 'NONE', #234, #240, #196, .T. ) ;
#48 = SURFACE_STYLE_FILL_AREA ( #129 ) ;
#49 = ADVANCED_FACE ( 'NONE', ( #263 ), #147, .T. ) ;
#50 =( NAMED_UNIT ( * ) SI_UNIT ( $, .STERADIAN. ) SOLID_ANGLE_UNIT ( ) );
#51 = CIRCLE ( 'NONE', #89, 5.000000000000000000 ) ;
#52 = AXIS2_PLACEMENT_3D ( 'NONE', #236, #98, #35 ) ;
#53 = CARTESIAN_POINT ( 'NONE',  ( 3.184081677783117402E-15, 63.00000000000000000, 0.000000000000000000 ) ) ;
#54 = UNCERTAINTY_MEASURE_WITH_UNIT (LENGTH_MEASURE( 1.000000000000000082E-05 ), #30, 'distance_accuracy_value', 'NONE');
#55 = VERTEX_POINT ( 'NONE', #62 ) ;
#56 = DIRECTION ( 'NONE',  ( -1.000000000000000000, 7.404841111123529214E-17, 0.000000000000000000 ) ) ;
#57 = MANIFOLD_SOLID_BREP ( 'Revolve - Tool Body (Straight Shanked)', #16 ) ;
#58 = SURFACE_STYLE_USAGE ( .BOTH. , #32 ) ;
#59 = EDGE_LOOP ( 'NONE', ( #66, #72 ) ) ;
#60 = ORIENTED_EDGE ( 'NONE', *, *, #252, .F. ) ;
#61 = FILL_AREA_STYLE ('',( #118 ) ) ;
#62 = CARTESIAN_POINT ( 'NONE',  ( 5.000000000000000000, 63.00000000000000000, 6.123233995736765296E-16 ) ) ;
#63 = AXIS2_PLACEMENT_3D ( 'NONE', #218, #241, #19 ) ;
#64 = AXIS2_PLACEMENT_3D ( 'NONE', #201, #174, #25 ) ;
#65 = FACE_OUTER_BOUND ( 'NONE', #121, .T. ) ;
#66 = ORIENTED_EDGE ( 'NONE', *, *, #139, .F. ) ;
#67 = FACE_OUTER_BOUND ( 'NONE', #134, .T. ) ;
#68 = DIRECTION ( 'NONE',  ( -0.000000000000000000, -1.000000000000000000, -0.000000000000000000 ) ) ;
#69 = COLOUR_RGB ( '',0.7921568627450980005, 0.8196078431372548767, 0.9333333333333333481 ) ;
#70 = FACE_OUTER_BOUND ( 'NONE', #207, .T. ) ;
#71 = AXIS2_PLACEMENT_3D ( 'NONE', #45, #153, #148 ) ;
#72 = ORIENTED_EDGE ( 'NONE', *, *, #47, .F. ) ;
#73 = CARTESIAN_POINT ( 'NONE',  ( 0.000000000000000000, 20.00000000000000000, 0.000000000000000000 ) ) ;
#74 = PLANE ( 'NONE',  #212 ) ;
#75 = EDGE_LOOP ( 'NONE', ( #120, #41, #205, #166 ) ) ;
#76 = STYLED_ITEM ( 'NONE', ( #7 ), #57 ) ;
#77 = CARTESIAN_POINT ( 'NONE',  ( 5.000000000000001776, 63.00000000000000000, 6.123233995736764310E-16 ) ) ;
#78 = ORIENTED_EDGE ( 'NONE', *, *, #231, .T. ) ;
#79 = PRESENTATION_STYLE_ASSIGNMENT (( #193 ) ) ;
#80 = PRESENTATION_LAYER_ASSIGNMENT (  '', '', ( #152 ) ) ;
#81 = UNCERTAINTY_MEASURE_WITH_UNIT (LENGTH_MEASURE( 1.000000000000000082E-05 ), #83, 'distance_accuracy_value', 'NONE');
#82 = EDGE_LOOP ( 'NONE', ( #37, #191, #78, #235 ) ) ;
#83 =( LENGTH_UNIT ( ) NAMED_UNIT ( * ) SI_UNIT ( .MILLI., .METRE. ) );
#84 = CARTESIAN_POINT ( 'NONE',  ( 0.000000000000000000, 0.000000000000000000, -5.000000000000000000 ) ) ;
#85 = CARTESIAN_POINT ( 'NONE',  ( 0.000000000000000000, 0.000000000000000000, 0.000000000000000000 ) ) ;
#86 = MECHANICAL_DESIGN_GEOMETRIC_PRESENTATION_REPRESENTATION (  '', ( #122 ), #142 ) ;
#87 = SURFACE_STYLE_USAGE ( .BOTH. , #26 ) ;
#88 =( NAMED_UNIT ( * ) SI_UNIT ( $, .STERADIAN. ) SOLID_ANGLE_UNIT ( ) );
#89 = AXIS2_PLACEMENT_3D ( 'NONE', #213, #20, #238 ) ;
#90 = DIRECTION ( 'NONE',  ( 7.404841111123529214E-17, 1.000000000000000000, -0.000000000000000000 ) ) ;
#91 = SURFACE_STYLE_USAGE ( .BOTH. , #228 ) ;
#92 = PLANE ( 'NONE',  #5 ) ;
#93 = PRODUCT_DEFINITION_CONTEXT ( 'detailed design', #173, 'design' ) ;
#94 = DIRECTION ( 'NONE',  ( -0.000000000000000000, -1.000000000000000000, -0.000000000000000000 ) ) ;
#95 = VERTEX_POINT ( 'NONE', #190 ) ;
#96 = CIRCLE ( 'NONE', #239, 5.000000000000000000 ) ;
#97 = CARTESIAN_POINT ( 'NONE',  ( 1.370791797024628714E-32, 20.00000000000000000, 0.000000000000000000 ) ) ;
#98 = DIRECTION ( 'NONE',  ( -0.000000000000000000, -1.000000000000000000, -0.000000000000000000 ) ) ;
#99 = SURFACE_STYLE_FILL_AREA ( #135 ) ;
#100 = ORIENTED_EDGE ( 'NONE', *, *, #231, .F. ) ;
#101 = AXIS2_PLACEMENT_3D ( 'NONE', #108, #29, #270 ) ;
#102 = SURFACE_SIDE_STYLE ('',( #14 ) ) ;
#103 = ORIENTED_EDGE ( 'NONE', *, *, #189, .T. ) ;
#104 = CARTESIAN_POINT ( 'NONE',  ( 3.184081677783117402E-15, 63.00000000000000000, 0.000000000000000000 ) ) ;
#105 = CARTESIAN_POINT ( 'NONE',  ( -5.000000000000000000, 20.00000000000000355, 0.000000000000000000 ) ) ;
#106 = ADVANCED_FACE ( 'NONE', ( #156 ), #226, .T. ) ;
#107 = VERTEX_POINT ( 'NONE', #199 ) ;
#108 = CARTESIAN_POINT ( 'NONE',  ( 0.000000000000000000, 0.000000000000000000, 0.000000000000000000 ) ) ;
#109 = PRESENTATION_STYLE_ASSIGNMENT (( #91 ) ) ;
#110 = MECHANICAL_DESIGN_GEOMETRIC_PRESENTATION_REPRESENTATION (  '', ( #76 ), #264 ) ;
#111 = FILL_AREA_STYLE ('',( #154 ) ) ;
#112 = VECTOR ( 'NONE', #165, 1000.000000000000000 ) ;
#113 = DIRECTION ( 'NONE',  ( -0.000000000000000000, -1.000000000000000000, -0.000000000000000000 ) ) ;
#114 = EDGE_CURVE ( 'NONE', #95, #31, #246, .T. ) ;
#115 = FACE_OUTER_BOUND ( 'NONE', #140, .T. ) ;
#116 = CLOSED_SHELL ( 'NONE', ( #49, #187, #150, #106 ) ) ;
#117 = VECTOR ( 'NONE', #208, 1000.000000000000000 ) ;
#118 = FILL_AREA_STYLE_COLOUR ( '', #271 ) ;
#119 = DIRECTION ( 'NONE',  ( 0.000000000000000000, -0.000000000000000000, 1.000000000000000000 ) ) ;
#120 = ORIENTED_EDGE ( 'NONE', *, *, #237, .T. ) ;
#121 = EDGE_LOOP ( 'NONE', ( #138, #103, #230, #100 ) ) ;
#122 = STYLED_ITEM ( 'NONE', ( #233 ), #187 ) ;
#123 = FILL_AREA_STYLE_COLOUR ( '', #69 ) ;
#124 = DIRECTION ( 'NONE',  ( 7.404841111123529214E-17, 1.000000000000000000, -0.000000000000000000 ) ) ;
#125 = CYLINDRICAL_SURFACE ( 'NONE', #250, 4.999999999999998224 ) ;
#126 = CARTESIAN_POINT ( 'NONE',  ( 3.184081677783117402E-15, 63.00000000000000000, 0.000000000000000000 ) ) ;
#127 = SURFACE_SIDE_STYLE ('',( #18 ) ) ;
#128 = FILL_AREA_STYLE_COLOUR ( '', #244 ) ;
#129 = FILL_AREA_STYLE ('',( #128 ) ) ;
#130 = COLOUR_RGB ( '',1.000000000000000000, 0.000000000000000000, 0.000000000000000000 ) ;
#131 = MECHANICAL_DESIGN_GEOMETRIC_PRESENTATION_REPRESENTATION (  '', ( #137 ), #164 ) ;
#132 = DIRECTION ( 'NONE',  ( 7.404841111123529214E-17, 1.000000000000000000, -0.000000000000000000 ) ) ;
#133 = MANIFOLD_SOLID_BREP ( 'Revolve - Cutting Edge', #116 ) ;
#134 = EDGE_LOOP ( 'NONE', ( #258, #167 ) ) ;
#135 = FILL_AREA_STYLE ('',( #185 ) ) ;
#136 =( NAMED_UNIT ( * ) PLANE_ANGLE_UNIT ( ) SI_UNIT ( $, .RADIAN. ) );
#137 = STYLED_ITEM ( 'NONE', ( #181 ), #150 ) ;
#138 = ORIENTED_EDGE ( 'NONE', *, *, #139, .T. ) ;
#139 = EDGE_CURVE ( 'NONE', #240, #234, #202, .T. ) ;
#140 = EDGE_LOOP ( 'NONE', ( #183, #60 ) ) ;
#141 = PRESENTATION_LAYER_ASSIGNMENT (  '', '', ( #211 ) ) ;
#142 =( GEOMETRIC_REPRESENTATION_CONTEXT ( 3 ) GLOBAL_UNCERTAINTY_ASSIGNED_CONTEXT ( ( #215 ) ) GLOBAL_UNIT_ASSIGNED_CONTEXT ( ( #209, #188, #36 ) ) REPRESENTATION_CONTEXT ( 'NONE', 'WORKASPACE' ) );
#143 =( NAMED_UNIT ( * ) SI_UNIT ( $, .STERADIAN. ) SOLID_ANGLE_UNIT ( ) );
#144 = DIRECTION ( 'NONE',  ( -1.000000000000000000, 0.000000000000000000, 0.000000000000000000 ) ) ;
#145 = DIRECTION ( 'NONE',  ( -1.000000000000000000, 0.000000000000000000, 0.000000000000000000 ) ) ;
#146 = CIRCLE ( 'NONE', #71, 5.000000000000000000 ) ;
#147 = CYLINDRICAL_SURFACE ( 'NONE', #11, 5.000000000000000000 ) ;
#148 = DIRECTION ( 'NONE',  ( 0.000000000000000000, 0.000000000000000000, -1.000000000000000000 ) ) ;
#149 = ADVANCED_BREP_SHAPE_REPRESENTATION ( '59482', ( #133, #57, #224 ), #34 ) ;
#150 = ADVANCED_FACE ( 'NONE', ( #70 ), #275, .T. ) ;
#151 = SURFACE_STYLE_FILL_AREA ( #111 ) ;
#152 = STYLED_ITEM ( 'NONE', ( #227 ), #133 ) ;
#153 = DIRECTION ( 'NONE',  ( -0.000000000000000000, -1.000000000000000000, -0.000000000000000000 ) ) ;
#154 = FILL_AREA_STYLE_COLOUR ( '', #130 ) ;
#155 = UNCERTAINTY_MEASURE_WITH_UNIT (LENGTH_MEASURE( 1.000000000000000082E-05 ), #6, 'distance_accuracy_value', 'NONE');
#156 = FACE_OUTER_BOUND ( 'NONE', #242, .T. ) ;
#157 = ADVANCED_FACE ( 'NONE', ( #9 ), #74, .F. ) ;
#158 = STYLED_ITEM ( 'NONE', ( #109 ), #106 ) ;
#159 = SURFACE_STYLE_USAGE ( .BOTH. , #256 ) ;
#160 = APPLICATION_CONTEXT ( 'automotive_design' ) ;
#161 =( NAMED_UNIT ( * ) SI_UNIT ( $, .STERADIAN. ) SOLID_ANGLE_UNIT ( ) );
#162 = APPLICATION_PROTOCOL_DEFINITION ( 'draft international standard', 'automotive_design', 1998, #173 ) ;
#163 = MECHANICAL_DESIGN_GEOMETRIC_PRESENTATION_REPRESENTATION (  '', ( #211 ), #223 ) ;
#164 =( GEOMETRIC_REPRESENTATION_CONTEXT ( 3 ) GLOBAL_UNCERTAINTY_ASSIGNED_CONTEXT ( ( #54 ) ) GLOBAL_UNIT_ASSIGNED_CONTEXT ( ( #30, #136, #161 ) ) REPRESENTATION_CONTEXT ( 'NONE', 'WORKASPACE' ) );
#165 = DIRECTION ( 'NONE',  ( 7.404841111123529214E-17, 1.000000000000000000, -0.000000000000000000 ) ) ;
#166 = ORIENTED_EDGE ( 'NONE', *, *, #114, .F. ) ;
#167 = ORIENTED_EDGE ( 'NONE', *, *, #21, .T. ) ;
#168 = EDGE_CURVE ( 'NONE', #195, #31, #265, .T. ) ;
#169 = ORIENTED_EDGE ( 'NONE', *, *, #252, .T. ) ;
#170 = FILL_AREA_STYLE ('',( #216 ) ) ;
#171 = DIRECTION ( 'NONE',  ( 0.000000000000000000, 0.000000000000000000, 1.000000000000000000 ) ) ;
#172 =( GEOMETRIC_REPRESENTATION_CONTEXT ( 3 ) GLOBAL_UNCERTAINTY_ASSIGNED_CONTEXT ( ( #280 ) ) GLOBAL_UNIT_ASSIGNED_CONTEXT ( ( #248, #222, #203 ) ) REPRESENTATION_CONTEXT ( 'NONE', 'WORKASPACE' ) );
#173 = APPLICATION_CONTEXT ( 'automotive_design' ) ;
#174 = DIRECTION ( 'NONE',  ( -7.404841111123529214E-17, -1.000000000000000000, 0.000000000000000000 ) ) ;
#175 = DIRECTION ( 'NONE',  ( 0.000000000000000000, 0.000000000000000000, -1.000000000000000000 ) ) ;
#176 = EDGE_CURVE ( 'NONE', #107, #195, #276, .T. ) ;
#177 = DIRECTION ( 'NONE',  ( -1.000000000000000000, 0.000000000000000000, 0.000000000000000000 ) ) ;
#178 = CARTESIAN_POINT ( 'NONE',  ( 0.000000000000000000, 0.000000000000000000, -5.000000000000000000 ) ) ;
#179 = DIRECTION ( 'NONE',  ( 0.000000000000000000, 1.000000000000000000, 0.000000000000000000 ) ) ;
#180 = MECHANICAL_DESIGN_GEOMETRIC_PRESENTATION_REPRESENTATION (  '', ( #158 ), #172 ) ;
#181 = PRESENTATION_STYLE_ASSIGNMENT (( #159 ) ) ;
#182 = AXIS2_PLACEMENT_3D ( 'NONE', #53, #132, #145 ) ;
#183 = ORIENTED_EDGE ( 'NONE', *, *, #237, .F. ) ;
#184 = DIRECTION ( 'NONE',  ( 7.404841111123529214E-17, 1.000000000000000000, -0.000000000000000000 ) ) ;
#185 = FILL_AREA_STYLE_COLOUR ( '', #255 ) ;
#186 = ORIENTED_EDGE ( 'NONE', *, *, #13, .T. ) ;
#187 = ADVANCED_FACE ( 'NONE', ( #115 ), #92, .T. ) ;
#188 =( NAMED_UNIT ( * ) PLANE_ANGLE_UNIT ( ) SI_UNIT ( $, .RADIAN. ) );
#189 = EDGE_CURVE ( 'NONE', #234, #55, #279, .T. ) ;
#190 = CARTESIAN_POINT ( 'NONE',  ( 0.000000000000000000, 20.00000000000000000, -5.000000000000000000 ) ) ;
#191 = ORIENTED_EDGE ( 'NONE', *, *, #47, .T. ) ;
#192 = PRODUCT_DEFINITION_FORMATION_WITH_SPECIFIED_SOURCE ( 'ANY', '', #285, .NOT_KNOWN. ) ;
#193 = SURFACE_STYLE_USAGE ( .BOTH. , #127 ) ;
#194 = DIRECTION ( 'NONE',  ( 7.404841111123529214E-17, 1.000000000000000000, -0.000000000000000000 ) ) ;
#195 = VERTEX_POINT ( 'NONE', #229 ) ;
#196 = CIRCLE ( 'NONE', #63, 5.000000000000000000 ) ;
#197 =( GEOMETRIC_REPRESENTATION_CONTEXT ( 3 ) GLOBAL_UNCERTAINTY_ASSIGNED_CONTEXT ( ( #8 ) ) GLOBAL_UNIT_ASSIGNED_CONTEXT ( ( #225, #3, #88 ) ) REPRESENTATION_CONTEXT ( 'NONE', 'WORKASPACE' ) );
#198 = DIRECTION ( 'NONE',  ( 7.404841111123529214E-17, 1.000000000000000000, -0.000000000000000000 ) ) ;
#199 = CARTESIAN_POINT ( 'NONE',  ( 6.123233995736766282E-16, 20.00000000000000000, 5.000000000000000000 ) ) ;
#200 = ADVANCED_FACE ( 'NONE', ( #257 ), #251, .T. ) ;
#201 = CARTESIAN_POINT ( 'NONE',  ( 5.000000000000000000, 63.00000000000000000, 0.000000000000000000 ) ) ;
#202 = CIRCLE ( 'NONE', #287, 5.000000000000000000 ) ;
#203 =( NAMED_UNIT ( * ) SI_UNIT ( $, .STERADIAN. ) SOLID_ANGLE_UNIT ( ) );
#204 = PRODUCT_RELATED_PRODUCT_CATEGORY ( 'part', '', ( #285 ) ) ;
#205 = ORIENTED_EDGE ( 'NONE', *, *, #13, .F. ) ;
#206 = SURFACE_STYLE_FILL_AREA ( #61 ) ;
#207 = EDGE_LOOP ( 'NONE', ( #10, #169, #283, #261 ) ) ;
#208 = DIRECTION ( 'NONE',  ( -0.000000000000000000, -1.000000000000000000, -0.000000000000000000 ) ) ;
#209 =( LENGTH_UNIT ( ) NAMED_UNIT ( * ) SI_UNIT ( .MILLI., .METRE. ) );
#210 = UNCERTAINTY_MEASURE_WITH_UNIT (LENGTH_MEASURE( 1.000000000000000082E-05 ), #272, 'distance_accuracy_value', 'NONE');
#211 = STYLED_ITEM ( 'NONE', ( #79 ), #49 ) ;
#212 = AXIS2_PLACEMENT_3D ( 'NONE', #97, #184, #56 ) ;
#213 = CARTESIAN_POINT ( 'NONE',  ( 0.000000000000000000, 0.000000000000000000, 0.000000000000000000 ) ) ;
#214 = CARTESIAN_POINT ( 'NONE',  ( -4.999999999999992895, 63.00000000000000000, 0.000000000000000000 ) ) ;
#215 = UNCERTAINTY_MEASURE_WITH_UNIT (LENGTH_MEASURE( 1.000000000000000082E-05 ), #209, 'distance_accuracy_value', 'NONE');
#216 = FILL_AREA_STYLE_COLOUR ( '', #4 ) ;
#217 = PRESENTATION_LAYER_ASSIGNMENT (  '', '', ( #137 ) ) ;
#218 = CARTESIAN_POINT ( 'NONE',  ( 0.000000000000000000, 20.00000000000000355, 0.000000000000000000 ) ) ;
#219 =( NAMED_UNIT ( * ) PLANE_ANGLE_UNIT ( ) SI_UNIT ( $, .RADIAN. ) );
#220 = PRODUCT_DEFINITION_SHAPE ( 'NONE', 'NONE',  #249 ) ;
#221 = LINE ( 'NONE', #267, #40 ) ;
#222 =( NAMED_UNIT ( * ) PLANE_ANGLE_UNIT ( ) SI_UNIT ( $, .RADIAN. ) );
#223 =( GEOMETRIC_REPRESENTATION_CONTEXT ( 3 ) GLOBAL_UNCERTAINTY_ASSIGNED_CONTEXT ( ( #81 ) ) GLOBAL_UNIT_ASSIGNED_CONTEXT ( ( #83, #219, #143 ) ) REPRESENTATION_CONTEXT ( 'NONE', 'WORKASPACE' ) );
#224 = AXIS2_PLACEMENT_3D ( 'NONE', #85, #171, #277 ) ;
#225 =( LENGTH_UNIT ( ) NAMED_UNIT ( * ) SI_UNIT ( .MILLI., .METRE. ) );
#226 = PLANE ( 'NONE',  #101 ) ;
#227 = PRESENTATION_STYLE_ASSIGNMENT (( #87 ) ) ;
#228 = SURFACE_SIDE_STYLE ('',( #151 ) ) ;
#229 = CARTESIAN_POINT ( 'NONE',  ( 6.123233995736766282E-16, 0.000000000000000000, 5.000000000000000000 ) ) ;
#230 = ORIENTED_EDGE ( 'NONE', *, *, #24, .F. ) ;
#231 = EDGE_CURVE ( 'NONE', #240, #43, #221, .T. ) ;
#232 = MECHANICAL_DESIGN_GEOMETRIC_PRESENTATION_REPRESENTATION (  '', ( #152 ), #197 ) ;
#233 = PRESENTATION_STYLE_ASSIGNMENT (( #58 ) ) ;
#234 = VERTEX_POINT ( 'NONE', #286 ) ;
#235 = ORIENTED_EDGE ( 'NONE', *, *, #21, .F. ) ;
#236 = CARTESIAN_POINT ( 'NONE',  ( 0.000000000000000000, 0.000000000000000000, 0.000000000000000000 ) ) ;
#237 = EDGE_CURVE ( 'NONE', #95, #107, #146, .T. ) ;
#238 = DIRECTION ( 'NONE',  ( 0.000000000000000000, 0.000000000000000000, -1.000000000000000000 ) ) ;
#239 = AXIS2_PLACEMENT_3D ( 'NONE', #23, #269, #175 ) ;
#240 = VERTEX_POINT ( 'NONE', #105 ) ;
#241 = DIRECTION ( 'NONE',  ( 7.404841111123529214E-17, 1.000000000000000000, -0.000000000000000000 ) ) ;
#242 = EDGE_LOOP ( 'NONE', ( #186, #12 ) ) ;
#243 = PRESENTATION_LAYER_ASSIGNMENT (  '', '', ( #76 ) ) ;
#244 = COLOUR_RGB ( '',0.7921568627450980005, 0.8196078431372548767, 0.9333333333333333481 ) ;
#245 = DIRECTION ( 'NONE',  ( 0.000000000000000000, 0.000000000000000000, -1.000000000000000000 ) ) ;
#246 = LINE ( 'NONE', #178, #17 ) ;
#247 = AXIS2_PLACEMENT_3D ( 'NONE', #274, #94, #38 ) ;
#248 =( LENGTH_UNIT ( ) NAMED_UNIT ( * ) SI_UNIT ( .MILLI., .METRE. ) );
#249 = PRODUCT_DEFINITION ( 'UNKNOWN', '', #192, #93 ) ;
#250 = AXIS2_PLACEMENT_3D ( 'NONE', #126, #194, #259 ) ;
#251 = CYLINDRICAL_SURFACE ( 'NONE', #182, 4.999999999999998224 ) ;
#252 = EDGE_CURVE ( 'NONE', #107, #95, #96, .T. ) ;
#253 = CARTESIAN_POINT ( 'NONE',  ( 6.123233995736766282E-16, 0.000000000000000000, 5.000000000000000000 ) ) ;
#254 = AXIS2_PLACEMENT_3D ( 'NONE', #104, #124, #144 ) ;
#255 = COLOUR_RGB ( '',1.000000000000000000, 0.000000000000000000, 0.000000000000000000 ) ;
#256 = SURFACE_SIDE_STYLE ('',( #206 ) ) ;
#257 = FACE_OUTER_BOUND ( 'NONE', #82, .T. ) ;
#258 = ORIENTED_EDGE ( 'NONE', *, *, #24, .T. ) ;
#259 = DIRECTION ( 'NONE',  ( -1.000000000000000000, 0.000000000000000000, 0.000000000000000000 ) ) ;
#260 = CIRCLE ( 'NONE', #282, 4.999999999999996447 ) ;
#261 = ORIENTED_EDGE ( 'NONE', *, *, #168, .F. ) ;
#262 = DIRECTION ( 'NONE',  ( -1.000000000000000000, 0.000000000000000000, 0.000000000000000000 ) ) ;
#263 = FACE_OUTER_BOUND ( 'NONE', #75, .T. ) ;
#264 =( GEOMETRIC_REPRESENTATION_CONTEXT ( 3 ) GLOBAL_UNCERTAINTY_ASSIGNED_CONTEXT ( ( #210 ) ) GLOBAL_UNIT_ASSIGNED_CONTEXT ( ( #272, #268, #50 ) ) REPRESENTATION_CONTEXT ( 'NONE', 'WORKASPACE' ) );
#265 = CIRCLE ( 'NONE', #247, 5.000000000000000000 ) ;
#266 = SURFACE_STYLE_USAGE ( .BOTH. , #102 ) ;
#267 = CARTESIAN_POINT ( 'NONE',  ( -4.999999999999994671, 63.00000000000000000, 0.000000000000000000 ) ) ;
#268 =( NAMED_UNIT ( * ) PLANE_ANGLE_UNIT ( ) SI_UNIT ( $, .RADIAN. ) );
#269 = DIRECTION ( 'NONE',  ( -0.000000000000000000, -1.000000000000000000, -0.000000000000000000 ) ) ;
#270 = DIRECTION ( 'NONE',  ( 0.000000000000000000, 0.000000000000000000, -1.000000000000000000 ) ) ;
#271 = COLOUR_RGB ( '',1.000000000000000000, 0.000000000000000000, 0.000000000000000000 ) ;
#272 =( LENGTH_UNIT ( ) NAMED_UNIT ( * ) SI_UNIT ( .MILLI., .METRE. ) );
#273 = SHAPE_DEFINITION_REPRESENTATION ( #220, #149 ) ;
#274 = CARTESIAN_POINT ( 'NONE',  ( 0.000000000000000000, 0.000000000000000000, 0.000000000000000000 ) ) ;
#275 = CYLINDRICAL_SURFACE ( 'NONE', #52, 5.000000000000000000 ) ;
#276 = LINE ( 'NONE', #253, #117 ) ;
#277 = DIRECTION ( 'NONE',  ( 1.000000000000000000, 0.000000000000000000, 0.000000000000000000 ) ) ;
#278 = PRESENTATION_LAYER_ASSIGNMENT (  '', '', ( #122 ) ) ;
#279 = LINE ( 'NONE', #77, #112 ) ;
#280 = UNCERTAINTY_MEASURE_WITH_UNIT (LENGTH_MEASURE( 1.000000000000000082E-05 ), #248, 'distance_accuracy_value', 'NONE');
#281 = DIRECTION ( 'NONE',  ( 7.404841111123529214E-17, 1.000000000000000000, -0.000000000000000000 ) ) ;
#282 = AXIS2_PLACEMENT_3D ( 'NONE', #15, #281, #262 ) ;
#283 = ORIENTED_EDGE ( 'NONE', *, *, #114, .T. ) ;
#284 = ADVANCED_FACE ( 'NONE', ( #67 ), #22, .F. ) ;
#285 = PRODUCT ( '59482', '59482', '', ( #28 ) ) ;
#286 = CARTESIAN_POINT ( 'NONE',  ( 5.000000000000000000, 20.00000000000000355, 6.123233995736765296E-16 ) ) ;
#287 = AXIS2_PLACEMENT_3D ( 'NONE', #1, #90, #177 ) ;
#288 =( NAMED_UNIT ( * ) PLANE_ANGLE_UNIT ( ) SI_UNIT ( $, .RADIAN. ) );
ENDSEC;
END-ISO-10303-21;
