ISO-10303-21;
HEADER;
FILE_DESCRIPTION (( 'STEP AP214' ),
    '1' );
FILE_NAME ('Micro_BMR-015-2X.STEP',
    '2021-09-03T13:45:25',
    ( '' ),
    ( '' ),
    'SwSTEP 2.0',
    'SolidWorks 2020',
    '' );
FILE_SCHEMA (( 'AUTOMOTIVE_DESIGN' ));
ENDSEC;

DATA;
#1 = DIRECTION ( 'NONE',  ( -1.000000000000000000, 0.0000000000000000000, 0.0000000000000000000 ) ) ;
#2 = AXIS2_PLACEMENT_3D ( 'NONE', #271, #71, #47 ) ;
#3 = EDGE_LOOP ( 'NONE', ( #76, #160, #308, #24 ) ) ;
#4 = EDGE_CURVE ( 'NONE', #25, #235, #39, .T. ) ;
#5 = ORIENTED_EDGE ( 'NONE', *, *, #4, .F. ) ;
#6 =( NAMED_UNIT ( * ) SI_UNIT ( $, .STERADIAN. ) SOLID_ANGLE_UNIT ( ) );
#7 = ORIENTED_EDGE ( 'NONE', *, *, #58, .F. ) ;
#8 = UNCERTAINTY_MEASURE_WITH_UNIT (LENGTH_MEASURE( 1.000000000000000082E-05 ), #144, 'distance_accuracy_value', 'NONE');
#9 = ORIENTED_EDGE ( 'NONE', *, *, #256, .F. ) ;
#10 = CARTESIAN_POINT ( 'NONE',  ( 0.0000000000000000000, 0.0000000000000000000, 1.500000000000000222 ) ) ;
#11 = ORIENTED_EDGE ( 'NONE', *, *, #178, .F. ) ;
#12 = AXIS2_PLACEMENT_3D ( 'NONE', #150, #228, #156 ) ;
#13 = DIRECTION ( 'NONE',  ( 0.0000000000000000000, 0.0000000000000000000, 1.000000000000000000 ) ) ;
#14 = DIRECTION ( 'NONE',  ( 0.0000000000000000000, 0.0000000000000000000, -1.000000000000000000 ) ) ;
#15 = CARTESIAN_POINT ( 'NONE',  ( -0.007492499999999999161, 0.0000000000000000000, 0.007492500000000001763 ) ) ;
#16 = AXIS2_PLACEMENT_3D ( 'NONE', #167, #111, #65 ) ;
#17 = FILL_AREA_STYLE_COLOUR ( '', #63 ) ;
#18 = DIRECTION ( 'NONE',  ( 1.000000000000000000, 0.0000000000000000000, 0.0000000000000000000 ) ) ;
#19 = DIRECTION ( 'NONE',  ( 0.0000000000000000000, 0.0000000000000000000, -1.000000000000000000 ) ) ;
#20 = AXIS2_PLACEMENT_3D ( 'NONE', #83, #145, #85 ) ;
#21 = LINE ( 'NONE', #75, #98 ) ;
#22 = EDGE_CURVE ( 'NONE', #282, #25, #277, .T. ) ;
#23 = DIRECTION ( 'NONE',  ( 0.0000000000000000000, 0.0000000000000000000, -1.000000000000000000 ) ) ;
#24 = ORIENTED_EDGE ( 'NONE', *, *, #36, .T. ) ;
#25 = VERTEX_POINT ( 'NONE', #89 ) ;
#26 = LINE ( 'NONE', #325, #300 ) ;
#27 = CLOSED_SHELL ( 'NONE', ( #129, #190, #203, #169, #191, #72, #319, #291, #257, #236, #116 ) ) ;
#28 = VERTEX_POINT ( 'NONE', #15 ) ;
#29 = AXIS2_PLACEMENT_3D ( 'NONE', #243, #298, #226 ) ;
#30 = PRESENTATION_LAYER_ASSIGNMENT (  '', '', ( #92 ) ) ;
#31 = VERTEX_POINT ( 'NONE', #220 ) ;
#32 = VERTEX_POINT ( 'NONE', #292 ) ;
#33 = AXIS2_PLACEMENT_3D ( 'NONE', #43, #249, #297 ) ;
#34 = EDGE_CURVE ( 'NONE', #279, #51, #147, .T. ) ;
#35 = FACE_OUTER_BOUND ( 'NONE', #53, .T. ) ;
#36 = EDGE_CURVE ( 'NONE', #28, #104, #125, .T. ) ;
#37 = SURFACE_STYLE_USAGE ( .BOTH. , #286 ) ;
#38 = FACE_OUTER_BOUND ( 'NONE', #223, .T. ) ;
#39 = CIRCLE ( 'NONE', #97, 0.06250000000000002776 ) ;
#40 = AXIS2_PLACEMENT_3D ( 'NONE', #177, #122, #227 ) ;
#41 = CARTESIAN_POINT ( 'NONE',  ( 0.0000000000000000000, 0.0000000000000000000, 1.500000000000000222 ) ) ;
#42 = FACE_OUTER_BOUND ( 'NONE', #212, .T. ) ;
#43 = CARTESIAN_POINT ( 'NONE',  ( 5.510910596163090326E-18, 0.0000000000000000000, 0.04499999999999999833 ) ) ;
#44 = PRESENTATION_LAYER_ASSIGNMENT (  '', '', ( #186 ) ) ;
#45 = DIRECTION ( 'NONE',  ( 1.224646799147353454E-16, 0.0000000000000000000, 1.000000000000000000 ) ) ;
#46 = EDGE_CURVE ( 'NONE', #181, #51, #287, .T. ) ;
#47 = DIRECTION ( 'NONE',  ( 1.000000000000000000, 0.0000000000000000000, 0.0000000000000000000 ) ) ;
#48 = FACE_OUTER_BOUND ( 'NONE', #253, .T. ) ;
#49 = APPLICATION_CONTEXT ( 'automotive_design' ) ;
#50 = CIRCLE ( 'NONE', #33, 0.007492500000000000028 ) ;
#51 = VERTEX_POINT ( 'NONE', #197 ) ;
#52 = ORIENTED_EDGE ( 'NONE', *, *, #293, .T. ) ;
#53 = EDGE_LOOP ( 'NONE', ( #9, #56, #216 ) ) ;
#54 = UNCERTAINTY_MEASURE_WITH_UNIT (LENGTH_MEASURE( 1.000000000000000082E-05 ), #306, 'distance_accuracy_value', 'NONE');
#55 = CARTESIAN_POINT ( 'NONE',  ( 0.007492500000000006100, 0.0000000000000000000, 0.04499999999999999833 ) ) ;
#56 = ORIENTED_EDGE ( 'NONE', *, *, #248, .T. ) ;
#57 = VECTOR ( 'NONE', #138, 39.37007874015748854 ) ;
#58 = EDGE_CURVE ( 'NONE', #32, #279, #114, .T. ) ;
#59 = ORIENTED_EDGE ( 'NONE', *, *, #281, .T. ) ;
#60 = DIRECTION ( 'NONE',  ( 0.0000000000000000000, 0.0000000000000000000, 1.000000000000000000 ) ) ;
#61 = CARTESIAN_POINT ( 'NONE',  ( 4.371536378502421744E-17, 0.0000000000000000000, 0.3569630346926195297 ) ) ;
#62 = SURFACE_STYLE_FILL_AREA ( #141 ) ;
#63 = COLOUR_RGB ( '',0.7921568627450980005, 0.8196078431372548767, 0.9333333333333333481 ) ;
#64 = CYLINDRICAL_SURFACE ( 'NONE', #262, 0.06250000000000002776 ) ;
#65 = DIRECTION ( 'NONE',  ( -1.000000000000000000, 0.0000000000000000000, 1.424261758458595593E-16 ) ) ;
#66 = CONICAL_SURFACE ( 'NONE', #29, 0.04750000000000064587, 0.7853981633974466137 ) ;
#67 = FACE_OUTER_BOUND ( 'NONE', #155, .T. ) ;
#68 = DIMENSIONAL_EXPONENTS ( 1.000000000000000000, 0.0000000000000000000, 0.0000000000000000000, 0.0000000000000000000, 0.0000000000000000000, 0.0000000000000000000, 0.0000000000000000000 ) ;
#69 =( NAMED_UNIT ( * ) SI_UNIT ( $, .STERADIAN. ) SOLID_ANGLE_UNIT ( ) );
#70 = EDGE_CURVE ( 'NONE', #235, #25, #310, .T. ) ;
#71 = DIRECTION ( 'NONE',  ( 1.224646799147353454E-16, 0.0000000000000000000, 1.000000000000000000 ) ) ;
#72 = ADVANCED_FACE ( 'NONE', ( #222 ), #64, .T. ) ;
#73 = AXIS2_PLACEMENT_3D ( 'NONE', #250, #324, #23 ) ;
#74 = CARTESIAN_POINT ( 'NONE',  ( 0.06250000000000006939, 7.654042494670963708E-18, 0.3569630346926195297 ) ) ;
#75 = CARTESIAN_POINT ( 'NONE',  ( -0.06250000000000002776, 0.0000000000000000000, 1.500000000000000222 ) ) ;
#76 = ORIENTED_EDGE ( 'NONE', *, *, #78, .F. ) ;
#77 = FACE_OUTER_BOUND ( 'NONE', #285, .T. ) ;
#78 = EDGE_CURVE ( 'NONE', #31, #104, #265, .T. ) ;
#79 = VERTEX_POINT ( 'NONE', #118 ) ;
#80 = LINE ( 'NONE', #55, #247 ) ;
#81 = ORIENTED_EDGE ( 'NONE', *, *, #178, .T. ) ;
#82 = DIRECTION ( 'NONE',  ( 1.000000000000000000, 0.0000000000000000000, 0.0000000000000000000 ) ) ;
#83 = CARTESIAN_POINT ( 'NONE',  ( 9.175666142611546005E-19, 0.0000000000000000000, 0.007492500000000000028 ) ) ;
#84 = SHAPE_DEFINITION_REPRESENTATION ( #96, #153 ) ;
#85 = DIRECTION ( 'NONE',  ( 1.000000000000000000, 0.0000000000000000000, 0.0000000000000000000 ) ) ;
#86 =( GEOMETRIC_REPRESENTATION_CONTEXT ( 3 ) GLOBAL_UNCERTAINTY_ASSIGNED_CONTEXT ( ( #54 ) ) GLOBAL_UNIT_ASSIGNED_CONTEXT ( ( #306, #188, #6 ) ) REPRESENTATION_CONTEXT ( 'NONE', 'WORKASPACE' ) );
#87 = CARTESIAN_POINT ( 'NONE',  ( 0.0000000000000000000, 0.0000000000000000000, 0.0000000000000000000 ) ) ;
#88 = DIRECTION ( 'NONE',  ( -1.224646799147353454E-16, -0.0000000000000000000, -1.000000000000000000 ) ) ;
#89 = CARTESIAN_POINT ( 'NONE',  ( -0.06249999999999997918, 0.0000000000000000000, 0.3569630346926195297 ) ) ;
#90 = DIRECTION ( 'NONE',  ( -0.0000000000000000000, -0.0000000000000000000, -1.000000000000000000 ) ) ;
#91 = AXIS2_PLACEMENT_3D ( 'NONE', #123, #19, #133 ) ;
#92 = STYLED_ITEM ( 'NONE', ( #161 ), #153 ) ;
#93 = CARTESIAN_POINT ( 'NONE',  ( 9.175666142611546005E-19, 0.0000000000000000000, 0.007492500000000000028 ) ) ;
#94 = DIMENSIONAL_EXPONENTS ( 1.000000000000000000, 0.0000000000000000000, 0.0000000000000000000, 0.0000000000000000000, 0.0000000000000000000, 0.0000000000000000000, 0.0000000000000000000 ) ;
#95 = CARTESIAN_POINT ( 'NONE',  ( 5.510910596163090326E-18, 0.0000000000000000000, 0.04499999999999999833 ) ) ;
#96 = PRODUCT_DEFINITION_SHAPE ( 'NONE', 'NONE',  #120 ) ;
#97 = AXIS2_PLACEMENT_3D ( 'NONE', #311, #252, #82 ) ;
#98 = VECTOR ( 'NONE', #90, 39.37007874015748143 ) ;
#99 = CARTESIAN_POINT ( 'NONE',  ( 0.06250000000000002776, 7.654042494670959086E-18, 1.485000000000000764 ) ) ;
#100 = ORIENTED_EDGE ( 'NONE', *, *, #293, .F. ) ;
#101 = DIMENSIONAL_EXPONENTS ( 1.000000000000000000, 0.0000000000000000000, 0.0000000000000000000, 0.0000000000000000000, 0.0000000000000000000, 0.0000000000000000000, 0.0000000000000000000 ) ;
#102 = ORIENTED_EDGE ( 'NONE', *, *, #22, .F. ) ;
#103 = EDGE_CURVE ( 'NONE', #279, #235, #267, .T. ) ;
#104 = VERTEX_POINT ( 'NONE', #171 ) ;
#105 = EDGE_LOOP ( 'NONE', ( #11, #211, #231, #207 ) ) ;
#106 = DIRECTION ( 'NONE',  ( 0.1736481776669314137, 0.0000000000000000000, 0.9848077530122077983 ) ) ;
#107 = ORIENTED_EDGE ( 'NONE', *, *, #315, .T. ) ;
#108 = MECHANICAL_DESIGN_GEOMETRIC_PRESENTATION_REPRESENTATION (  '', ( #186 ), #232 ) ;
#109 = COLOUR_RGB ( '',0.7921568627450980005, 0.8196078431372548767, 0.9333333333333333481 ) ;
#110 =( NAMED_UNIT ( * ) PLANE_ANGLE_UNIT ( ) SI_UNIT ( $, .RADIAN. ) );
#111 = DIRECTION ( 'NONE',  ( 1.224646799147353454E-16, 0.0000000000000000000, 1.000000000000000000 ) ) ;
#112 = CARTESIAN_POINT ( 'NONE',  ( 0.0000000000000000000, 0.0000000000000000000, 1.500000000000000222 ) ) ;
#113 = APPLICATION_PROTOCOL_DEFINITION ( 'draft international standard', 'automotive_design', 1998, #49 ) ;
#114 = LINE ( 'NONE', #224, #316 ) ;
#115 = CIRCLE ( 'NONE', #199, 0.007492500000000000028 ) ;
#116 = ADVANCED_FACE ( 'NONE', ( #38 ), #320, .T. ) ;
#117 = PRESENTATION_STYLE_ASSIGNMENT (( #244 ) ) ;
#118 = CARTESIAN_POINT ( 'NONE',  ( 1.376349921391731997E-18, 0.0000000000000000000, 0.0000000000000000000 ) ) ;
#119 = DIRECTION ( 'NONE',  ( -1.000000000000000000, 0.0000000000000000000, 1.424261758458595593E-16 ) ) ;
#120 = PRODUCT_DEFINITION ( 'UNKNOWN', '', #317, #217 ) ;
#121 = CONICAL_SURFACE ( 'NONE', #91, 0.04750000000000064587, 0.7853981633974466137 ) ;
#122 = DIRECTION ( 'NONE',  ( -0.0000000000000000000, -0.0000000000000000000, -1.000000000000000000 ) ) ;
#123 = CARTESIAN_POINT ( 'NONE',  ( 0.0000000000000000000, 0.0000000000000000000, 1.500000000000000222 ) ) ;
#124 = FACE_OUTER_BOUND ( 'NONE', #105, .T. ) ;
#125 = CIRCLE ( 'NONE', #16, 0.007492500000000000028 ) ;
#126 = DIRECTION ( 'NONE',  ( -0.1736481776669312194, 2.126576849575783625E-17, 0.9848077530122080203 ) ) ;
#127 = ORIENTED_EDGE ( 'NONE', *, *, #46, .F. ) ;
#128 = EDGE_CURVE ( 'NONE', #32, #181, #322, .T. ) ;
#129 = ADVANCED_FACE ( 'NONE', ( #35 ), #195, .T. ) ;
#130 =( NAMED_UNIT ( * ) PLANE_ANGLE_UNIT ( ) SI_UNIT ( $, .RADIAN. ) );
#131 = AXIS2_PLACEMENT_3D ( 'NONE', #242, #14, #170 ) ;
#132 = ORIENTED_EDGE ( 'NONE', *, *, #34, .F. ) ;
#133 = DIRECTION ( 'NONE',  ( -1.000000000000000000, 0.0000000000000000000, 0.0000000000000000000 ) ) ;
#134 = ORIENTED_EDGE ( 'NONE', *, *, #46, .T. ) ;
#135 = LENGTH_MEASURE_WITH_UNIT ( LENGTH_MEASURE( 0.02539999999999999897 ), #240 );
#136 = DIRECTION ( 'NONE',  ( 1.000000000000000000, 0.0000000000000000000, 0.0000000000000000000 ) ) ;
#137 = ORIENTED_EDGE ( 'NONE', *, *, #70, .T. ) ;
#138 = DIRECTION ( 'NONE',  ( -0.7071067811865462405, 0.0000000000000000000, -0.7071067811865486830 ) ) ;
#139 = AXIS2_PLACEMENT_3D ( 'NONE', #246, #269, #202 ) ;
#140 = FILL_AREA_STYLE ('',( #284 ) ) ;
#141 = FILL_AREA_STYLE ('',( #17 ) ) ;
#142 = SURFACE_STYLE_FILL_AREA ( #140 ) ;
#143 = DIRECTION ( 'NONE',  ( 0.0000000000000000000, 1.000000000000000000, 0.0000000000000000000 ) ) ;
#144 =( CONVERSION_BASED_UNIT ( 'INCH', #135 ) LENGTH_UNIT ( ) NAMED_UNIT ( #94 ) );
#145 = DIRECTION ( 'NONE',  ( 0.0000000000000000000, 1.000000000000000000, 0.0000000000000000000 ) ) ;
#146 = APPLICATION_CONTEXT ( 'automotive_design' ) ;
#147 = CIRCLE ( 'NONE', #131, 0.06250000000000002776 ) ;
#148 = DIRECTION ( 'NONE',  ( 1.000000000000000000, 0.0000000000000000000, 0.0000000000000000000 ) ) ;
#149 = DIRECTION ( 'NONE',  ( 1.224646799147353454E-16, 0.0000000000000000000, 1.000000000000000000 ) ) ;
#150 = CARTESIAN_POINT ( 'NONE',  ( 0.0000000000000000000, 0.0000000000000000000, 1.485000000000000764 ) ) ;
#151 = DIRECTION ( 'NONE',  ( -1.224646799147353454E-16, -0.0000000000000000000, -1.000000000000000000 ) ) ;
#152 = CYLINDRICAL_SURFACE ( 'NONE', #139, 0.007492500000000000028 ) ;
#153 = ADVANCED_BREP_SHAPE_REPRESENTATION ( 'Micro_BMR-015-2X', ( #166, #200 ), #86 ) ;
#154 = CARTESIAN_POINT ( 'NONE',  ( -0.007492499999999994824, 9.175666142611544079E-19, 0.04499999999999999833 ) ) ;
#155 = EDGE_LOOP ( 'NONE', ( #283, #307, #5, #183 ) ) ;
#156 = DIRECTION ( 'NONE',  ( 1.000000000000000000, 0.0000000000000000000, 0.0000000000000000000 ) ) ;
#157 = ORIENTED_EDGE ( 'NONE', *, *, #272, .F. ) ;
#158 = DIRECTION ( 'NONE',  ( 0.0000000000000000000, 0.0000000000000000000, 1.000000000000000000 ) ) ;
#159 = CONICAL_SURFACE ( 'NONE', #2, 0.007492500000000000028, 0.1745329251994339192 ) ;
#160 = ORIENTED_EDGE ( 'NONE', *, *, #272, .T. ) ;
#161 = PRESENTATION_STYLE_ASSIGNMENT (( #37 ) ) ;
#162 = DIRECTION ( 'NONE',  ( 1.000000000000000000, 0.0000000000000000000, -0.0000000000000000000 ) ) ;
#163 = ORIENTED_EDGE ( 'NONE', *, *, #256, .T. ) ;
#164 =( NAMED_UNIT ( * ) SI_UNIT ( $, .STERADIAN. ) SOLID_ANGLE_UNIT ( ) );
#165 = LENGTH_MEASURE_WITH_UNIT ( LENGTH_MEASURE( 0.02539999999999999897 ), #321 );
#166 = MANIFOLD_SOLID_BREP ( 'Fillet1', #27 ) ;
#167 = CARTESIAN_POINT ( 'NONE',  ( 9.175666142611546005E-19, 0.0000000000000000000, 0.007492500000000000028 ) ) ;
#168 = DIRECTION ( 'NONE',  ( -1.224646799147353454E-16, -0.0000000000000000000, -1.000000000000000000 ) ) ;
#169 = ADVANCED_FACE ( 'NONE', ( #323 ), #66, .T. ) ;
#170 = DIRECTION ( 'NONE',  ( 1.000000000000000000, 0.0000000000000000000, 0.0000000000000000000 ) ) ;
#171 = CARTESIAN_POINT ( 'NONE',  ( 0.007492500000000001763, 9.175666142611544079E-19, 0.007492499999999999161 ) ) ;
#172 = CARTESIAN_POINT ( 'NONE',  ( 5.510910596163090326E-18, 0.0000000000000000000, 0.04499999999999999833 ) ) ;
#173 = CARTESIAN_POINT ( 'NONE',  ( -0.04750000000000064587, 0.0000000000000000000, 1.500000000000000222 ) ) ;
#174 = CYLINDRICAL_SURFACE ( 'NONE', #205, 0.007492500000000000028 ) ;
#175 = AXIS2_PLACEMENT_3D ( 'NONE', #172, #45, #254 ) ;
#176 = CARTESIAN_POINT ( 'NONE',  ( 9.175666142611546005E-19, 0.0000000000000000000, 0.007492500000000000028 ) ) ;
#177 = CARTESIAN_POINT ( 'NONE',  ( 0.0000000000000000000, 0.0000000000000000000, 1.500000000000000222 ) ) ;
#178 = EDGE_CURVE ( 'NONE', #282, #31, #50, .T. ) ;
#179 = CIRCLE ( 'NONE', #73, 0.007492500000000000028 ) ;
#180 = ORIENTED_EDGE ( 'NONE', *, *, #103, .F. ) ;
#181 = VERTEX_POINT ( 'NONE', #173 ) ;
#182 = UNCERTAINTY_MEASURE_WITH_UNIT (LENGTH_MEASURE( 1.000000000000000082E-05 ), #261, 'distance_accuracy_value', 'NONE');
#183 = ORIENTED_EDGE ( 'NONE', *, *, #281, .F. ) ;
#184 = LENGTH_MEASURE_WITH_UNIT ( LENGTH_MEASURE( 0.02539999999999999897 ), #214 );
#185 = EDGE_LOOP ( 'NONE', ( #180, #196, #59, #294 ) ) ;
#186 = STYLED_ITEM ( 'NONE', ( #117 ), #166 ) ;
#187 = EDGE_LOOP ( 'NONE', ( #102, #157, #107, #137 ) ) ;
#188 =( NAMED_UNIT ( * ) PLANE_ANGLE_UNIT ( ) SI_UNIT ( $, .RADIAN. ) );
#189 = CARTESIAN_POINT ( 'NONE',  ( 9.175666142611546005E-19, 0.0000000000000000000, 0.007492500000000000028 ) ) ;
#190 = ADVANCED_FACE ( 'NONE', ( #48 ), #152, .T. ) ;
#191 = ADVANCED_FACE ( 'NONE', ( #67 ), #299, .T. ) ;
#192 = AXIS2_PLACEMENT_3D ( 'NONE', #259, #158, #162 ) ;
#193 = SURFACE_SIDE_STYLE ('',( #62 ) ) ;
#194 = DIRECTION ( 'NONE',  ( 1.000000000000000000, 0.0000000000000000000, 0.0000000000000000000 ) ) ;
#195 = SPHERICAL_SURFACE ( 'NONE', #20, 0.007492500000000000028 ) ;
#196 = ORIENTED_EDGE ( 'NONE', *, *, #34, .T. ) ;
#197 = CARTESIAN_POINT ( 'NONE',  ( -0.06250000000000002776, 0.0000000000000000000, 1.485000000000000764 ) ) ;
#198 = CARTESIAN_POINT ( 'NONE',  ( -0.007492499999999994824, 4.285804554466057710E-18, 0.04499999999999999833 ) ) ;
#199 = AXIS2_PLACEMENT_3D ( 'NONE', #95, #151, #1 ) ;
#200 = AXIS2_PLACEMENT_3D ( 'NONE', #87, #213, #194 ) ;
#201 = DIRECTION ( 'NONE',  ( -1.000000000000000000, 1.224646799147353207E-16, 0.0000000000000000000 ) ) ;
#202 = DIRECTION ( 'NONE',  ( -1.000000000000000000, 0.0000000000000000000, 1.224646799147353454E-16 ) ) ;
#203 = ADVANCED_FACE ( 'NONE', ( #124 ), #159, .T. ) ;
#204 = PRODUCT_RELATED_PRODUCT_CATEGORY ( 'part', '', ( #318 ) ) ;
#205 = AXIS2_PLACEMENT_3D ( 'NONE', #276, #302, #245 ) ;
#206 = DIRECTION ( 'NONE',  ( -1.224646799147353454E-16, -0.0000000000000000000, -1.000000000000000000 ) ) ;
#207 = ORIENTED_EDGE ( 'NONE', *, *, #315, .F. ) ;
#208 = VECTOR ( 'NONE', #290, 39.37007874015748143 ) ;
#209 = ORIENTED_EDGE ( 'NONE', *, *, #128, .T. ) ;
#210 = PLANE ( 'NONE',  #192 ) ;
#211 = ORIENTED_EDGE ( 'NONE', *, *, #22, .T. ) ;
#212 = EDGE_LOOP ( 'NONE', ( #7, #100, #134, #132 ) ) ;
#213 = DIRECTION ( 'NONE',  ( 0.0000000000000000000, 0.0000000000000000000, 1.000000000000000000 ) ) ;
#214 =( LENGTH_UNIT ( ) NAMED_UNIT ( * ) SI_UNIT ( $, .METRE. ) );
#215 = AXIS2_PLACEMENT_3D ( 'NONE', #176, #275, #201 ) ;
#216 = ORIENTED_EDGE ( 'NONE', *, *, #219, .F. ) ;
#217 = PRODUCT_DEFINITION_CONTEXT ( 'detailed design', #146, 'design' ) ;
#218 = DIRECTION ( 'NONE',  ( 0.7071067811865462405, 8.659560562354916834E-17, -0.7071067811865486830 ) ) ;
#219 = EDGE_CURVE ( 'NONE', #104, #28, #229, .T. ) ;
#220 = CARTESIAN_POINT ( 'NONE',  ( 0.007492500000000006100, 0.0000000000000000000, 0.04499999999999999833 ) ) ;
#221 = AXIS2_PLACEMENT_3D ( 'NONE', #93, #149, #119 ) ;
#222 = FACE_OUTER_BOUND ( 'NONE', #185, .T. ) ;
#223 = EDGE_LOOP ( 'NONE', ( #255, #163, #301 ) ) ;
#224 = CARTESIAN_POINT ( 'NONE',  ( 0.04750000000000064587, 5.817072295950006528E-18, 1.500000000000000222 ) ) ;
#225 = AXIS2_PLACEMENT_3D ( 'NONE', #41, #13, #148 ) ;
#226 = DIRECTION ( 'NONE',  ( -1.000000000000000000, 0.0000000000000000000, 0.0000000000000000000 ) ) ;
#227 = DIRECTION ( 'NONE',  ( -1.000000000000000000, 0.0000000000000000000, 0.0000000000000000000 ) ) ;
#228 = DIRECTION ( 'NONE',  ( 0.0000000000000000000, 0.0000000000000000000, -1.000000000000000000 ) ) ;
#229 = CIRCLE ( 'NONE', #221, 0.007492500000000000028 ) ;
#230 = ORIENTED_EDGE ( 'NONE', *, *, #280, .F. ) ;
#231 = ORIENTED_EDGE ( 'NONE', *, *, #4, .T. ) ;
#232 =( GEOMETRIC_REPRESENTATION_CONTEXT ( 3 ) GLOBAL_UNCERTAINTY_ASSIGNED_CONTEXT ( ( #182 ) ) GLOBAL_UNIT_ASSIGNED_CONTEXT ( ( #261, #130, #69 ) ) REPRESENTATION_CONTEXT ( 'NONE', 'WORKASPACE' ) );
#233 = FACE_OUTER_BOUND ( 'NONE', #3, .T. ) ;
#234 = MECHANICAL_DESIGN_GEOMETRIC_PRESENTATION_REPRESENTATION (  '', ( #92 ), #268 ) ;
#235 = VERTEX_POINT ( 'NONE', #74 ) ;
#236 = ADVANCED_FACE ( 'NONE', ( #233 ), #174, .T. ) ;
#237 = ORIENTED_EDGE ( 'NONE', *, *, #58, .T. ) ;
#238 = ORIENTED_EDGE ( 'NONE', *, *, #78, .T. ) ;
#239 = CIRCLE ( 'NONE', #304, 0.04750000000000064587 ) ;
#240 =( LENGTH_UNIT ( ) NAMED_UNIT ( * ) SI_UNIT ( $, .METRE. ) );
#241 = CARTESIAN_POINT ( 'NONE',  ( -0.04750000000000064587, 0.0000000000000000000, 1.500000000000000222 ) ) ;
#242 = CARTESIAN_POINT ( 'NONE',  ( 0.0000000000000000000, 0.0000000000000000000, 1.485000000000000764 ) ) ;
#243 = CARTESIAN_POINT ( 'NONE',  ( 0.0000000000000000000, 0.0000000000000000000, 1.500000000000000222 ) ) ;
#244 = SURFACE_STYLE_USAGE ( .BOTH. , #193 ) ;
#245 = DIRECTION ( 'NONE',  ( -1.000000000000000000, 0.0000000000000000000, 1.224646799147353454E-16 ) ) ;
#246 = CARTESIAN_POINT ( 'NONE',  ( 0.0000000000000000000, 0.0000000000000000000, 0.0000000000000000000 ) ) ;
#247 = VECTOR ( 'NONE', #106, 39.37007874015748143 ) ;
#248 = EDGE_CURVE ( 'NONE', #79, #28, #289, .T. ) ;
#249 = DIRECTION ( 'NONE',  ( -1.224646799147353454E-16, -0.0000000000000000000, -1.000000000000000000 ) ) ;
#250 = CARTESIAN_POINT ( 'NONE',  ( 9.175666142611546005E-19, 0.0000000000000000000, 0.007492500000000000028 ) ) ;
#251 = CONICAL_SURFACE ( 'NONE', #175, 0.007492500000000000028, 0.1745329251994339192 ) ;
#252 = DIRECTION ( 'NONE',  ( -1.224646799147353454E-16, -0.0000000000000000000, -1.000000000000000000 ) ) ;
#253 = EDGE_LOOP ( 'NONE', ( #81, #238, #260, #230 ) ) ;
#254 = DIRECTION ( 'NONE',  ( 1.000000000000000000, 0.0000000000000000000, 0.0000000000000000000 ) ) ;
#255 = ORIENTED_EDGE ( 'NONE', *, *, #248, .F. ) ;
#256 = EDGE_CURVE ( 'NONE', #79, #104, #179, .T. ) ;
#257 = ADVANCED_FACE ( 'NONE', ( #273 ), #251, .T. ) ;
#258 = ORIENTED_EDGE ( 'NONE', *, *, #128, .F. ) ;
#259 = CARTESIAN_POINT ( 'NONE',  ( 0.0000000000000000000, 0.0000000000000000000, 1.500000000000000222 ) ) ;
#260 = ORIENTED_EDGE ( 'NONE', *, *, #219, .T. ) ;
#261 =( CONVERSION_BASED_UNIT ( 'INCH', #165 ) LENGTH_UNIT ( ) NAMED_UNIT ( #68 ) );
#262 = AXIS2_PLACEMENT_3D ( 'NONE', #112, #312, #266 ) ;
#263 = AXIS2_PLACEMENT_3D ( 'NONE', #189, #143, #264 ) ;
#264 = DIRECTION ( 'NONE',  ( 1.000000000000000000, 0.0000000000000000000, 0.0000000000000000000 ) ) ;
#265 = LINE ( 'NONE', #295, #278 ) ;
#266 = DIRECTION ( 'NONE',  ( -1.000000000000000000, 0.0000000000000000000, 0.0000000000000000000 ) ) ;
#267 = LINE ( 'NONE', #314, #208 ) ;
#268 =( GEOMETRIC_REPRESENTATION_CONTEXT ( 3 ) GLOBAL_UNCERTAINTY_ASSIGNED_CONTEXT ( ( #8 ) ) GLOBAL_UNIT_ASSIGNED_CONTEXT ( ( #144, #110, #164 ) ) REPRESENTATION_CONTEXT ( 'NONE', 'WORKASPACE' ) );
#269 = DIRECTION ( 'NONE',  ( -1.224646799147353454E-16, -0.0000000000000000000, -1.000000000000000000 ) ) ;
#270 = EDGE_CURVE ( 'NONE', #51, #279, #296, .T. ) ;
#271 = CARTESIAN_POINT ( 'NONE',  ( 5.510910596163090326E-18, 0.0000000000000000000, 0.04499999999999999833 ) ) ;
#272 = EDGE_CURVE ( 'NONE', #31, #282, #115, .T. ) ;
#273 = FACE_OUTER_BOUND ( 'NONE', #187, .T. ) ;
#274 = AXIS2_PLACEMENT_3D ( 'NONE', #61, #168, #18 ) ;
#275 = DIRECTION ( 'NONE',  ( 1.224646799147353207E-16, 1.000000000000000000, -0.0000000000000000000 ) ) ;
#276 = CARTESIAN_POINT ( 'NONE',  ( 0.0000000000000000000, 0.0000000000000000000, 0.0000000000000000000 ) ) ;
#277 = LINE ( 'NONE', #154, #288 ) ;
#278 = VECTOR ( 'NONE', #88, 39.37007874015748143 ) ;
#279 = VERTEX_POINT ( 'NONE', #99 ) ;
#280 = EDGE_CURVE ( 'NONE', #282, #28, #26, .T. ) ;
#281 = EDGE_CURVE ( 'NONE', #51, #25, #21, .T. ) ;
#282 = VERTEX_POINT ( 'NONE', #198 ) ;
#283 = ORIENTED_EDGE ( 'NONE', *, *, #270, .T. ) ;
#284 = FILL_AREA_STYLE_COLOUR ( '', #109 ) ;
#285 = EDGE_LOOP ( 'NONE', ( #52, #209 ) ) ;
#286 = SURFACE_SIDE_STYLE ('',( #142 ) ) ;
#287 = LINE ( 'NONE', #241, #57 ) ;
#288 = VECTOR ( 'NONE', #126, 39.37007874015747433 ) ;
#289 = CIRCLE ( 'NONE', #215, 0.007492500000000000028 ) ;
#290 = DIRECTION ( 'NONE',  ( -0.0000000000000000000, -0.0000000000000000000, -1.000000000000000000 ) ) ;
#291 = ADVANCED_FACE ( 'NONE', ( #42 ), #121, .T. ) ;
#292 = CARTESIAN_POINT ( 'NONE',  ( 0.04750000000000064587, 6.735557395310483192E-18, 1.500000000000000222 ) ) ;
#293 = EDGE_CURVE ( 'NONE', #181, #32, #239, .T. ) ;
#294 = ORIENTED_EDGE ( 'NONE', *, *, #70, .F. ) ;
#295 = CARTESIAN_POINT ( 'NONE',  ( 0.007492500000000000028, 9.175666142611544079E-19, -9.175666142611546005E-19 ) ) ;
#296 = CIRCLE ( 'NONE', #12, 0.06250000000000002776 ) ;
#297 = DIRECTION ( 'NONE',  ( -1.000000000000000000, 0.0000000000000000000, 0.0000000000000000000 ) ) ;
#298 = DIRECTION ( 'NONE',  ( 0.0000000000000000000, 0.0000000000000000000, -1.000000000000000000 ) ) ;
#299 = CYLINDRICAL_SURFACE ( 'NONE', #40, 0.06250000000000002776 ) ;
#300 = VECTOR ( 'NONE', #206, 39.37007874015748143 ) ;
#301 = ORIENTED_EDGE ( 'NONE', *, *, #36, .F. ) ;
#302 = DIRECTION ( 'NONE',  ( -1.224646799147353454E-16, -0.0000000000000000000, -1.000000000000000000 ) ) ;
#303 = ORIENTED_EDGE ( 'NONE', *, *, #270, .F. ) ;
#304 = AXIS2_PLACEMENT_3D ( 'NONE', #10, #60, #136 ) ;
#305 = EDGE_LOOP ( 'NONE', ( #258, #237, #303, #127 ) ) ;
#306 =( CONVERSION_BASED_UNIT ( 'INCH', #184 ) LENGTH_UNIT ( ) NAMED_UNIT ( #101 ) );
#307 = ORIENTED_EDGE ( 'NONE', *, *, #103, .T. ) ;
#308 = ORIENTED_EDGE ( 'NONE', *, *, #280, .T. ) ;
#309 = APPLICATION_PROTOCOL_DEFINITION ( 'draft international standard', 'automotive_design', 1998, #146 ) ;
#310 = CIRCLE ( 'NONE', #274, 0.06250000000000002776 ) ;
#311 = CARTESIAN_POINT ( 'NONE',  ( 4.371536378502421744E-17, 0.0000000000000000000, 0.3569630346926195297 ) ) ;
#312 = DIRECTION ( 'NONE',  ( -0.0000000000000000000, -0.0000000000000000000, -1.000000000000000000 ) ) ;
#313 = PRODUCT_CONTEXT ( 'NONE', #49, 'mechanical' ) ;
#314 = CARTESIAN_POINT ( 'NONE',  ( 0.06250000000000002776, 7.654042494670959086E-18, 1.500000000000000222 ) ) ;
#315 = EDGE_CURVE ( 'NONE', #31, #235, #80, .T. ) ;
#316 = VECTOR ( 'NONE', #218, 39.37007874015748854 ) ;
#317 = PRODUCT_DEFINITION_FORMATION_WITH_SPECIFIED_SOURCE ( 'ANY', '', #318, .NOT_KNOWN. ) ;
#318 = PRODUCT ( 'Micro_BMR-015-2X', 'Micro_BMR-015-2X', '', ( #313 ) ) ;
#319 = ADVANCED_FACE ( 'NONE', ( #77 ), #210, .T. ) ;
#320 = SPHERICAL_SURFACE ( 'NONE', #263, 0.007492500000000000028 ) ;
#321 =( LENGTH_UNIT ( ) NAMED_UNIT ( * ) SI_UNIT ( $, .METRE. ) );
#322 = CIRCLE ( 'NONE', #225, 0.04750000000000064587 ) ;
#323 = FACE_OUTER_BOUND ( 'NONE', #305, .T. ) ;
#324 = DIRECTION ( 'NONE',  ( 0.0000000000000000000, -1.000000000000000000, 0.0000000000000000000 ) ) ;
#325 = CARTESIAN_POINT ( 'NONE',  ( -0.007492500000000000028, 0.0000000000000000000, 9.175666142611546005E-19 ) ) ;
ENDSEC;
END-ISO-10303-21;
